  0
SECTION
  2
HEADER
  9
$ACADVER
  1
AC1009
  9
$DWGCODEPAGE
  3
ansi_932
  9
$INSBASE
 10
0.0
 20
0.0
 30
0.0
  9
$EXTMIN
 10
-474.4276062545233
 20
-570.0
 30
0.0
  9
$EXTMAX
 10
1187.572393745477
 20
570.0
 30
0.0
  9
$LIMMIN
 10
-660.5555555555555
 20
-467.2222222222222
  9
$LIMMAX
 10
660.5555555555555
 20
467.2222222222222
  9
$ORTHOMODE
 70
     0
  9
$REGENMODE
 70
     1
  9
$FILLMODE
 70
     1
  9
$QTEXTMODE
 70
     0
  9
$MIRRTEXT
 70
     1
  9
$DRAGMODE
 70
     2
  9
$LTSCALE
 40
1.111111111111111
  9
$OSMODE
 70
    37
  9
$ATTMODE
 70
     1
  9
$TEXTSIZE
 40
0.2
  9
$TRACEWID
 40
0.05
  9
$TEXTSTYLE
  7
STANDARD
  9
$CLAYER
  8
0
  9
$CELTYPE
  6
BYLAYER
  9
$CECOLOR
 62
   256
  9
$DIMSCALE
 40
1.0
  9
$DIMASZ
 40
2.777777777777778
  9
$DIMEXO
 40
0.0625
  9
$DIMDLI
 40
0.38
  9
$DIMRND
 40
0.0
  9
$DIMDLE
 40
0.0
  9
$DIMEXE
 40
0.18
  9
$DIMTP
 40
0.0
  9
$DIMTM
 40
0.0
  9
$DIMTXT
 40
0.18
  9
$DIMCEN
 40
0.09
  9
$DIMTSZ
 40
0.0
  9
$DIMTOL
 70
     0
  9
$DIMLIM
 70
     0
  9
$DIMTIH
 70
     1
  9
$DIMTOH
 70
     1
  9
$DIMSE1
 70
     0
  9
$DIMSE2
 70
     0
  9
$DIMTAD
 70
     3
  9
$DIMZIN
 70
     0
  9
$DIMBLK
  1

  9
$DIMASO
 70
     1
  9
$DIMSHO
 70
     1
  9
$DIMPOST
  1

  9
$DIMAPOST
  1

  9
$DIMALT
 70
     0
  9
$DIMALTD
 70
     2
  9
$DIMALTF
 40
25.4
  9
$DIMLFAC
 40
1.0
  9
$DIMTOFL
 70
     0
  9
$DIMTVP
 40
0.0
  9
$DIMTIX
 70
     0
  9
$DIMSOXD
 70
     0
  9
$DIMSAH
 70
     0
  9
$DIMBLK1
  1

  9
$DIMBLK2
  1

  9
$DIMSTYLE
  2
STANDARD
  9
$DIMCLRD
 70
     0
  9
$DIMCLRE
 70
     0
  9
$DIMCLRT
 70
     0
  9
$DIMTFAC
 40
1.0
  9
$DIMGAP
 40
0.09
  9
$LUNITS
 70
     2
  9
$LUPREC
 70
     4
  9
$SKETCHINC
 40
0.1
  9
$FILLETRAD
 40
0.5
  9
$AUNITS
 70
     0
  9
$AUPREC
 70
     0
  9
$MENU
  1
.
  9
$ELEVATION
 40
0.0
  9
$PELEVATION
 40
0.0
  9
$THICKNESS
 40
0.0
  9
$LIMCHECK
 70
     0
  9
$CHAMFERA
 40
0.5
  9
$CHAMFERB
 40
0.5
  9
$SKPOLY
 70
     0
  9
$TDCREATE
 40
2455483.495829005
  9
$TDUPDATE
 40
2455483.495829016
  9
$TDINDWG
 40
0.0000000116
  9
$TDUSRTIMER
 40
0.0000000116
  9
$USRTIMER
 70
     1
  9
$ANGBASE
 50
0.0
  9
$ANGDIR
 70
     0
  9
$PDMODE
 70
     0
  9
$PDSIZE
 40
1.0
  9
$PLINEWID
 40
0.0
  9
$COORDS
 70
     1
  9
$SPLFRAME
 70
     0
  9
$SPLINETYPE
 70
     6
  9
$SPLINESEGS
 70
     8
  9
$ATTDIA
 70
     0
  9
$ATTREQ
 70
     1
  9
$HANDLING
 70
     1
  9
$HANDSEED
  5
5BF
  9
$SURFTAB1
 70
     6
  9
$SURFTAB2
 70
     6
  9
$SURFTYPE
 70
     6
  9
$SURFU
 70
     6
  9
$SURFV
 70
     6
  9
$UCSNAME
  2

  9
$UCSORG
 10
0.0
 20
0.0
 30
0.0
  9
$UCSXDIR
 10
1.0
 20
0.0
 30
0.0
  9
$UCSYDIR
 10
0.0
 20
1.0
 30
0.0
  9
$PUCSNAME
  2

  9
$PUCSORG
 10
0.0
 20
0.0
 30
0.0
  9
$PUCSXDIR
 10
1.0
 20
0.0
 30
0.0
  9
$PUCSYDIR
 10
0.0
 20
1.0
 30
0.0
  9
$USERI1
 70
     0
  9
$USERI2
 70
     0
  9
$USERI3
 70
     0
  9
$USERI4
 70
     0
  9
$USERI5
 70
     0
  9
$USERR1
 40
0.0
  9
$USERR2
 40
0.0
  9
$USERR3
 40
0.0
  9
$USERR4
 40
0.0
  9
$USERR5
 40
0.0
  9
$WORLDVIEW
 70
     1
  9
$SHADEDGE
 70
     3
  9
$SHADEDIF
 70
    70
  9
$TILEMODE
 70
     1
  9
$MAXACTVP
 70
    64
  9
$PLIMCHECK
 70
     0
  9
$PEXTMIN
 10
1.000000000000000E+20
 20
1.000000000000000E+20
 30
1.000000000000000E+20
  9
$PEXTMAX
 10
-1.000000000000000E+20
 20
-1.000000000000000E+20
 30
-1.000000000000000E+20
  9
$PLIMMIN
 10
0.0
 20
0.0
  9
$PLIMMAX
 10
12.0
 20
9.0
  9
$UNITMODE
 70
     0
  9
$VISRETAIN
 70
     0
  9
$PLINEGEN
 70
     1
  9
$PSLTSCALE
 70
     0
  0
ENDSEC
  0
SECTION
  2
TABLES
  0
TABLE
  2
VPORT
 70
     1
  0
VPORT
  2
*ACTIVE
 70
     0
 10
0.0
 20
0.0
 11
1.0
 21
1.0
 12
0.0
 22
0.0
 13
0.0
 23
0.0
 14
0.5
 24
0.5
 15
0.5
 25
0.5
 16
0.0
 26
0.0
 36
1.0
 17
356.5723937454767
 27
0.0
 37
0.0
 40
387.6
 41
1.457894736842105
 42
50.0
 43
0.0
 44
0.0
 50
0.0
 51
0.0
 71
     0
 72
  1000
 73
     1
 74
     1
 75
     0
 76
     0
 77
     0
 78
     0
  0
ENDTAB
  0
TABLE
  2
LTYPE
 70
    28
  0
LTYPE
  2
CONTINUOUS
 70
     0
  3
Solid line
 72
    65
 73
     0
 40
0.0
  0
LTYPE
  2
HIDDENX2
 70
     0
  3
CADPAC LINETYPE
 72
    65
 73
     2
 40
18.58563535911603
 49
13.93922651933703
 49
-4.646408839779008
  0
LTYPE
  2
HIDDEN
 70
     0
  3
CADPAC LINETYPE
 72
    65
 73
     2
 40
13.93922651933703
 49
9.292817679558016
 49
-4.646408839779008
  0
LTYPE
  2
HIDDEN2
 70
     0
  3
CADPAC LINETYPE
 72
    65
 73
     2
 40
11.61602209944752
 49
6.969613259668512
 49
-4.646408839779008
  0
LTYPE
  2
DASHED
 70
     0
  3
CADPAC LINETYPE
 72
    65
 73
     2
 40
13.00994475138128
 49
9.292817679558016
 49
-3.717127071823268
  0
LTYPE
  2
DASHED2
 70
     0
  3
CADPAC LINETYPE
 72
    65
 73
     2
 40
8.363535911602174
 49
5.575690607734851
 49
-2.787845303867323
  0
LTYPE
  2
DASHEDX2
 70
     0
  3
CADPAC LINETYPE
 72
    65
 73
     2
 40
22.3027624309393
 49
18.58563535911603
 49
-3.717127071823268
  0
LTYPE
  2
DOTX2
 70
     0
  3
CADPAC LINETYPE
 72
    65
 73
     2
 40
8.131215469613366
 49
0.0
 49
-8.131215469613366
  0
LTYPE
  2
DOT
 70
     0
  3
CADPAC LINETYPE
 72
    65
 73
     2
 40
6.504972375690693
 49
0.0
 49
-6.504972375690693
  0
LTYPE
  2
DOT2
 70
     0
  3
CADPAC LINETYPE
 72
    65
 73
     2
 40
4.87872928176802
 49
0.0
 49
-4.87872928176802
  0
LTYPE
  2
CENTERX2
 70
     0
  3
CADPAC LINETYPE
 72
    65
 73
     4
 40
27.87845303867405
 49
11.61602209944752
 49
-5.80801104972376
 49
4.646408839779008
 49
-5.80801104972376
  0
LTYPE
  2
CENTER
 70
     0
  3
CADPAC LINETYPE
 72
    65
 73
     4
 40
21.37348066298344
 49
9.292817679558016
 49
-4.646408839779008
 49
2.787845303867405
 49
-4.646408839779008
  0
LTYPE
  2
CENTER2
 70
     0
  3
CADPAC LINETYPE
 72
    65
 73
     4
 40
14.86850828729283
 49
6.969613259668512
 49
-3.484806629834256
 49
0.9292817679558016
 49
-3.484806629834256
  0
LTYPE
  2
DASHDOTX2
 70
     0
  3
CADPAC LINETYPE
 72
    65
 73
     4
 40
44.6055248618785
 49
22.3027624309392
 49
-7.434254143646434
 49
7.434254143646434
 49
-7.434254143646434
  0
LTYPE
  2
DASHDOT
 70
     0
  3
CADPAC LINETYPE
 72
    65
 73
     4
 40
22.3027624309394
 49
11.1513812154696
 49
-3.717127071823268
 49
3.717127071823268
 49
-3.717127071823268
  0
LTYPE
  2
DASHDOT2
 70
     0
  3
CADPAC LINETYPE
 72
    65
 73
     4
 40
14.31093922651943
 49
8.363535911602199
 49
-2.787845303867451
 49
0.3717127071823268
 49
-2.787845303867451
  0
LTYPE
  2
DIVIDEX2
 70
     0
  3
CADPAC LINETYPE
 72
    65
 73
     6
 40
59.47403314917137
 49
22.3027624309392
 49
-7.434254143646434
 49
7.434254143646434
 49
-7.434254143646434
 49
7.434254143646434
 49
-7.434254143646434
  0
LTYPE
  2
DIVIDE
 70
     0
  3
CADPAC LINETYPE
 72
    65
 73
     6
 40
29.73701657458594
 49
11.1513812154696
 49
-3.717127071823268
 49
3.717127071823268
 49
-3.717127071823268
 49
3.717127071823268
 49
-3.717127071823268
  0
LTYPE
  2
DIVIDE2
 70
     0
  3
CADPAC LINETYPE
 72
    65
 73
     6
 40
22.30276243093946
 49
8.363535911602199
 49
-2.787845303867451
 49
2.787845303867451
 49
-2.787845303867451
 49
2.787845303867451
 49
-2.787845303867451
  0
LTYPE
  2
BORDERX2
 70
     0
  3
CADPAC LINETYPE
 72
    65
 73
     6
 40
40.65607734806632
 49
11.61602209944752
 49
-5.80801104972376
 49
11.61602209944752
 49
-5.80801104972376
 49
0.0
 49
-5.80801104972376
  0
LTYPE
  2
BORDER
 70
     0
  3
CADPAC LINETYPE
 72
    65
 73
     6
 40
32.52486187845306
 49
9.292817679558016
 49
-4.646408839779008
 49
9.292817679558016
 49
-4.646408839779008
 49
0.0
 49
-4.646408839779008
  0
LTYPE
  2
BORDER2
 70
     0
  3
CADPAC LINETYPE
 72
    65
 73
     6
 40
24.16132596685078
 49
7.434254143646434
 49
-4.646408839779008
 49
2.787845303867323
 49
-4.646408839779008
 49
0.0
 49
-4.646408839779008
  0
LTYPE
  2
PHANTOMX2
 70
     0
  3
CADPAC LINETYPE
 72
    65
 73
     6
 40
34.84806629834256
 49
11.61602209944752
 49
-4.646408839779008
 49
4.646408839779008
 49
-4.646408839779008
 49
4.646408839779008
 49
-4.646408839779008
  0
LTYPE
  2
PHANTOM
 70
     0
  3
CADPAC LINETYPE
 72
    65
 73
     6
 40
28.80773480662985
 49
9.292817679558016
 49
-4.646408839779008
 49
2.787845303867405
 49
-4.646408839779008
 49
2.787845303867405
 49
-4.646408839779008
  0
LTYPE
  2
PHANTOM2
 70
     0
  3
CADPAC LINETYPE
 72
    65
 73
     6
 40
24.62596685082875
 49
6.969613259668512
 49
-4.646408839779008
 49
1.858563535911603
 49
-4.646408839779008
 49
1.858563535911603
 49
-4.646408839779008
  0
LTYPE
  2
ACAD_ISO06W100
 70
     0
  3
CADPAC LINETYPE
 72
    65
 73
     8
 40
49.25193370165719
 49
22.3027624309392
 49
-4.646408839779008
 49
2.787845303867323
 49
-4.646408839779008
 49
2.787845303867323
 49
-4.646408839779008
 49
2.787845303867323
 49
-4.646408839779008
  0
LTYPE
  2
ACAD_ISO13W100
 70
     0
  3
CADPAC LINETYPE
 72
    65
 73
     8
 40
37.17127071823207
 49
9.292817679558016
 49
-4.646408839779008
 49
9.292817679558016
 49
-4.646408839779008
 49
0.0
 49
-4.646408839779008
 49
0.0
 49
-4.646408839779008
  0
LTYPE
  2
ACAD_ISO14W100
 70
     0
  3
CADPAC LINETYPE
 72
    65
 73
     8
 40
27.87845303867405
 49
9.292817679558016
 49
-4.646408839779008
 49
0.0
 49
-4.646408839779008
 49
0.0
 49
-4.646408839779008
 49
0.0
 49
-4.646408839779008
  0
ENDTAB
  0
TABLE
  2
LAYER
 70
     3
  0
LAYER
  2
0
 70
     0
 62
     7
  6
CONTINUOUS
  0
LAYER
  2
LAYER0001
 70
     0
 62
     7
  6
CONTINUOUS
  0
LAYER
  2
LAYER0002
 70
     0
 62
     7
  6
CONTINUOUS
  0
ENDTAB
  0
TABLE
  2
STYLE
 70
     5
  0
STYLE
  2
STANDARD
 70
     0
 40
0.0
 41
1.0
 50
0.0
 71
     0
 42
0.2
  3
txt
  4

  0
STYLE
  2
FDASTYLE1
 70
     0
 40
0.0
 41
0.6213017751479282
 50
0.0
 71
     0
 42
0.2
  3
txt.shx
  4
bigfont
  0
STYLE
  2
FDASTYLE0
 70
     4
 40
0.0
 41
0.8
 50
0.0
 71
     0
 42
0.2
  3
txt.shx
  4
bigfont
  0
STYLE
  2
FDASTYLE2
 70
     0
 40
0.0
 41
0.8123476848090979
 50
0.0
 71
     0
 42
0.2
  3
MSMINCHO.TTC
  4

  0
STYLE
  2
FDASTYLE3
 70
     0
 40
0.0
 41
0.6684336356141793
 50
0.0
 71
     0
 42
0.2
  3
MSGOTHIC.TTC
  4

  0
ENDTAB
  0
TABLE
  2
VIEW
 70
     0
  0
ENDTAB
  0
TABLE
  2
UCS
 70
     0
  0
ENDTAB
  0
TABLE
  2
APPID
 70
     2
  0
APPID
  2
ACAD
 70
     0
  0
APPID
  2
DAFUSIONOUT
 70
     0
  0
ENDTAB
  0
TABLE
  2
DIMSTYLE
 70
     1
  0
DIMSTYLE
  2
STANDARD
 70
     0
  3

  4

  5

  6

  7

 40
1.0
 41
0.18
 42
0.0625
 43
0.38
 44
0.18
 45
0.0
 46
0.0
 47
0.0
 48
0.0
140
0.18
141
0.09
142
0.0
143
25.4
144
1.0
145
0.0
146
1.0
147
0.09
 71
     0
 72
     0
 73
     1
 74
     1
 75
     0
 76
     0
 77
     0
 78
     0
170
     0
171
     2
172
     0
173
     0
174
     0
175
     0
176
     0
177
     0
178
     0
  0
ENDTAB
  0
ENDSEC
  0
SECTION
  2
BLOCKS
  0
BLOCK
  8
0
  2
$MODEL_SPACE
 70
     0
 10
0.0
 20
0.0
 30
0.0
  3
$MODEL_SPACE
  1

  0
ENDBLK
  5
21
  8
0
  0
BLOCK
 67
     1
  8
0
  2
$PAPER_SPACE
 70
     0
 10
0.0
 20
0.0
 30
0.0
  3
$PAPER_SPACE
  1

  0
ENDBLK
  5
1D
 67
     1
  8
0
  0
BLOCK
  8
0
  2
DC_GROUP_1
 70
     0
 10
0.0
 20
0.0
 30
0.0
  3
DC_GROUP_1
  1

  0
LINE
  5
196
  8
LAYER0001
  6
CONTINUOUS
 62
     7
 10
233.1783098718692
 20
72.956825821488
 30
0.0
 11
167.2112221643497
 21
72.956825821488
 31
0.0
  0
LINE
  5
197
  8
LAYER0001
  6
CONTINUOUS
 62
     7
 10
233.1783098718692
 20
29.95682772883663
 30
0.0
 11
167.2112221643497
 21
29.95682772883663
 31
0.0
  0
LINE
  5
198
  8
LAYER0001
  6
CONTINUOUS
 62
     7
 10
169.4972176477481
 20
72.956825821488
 30
0.0
 11
169.4972176477481
 21
29.95682772883663
 31
0.0
  0
INSERT
  5
199
  8
LAYER0001
  6
CONTINUOUS
  2
DC_GROUP_2
 10
0.0
 20
0.0
 30
0.0
  0
INSERT
  5
19A
  8
LAYER0001
  6
CONTINUOUS
  2
DC_GROUP_3
 10
0.0
 20
0.0
 30
0.0
  0
TEXT
  5
19C
  8
LAYER0001
 62
     7
 10
168.483255020821
 20
43.45683895985602
 30
0.0
 40
4.0
  1
φ43H7
 50
89.90000000000001
 41
0.6213017751479282
  7
FDASTYLE1
 72
     5
 11
168.5058100335495
 21
56.37989619996618
 31
0.0
  0
ENDBLK
  5
4E
  8
0
  0
BLOCK
  8
0
  2
DC_GROUP_2
 70
     0
 10
0.0
 20
0.0
 30
0.0
  3
DC_GROUP_2
  1

  0
LINE
  5
19D
  8
LAYER0001
  6
CONTINUOUS
 62
     7
 10
168.9613181128505
 20
70.95682741385734
 30
0.0
 11
169.4972176477481
 21
72.956825821488
 31
0.0
  0
LINE
  5
19E
  8
LAYER0001
  6
CONTINUOUS
 62
     7
 10
169.4972176477481
 20
72.956825821488
 30
0.0
 11
170.0331171826457
 21
70.95682741385734
 31
0.0
  0
LINE
  5
19F
  8
LAYER0001
  6
CONTINUOUS
 62
     7
 10
169.4972176477481
 20
72.956825821488
 30
0.0
 11
169.4972176477481
 21
70.95682741385734
 31
0.0
  0
ENDBLK
  5
51
  8
0
  0
BLOCK
  8
0
  2
DC_GROUP_3
 70
     0
 10
0.0
 20
0.0
 30
0.0
  3
DC_GROUP_3
  1

  0
LINE
  5
1A0
  8
LAYER0001
  6
CONTINUOUS
 62
     7
 10
170.0331171826457
 20
31.95682613646729
 30
0.0
 11
169.4972176477481
 21
29.95682772883663
 31
0.0
  0
LINE
  5
1A1
  8
LAYER0001
  6
CONTINUOUS
 62
     7
 10
169.4972176477481
 20
29.95682772883663
 30
0.0
 11
168.9613181128505
 21
31.95682613646729
 31
0.0
  0
LINE
  5
1A2
  8
LAYER0001
  6
CONTINUOUS
 62
     7
 10
169.4972176477481
 20
29.95682772883663
 30
0.0
 11
169.4972176477481
 21
31.95682613646729
 31
0.0
  0
ENDBLK
  5
54
  8
0
  0
BLOCK
  8
0
  2
DC_GROUP_4
 70
     0
 10
0.0
 20
0.0
 30
0.0
  3
DC_GROUP_4
  1

  0
LINE
  5
1A3
  8
LAYER0001
  6
CONTINUOUS
 62
     7
 10
200.1783175012638
 20
78.456825821488
 30
0.0
 11
155.7028603479434
 21
78.456825821488
 31
0.0
  0
LINE
  5
1A4
  8
LAYER0001
  6
CONTINUOUS
 62
     7
 10
203.378314449506
 20
24.45682772883663
 30
0.0
 11
155.7028603479434
 21
24.45682772883663
 31
0.0
  0
LINE
  5
1A5
  8
LAYER0001
  6
CONTINUOUS
 62
     7
 10
157.9888558313419
 20
78.456825821488
 30
0.0
 11
157.9888558313419
 21
24.45682772883663
 31
0.0
  0
INSERT
  5
1A6
  8
LAYER0001
  6
CONTINUOUS
  2
DC_GROUP_5
 10
0.0
 20
0.0
 30
0.0
  0
INSERT
  5
1A7
  8
LAYER0001
  6
CONTINUOUS
  2
DC_GROUP_6
 10
0.0
 20
0.0
 30
0.0
  0
TEXT
  5
1A8
  8
LAYER0001
 62
     7
 10
156.3748956413535
 20
43.45963434626439
 30
0.0
 40
4.0
  1
φ54H7
 50
89.90000000000001
 41
0.6213017751479295
  7
FDASTYLE1
 72
     5
 11
156.397450654082
 21
56.38269158637458
 31
0.0
  0
ENDBLK
  5
57
  8
0
  0
BLOCK
  8
0
  2
DC_GROUP_5
 70
     0
 10
0.0
 20
0.0
 30
0.0
  3
DC_GROUP_5
  1

  0
LINE
  5
1A9
  8
LAYER0001
  6
CONTINUOUS
 62
     7
 10
157.4529562964443
 20
76.45682741385733
 30
0.0
 11
157.9888558313419
 21
78.456825821488
 31
0.0
  0
LINE
  5
1AA
  8
LAYER0001
  6
CONTINUOUS
 62
     7
 10
157.9888558313419
 20
78.456825821488
 30
0.0
 11
158.5247553662395
 21
76.45682741385733
 31
0.0
  0
LINE
  5
1AB
  8
LAYER0001
  6
CONTINUOUS
 62
     7
 10
157.9888558313419
 20
78.456825821488
 30
0.0
 11
157.9888558313419
 21
76.45682741385733
 31
0.0
  0
ENDBLK
  5
5A
  8
0
  0
BLOCK
  8
0
  2
DC_GROUP_6
 70
     0
 10
0.0
 20
0.0
 30
0.0
  3
DC_GROUP_6
  1

  0
LINE
  5
1AC
  8
LAYER0001
  6
CONTINUOUS
 62
     7
 10
158.5247553662395
 20
26.45682613646729
 30
0.0
 11
157.9888558313419
 21
24.45682772883663
 31
0.0
  0
LINE
  5
1AD
  8
LAYER0001
  6
CONTINUOUS
 62
     7
 10
157.9888558313419
 20
24.45682772883663
 30
0.0
 11
157.4529562964443
 21
26.45682613646729
 31
0.0
  0
LINE
  5
1AE
  8
LAYER0001
  6
CONTINUOUS
 62
     7
 10
157.9888558313419
 20
24.45682772883663
 30
0.0
 11
157.9888558313419
 21
26.45682613646729
 31
0.0
  0
ENDBLK
  5
5D
  8
0
  0
BLOCK
  8
0
  2
DC_GROUP_7
 70
     0
 10
0.0
 20
0.0
 30
0.0
  3
DC_GROUP_7
  1

  0
LINE
  5
1AF
  8
LAYER0001
  6
CONTINUOUS
 62
     7
 10
199.1783175012638
 20
121.456825821488
 30
0.0
 11
143.115595333295
 21
121.456825821488
 31
0.0
  0
LINE
  5
1B0
  8
LAYER0001
  6
CONTINUOUS
 62
     7
 10
199.1783175012638
 20
-18.54317227116337
 30
0.0
 11
143.115595333295
 21
-18.54317227116337
 31
0.0
  0
LINE
  5
1B1
  8
LAYER0001
  6
CONTINUOUS
 62
     7
 10
145.4015908166934
 20
121.456825821488
 30
0.0
 11
145.4015908166934
 21
-18.54317227116337
 31
0.0
  0
INSERT
  5
1B2
  8
LAYER0001
  6
CENTER
  2
DC_GROUP_8
 10
0.0
 20
0.0
 30
0.0
  0
INSERT
  5
1B3
  8
LAYER0001
  6
CENTER
  2
DC_GROUP_9
 10
0.0
 20
0.0
 30
0.0
  0
TEXT
  5
1B4
  8
LAYER0001
 62
     7
 10
143.7848381013195
 20
41.85963678320314
 30
0.0
 40
4.0
  1
φ140H7
 50
89.90000000000001
 41
0.6243496357960451
  7
FDASTYLE1
 72
     5
 11
143.8118625405334
 21
57.34348416766694
 31
0.0
  0
ENDBLK
  5
60
  8
0
  0
BLOCK
  8
0
  2
DC_GROUP_8
 70
     0
 10
0.0
 20
0.0
 30
0.0
  3
DC_GROUP_8
  1

  0
LINE
  5
1B5
  8
LAYER0001
  6
CONTINUOUS
 62
     7
 10
144.8656912817958
 20
119.4568274138573
 30
0.0
 11
145.4015908166934
 21
121.456825821488
 31
0.0
  0
LINE
  5
1B6
  8
LAYER0001
  6
CONTINUOUS
 62
     7
 10
145.4015908166934
 20
121.456825821488
 30
0.0
 11
145.937490351591
 21
119.4568274138573
 31
0.0
  0
LINE
  5
1B7
  8
LAYER0001
  6
CONTINUOUS
 62
     7
 10
145.4015908166934
 20
121.456825821488
 30
0.0
 11
145.4015908166934
 21
119.4568274138573
 31
0.0
  0
ENDBLK
  5
63
  8
0
  0
BLOCK
  8
0
  2
DC_GROUP_9
 70
     0
 10
0.0
 20
0.0
 30
0.0
  3
DC_GROUP_9
  1

  0
LINE
  5
1B8
  8
LAYER0001
  6
CONTINUOUS
 62
     7
 10
145.937490351591
 20
-16.54317386353271
 30
0.0
 11
145.4015908166934
 21
-18.54317227116337
 31
0.0
  0
LINE
  5
1B9
  8
LAYER0001
  6
CONTINUOUS
 62
     7
 10
145.4015908166934
 20
-18.54317227116337
 30
0.0
 11
144.8656912817958
 21
-16.54317386353271
 31
0.0
  0
LINE
  5
1BA
  8
LAYER0001
  6
CONTINUOUS
 62
     7
 10
145.4015908166934
 20
-18.54317227116337
 30
0.0
 11
145.4015908166934
 21
-16.54317386353271
 31
0.0
  0
ENDBLK
  5
66
  8
0
  0
BLOCK
  8
0
  2
DC_GROUP_10
 70
     0
 10
0.0
 20
0.0
 30
0.0
  3
DC_GROUP_10
  1

  0
LINE
  5
1BB
  8
LAYER0001
  6
CONTINUOUS
 62
     7
 10
199.1783175012638
 20
131.456825821488
 30
0.0
 11
131.2475991174747
 21
131.456825821488
 31
0.0
  0
LINE
  5
1BC
  8
LAYER0001
  6
CONTINUOUS
 62
     7
 10
199.1783175012638
 20
-28.54317036381474
 30
0.0
 11
131.2475991174747
 21
-28.54317036381474
 31
0.0
  0
LINE
  5
1BD
  8
LAYER0001
  6
CONTINUOUS
 62
     7
 10
133.5335946008731
 20
131.456825821488
 30
0.0
 11
133.5335946008731
 21
-28.54317036381474
 31
0.0
  0
INSERT
  5
1BE
  8
LAYER0001
  6
CONTINUOUS
  2
DC_GROUP_11
 10
0.0
 20
0.0
 30
0.0
  0
INSERT
  5
1BF
  8
LAYER0001
  6
CONTINUOUS
  2
DC_GROUP_12
 10
0.0
 20
0.0
 30
0.0
  0
TEXT
  5
1C0
  8
LAYER0001
 62
     7
 10
131.9224269362701
 20
45.05963190932565
 30
0.0
 40
4.0
  1
φ160
 50
89.90000000000001
 41
0.6167800453514755
  7
FDASTYLE1
 72
     5
 11
131.9405118625758
 21
55.42152088915098
 31
0.0
  0
ENDBLK
  5
69
  8
0
  0
BLOCK
  8
0
  2
DC_GROUP_11
 70
     0
 10
0.0
 20
0.0
 30
0.0
  3
DC_GROUP_11
  1

  0
LINE
  5
1C1
  8
LAYER0001
  6
CONTINUOUS
 62
     7
 10
132.9976950659755
 20
129.4568274138573
 30
0.0
 11
133.5335946008731
 21
131.456825821488
 31
0.0
  0
LINE
  5
1C2
  8
LAYER0001
  6
CONTINUOUS
 62
     7
 10
133.5335946008731
 20
131.456825821488
 30
0.0
 11
134.0694941357707
 21
129.4568274138573
 31
0.0
  0
LINE
  5
1C3
  8
LAYER0001
  6
CONTINUOUS
 62
     7
 10
133.5335946008731
 20
131.456825821488
 30
0.0
 11
133.5335946008731
 21
129.4568274138573
 31
0.0
  0
ENDBLK
  5
6C
  8
0
  0
BLOCK
  8
0
  2
DC_GROUP_12
 70
     0
 10
0.0
 20
0.0
 30
0.0
  3
DC_GROUP_12
  1

  0
LINE
  5
1C4
  8
LAYER0001
  6
CONTINUOUS
 62
     7
 10
134.0694941357707
 20
-26.54317195618408
 30
0.0
 11
133.5335946008731
 21
-28.54317036381474
 31
0.0
  0
LINE
  5
1C5
  8
LAYER0001
  6
CONTINUOUS
 62
     7
 10
133.5335946008731
 20
-28.54317036381474
 30
0.0
 11
132.9976950659755
 21
-26.54317195618408
 31
0.0
  0
LINE
  5
1C6
  8
LAYER0001
  6
CONTINUOUS
 62
     7
 10
133.5335946008731
 20
-28.54317036381474
 30
0.0
 11
133.5335946008731
 21
-26.54317195618408
 31
0.0
  0
ENDBLK
  5
6F
  8
0
  0
BLOCK
  8
0
  2
DC_GROUP_13
 70
     0
 10
0.0
 20
0.0
 30
0.0
  3
DC_GROUP_13
  1

  0
LINE
  5
1C7
  8
LAYER0001
  6
CONTINUOUS
 62
     7
 10
257.2583098718692
 20
28.45682772883663
 30
0.0
 11
315.2780442163517
 21
28.45682772883663
 31
0.0
  0
LINE
  5
1C8
  8
LAYER0001
  6
CONTINUOUS
 62
     7
 10
312.9920449182559
 20
28.45682772883663
 30
0.0
 11
312.9920449182559
 21
71.19015940913448
 31
0.0
  0
INSERT
  5
1C9
  8
LAYER0001
  6
CONTINUOUS
  2
DC_GROUP_14
 10
0.0
 20
0.0
 30
0.0
  0
TEXT
  5
1CA
  8
LAYER0001
 62
     7
 10
311.3669146267258
 20
37.05964409401936
 30
0.0
 40
4.0
  1
M46×P1.25
 50
89.90000000000001
 41
0.6294896030245745
  7
FDASTYLE1
 72
     5
 11
311.407345537741
 21
60.2248262026889
 31
0.0
  0
ENDBLK
  5
72
  8
0
  0
BLOCK
  8
0
  2
DC_GROUP_14
 70
     0
 10
0.0
 20
0.0
 30
0.0
  3
DC_GROUP_14
  1

  0
LINE
  5
1CB
  8
LAYER0001
  6
CONTINUOUS
 62
     7
 10
313.5279444531536
 20
30.45682613646729
 30
0.0
 11
312.9920449182559
 21
28.45682772883663
 31
0.0
  0
LINE
  5
1CC
  8
LAYER0001
  6
CONTINUOUS
 62
     7
 10
312.9920449182559
 20
28.45682772883663
 30
0.0
 11
312.4561453833583
 21
30.45682613646729
 31
0.0
  0
LINE
  5
1CD
  8
LAYER0001
  6
CONTINUOUS
 62
     7
 10
312.9920449182559
 20
28.45682772883663
 30
0.0
 11
312.9920449182559
 21
30.45682613646729
 31
0.0
  0
ENDBLK
  5
75
  8
0
  0
BLOCK
  8
0
  2
DC_GROUP_15
 70
     0
 10
0.0
 20
0.0
 30
0.0
  3
DC_GROUP_15
  1

  0
LINE
  5
1CE
  8
LAYER0001
  6
CONTINUOUS
 62
     7
 10
283.2583098718692
 20
18.45682772883663
 30
0.0
 11
327.1460328027774
 21
18.45682772883663
 31
0.0
  0
LINE
  5
1CF
  8
LAYER0001
  6
CONTINUOUS
 62
     7
 10
324.8600335046817
 20
18.45682772883663
 30
0.0
 11
324.8600335046817
 21
71.52349528559932
 31
0.0
  0
INSERT
  5
1D0
  8
LAYER0001
  6
CONTINUOUS
  2
DC_GROUP_16
 10
0.0
 20
0.0
 30
0.0
  0
TEXT
  5
1D1
  8
LAYER0001
 62
     7
 10
323.2600335046817
 20
43.80525645503292
 30
0.0
 40
4.0
  1
φ66H7
 50
90.0
 41
0.6213017751479282
  7
FDASTYLE1
 72
     5
 11
323.2600335046817
 21
56.72833337810982
 31
0.0
  0
ENDBLK
  5
78
  8
0
  0
BLOCK
  8
0
  2
DC_GROUP_16
 70
     0
 10
0.0
 20
0.0
 30
0.0
  3
DC_GROUP_16
  1

  0
LINE
  5
1D2
  8
LAYER0001
  6
CONTINUOUS
 62
     7
 10
325.3959330395794
 20
20.45682613646729
 30
0.0
 11
324.8600335046817
 21
18.45682772883663
 31
0.0
  0
LINE
  5
1D3
  8
LAYER0001
  6
CONTINUOUS
 62
     7
 10
324.8600335046817
 20
18.45682772883663
 30
0.0
 11
324.3241339697841
 21
20.45682613646729
 31
0.0
  0
LINE
  5
1D4
  8
LAYER0001
  6
CONTINUOUS
 62
     7
 10
324.8600335046817
 20
18.45682772883663
 30
0.0
 11
324.8600335046817
 21
20.45682613646729
 31
0.0
  0
ENDBLK
  5
7B
  8
0
  0
BLOCK
  8
0
  2
DC_GROUP_17
 70
     0
 10
0.0
 20
0.0
 30
0.0
  3
DC_GROUP_17
  1

  0
LINE
  5
1D5
  8
LAYER0001
  6
CONTINUOUS
 62
     7
 10
282.2583098718692
 20
82.456825821488
 30
0.0
 11
339.0140299722721
 21
82.456825821488
 31
0.0
  0
LINE
  5
1D6
  8
LAYER0001
  6
CONTINUOUS
 62
     7
 10
282.2583098718692
 20
139.4568334508825
 30
0.0
 11
339.0140299722721
 21
139.4568334508825
 31
0.0
  0
LINE
  5
1D7
  8
LAYER0001
  6
CONTINUOUS
 62
     7
 10
336.728029720502
 20
82.456825821488
 30
0.0
 11
336.728029720502
 21
139.4568334508825
 31
0.0
  0
INSERT
  5
1D8
  8
LAYER0001
  6
CONTINUOUS
  2
DC_GROUP_18
 10
0.0
 20
0.0
 30
0.0
  0
INSERT
  5
1D9
  8
LAYER0001
  6
CONTINUOUS
  2
DC_GROUP_19
 10
0.0
 20
0.0
 30
0.0
  0
TEXT
  5
1DA
  8
LAYER0001
 62
     7
 10
335.1224471066699
 20
107.7596232207509
 30
0.0
 40
4.0
  1
57
 50
89.90000000000001
 41
0.6476190476190452
  7
FDASTYLE1
 72
     5
 11
335.1314895698228
 21
112.9405677106635
 31
0.0
  0
ENDBLK
  5
7E
  8
0
  0
BLOCK
  8
0
  2
DC_GROUP_18
 70
     0
 10
0.0
 20
0.0
 30
0.0
  3
DC_GROUP_18
  1

  0
LINE
  5
1DB
  8
LAYER0001
  6
CONTINUOUS
 62
     7
 10
337.2639292553997
 20
84.45682422911867
 30
0.0
 11
336.728029720502
 21
82.456825821488
 31
0.0
  0
LINE
  5
1DC
  8
LAYER0001
  6
CONTINUOUS
 62
     7
 10
336.728029720502
 20
82.456825821488
 30
0.0
 11
336.1921301856044
 21
84.45682422911867
 31
0.0
  0
LINE
  5
1DD
  8
LAYER0001
  6
CONTINUOUS
 62
     7
 10
336.728029720502
 20
82.456825821488
 30
0.0
 11
336.728029720502
 21
84.45682422911867
 31
0.0
  0
ENDBLK
  5
81
  8
0
  0
BLOCK
  8
0
  2
DC_GROUP_19
 70
     0
 10
0.0
 20
0.0
 30
0.0
  3
DC_GROUP_19
  1

  0
LINE
  5
1DE
  8
LAYER0001
  6
CONTINUOUS
 62
     7
 10
336.1921301856044
 20
137.4568350432518
 30
0.0
 11
336.728029720502
 21
139.4568334508825
 31
0.0
  0
LINE
  5
1DF
  8
LAYER0001
  6
CONTINUOUS
 62
     7
 10
336.728029720502
 20
139.4568334508825
 30
0.0
 11
337.2639292553997
 21
137.4568350432518
 31
0.0
  0
LINE
  5
1E0
  8
LAYER0001
  6
CONTINUOUS
 62
     7
 10
336.728029720502
 20
139.4568334508825
 30
0.0
 11
336.728029720502
 21
137.4568350432518
 31
0.0
  0
ENDBLK
  5
84
  8
0
  0
BLOCK
  8
0
  2
DC_GROUP_20
 70
     0
 10
0.0
 20
0.0
 30
0.0
  3
DC_GROUP_20
  1

  0
LINE
  5
1E1
  8
LAYER0001
  6
CONTINUOUS
 62
     7
 10
303.8354239770938
 20
100.456825821488
 30
0.0
 11
313.9920449182559
 21
100.456825821488
 31
0.0
  0
LINE
  5
1E2
  8
LAYER0001
  6
CONTINUOUS
 62
     7
 10
282.2583098718692
 20
82.456825821488
 30
0.0
 11
313.9920449182559
 21
82.456825821488
 31
0.0
  0
LINE
  5
1E3
  8
LAYER0001
  6
CONTINUOUS
 62
     7
 10
312.9920449182559
 20
100.456825821488
 30
0.0
 11
312.9920449182559
 21
82.456825821488
 31
0.0
  0
INSERT
  5
1E4
  8
LAYER0001
  6
CONTINUOUS
  2
DC_GROUP_21
 10
0.0
 20
0.0
 30
0.0
  0
INSERT
  5
1E5
  8
LAYER0001
  6
CONTINUOUS
  2
DC_GROUP_22
 10
0.0
 20
0.0
 30
0.0
  0
TEXT
  5
1E6
  8
LAYER0001
 62
     7
 10
311.3920449182559
 20
85.05682582148799
 30
0.0
 40
4.0
  1
MIN8
 50
90.0
 41
0.6380952380952394
  7
FDASTYLE1
 72
     5
 11
311.3920449182559
 21
95.26634963101182
 31
0.0
  0
ENDBLK
  5
87
  8
0
  0
BLOCK
  8
0
  2
DC_GROUP_21
 70
     0
 10
0.0
 20
0.0
 30
0.0
  3
DC_GROUP_21
  1

  0
LINE
  5
1E7
  8
LAYER0001
  6
CONTINUOUS
 62
     7
 10
312.4561453833583
 20
98.45682741385734
 30
0.0
 11
312.9920449182559
 21
100.456825821488
 31
0.0
  0
LINE
  5
1E8
  8
LAYER0001
  6
CONTINUOUS
 62
     7
 10
312.9920449182559
 20
100.456825821488
 30
0.0
 11
313.5279444531536
 21
98.45682741385734
 31
0.0
  0
LINE
  5
1E9
  8
LAYER0001
  6
CONTINUOUS
 62
     7
 10
312.9920449182559
 20
100.456825821488
 30
0.0
 11
312.9920449182559
 21
98.45682741385734
 31
0.0
  0
ENDBLK
  5
8A
  8
0
  0
BLOCK
  8
0
  2
DC_GROUP_22
 70
     0
 10
0.0
 20
0.0
 30
0.0
  3
DC_GROUP_22
  1

  0
LINE
  5
1EA
  8
LAYER0001
  6
CONTINUOUS
 62
     7
 10
313.5279444531536
 20
84.45682422911867
 30
0.0
 11
312.9920449182559
 21
82.456825821488
 31
0.0
  0
LINE
  5
1EB
  8
LAYER0001
  6
CONTINUOUS
 62
     7
 10
312.9920449182559
 20
82.456825821488
 30
0.0
 11
312.4561453833583
 21
84.45682422911867
 31
0.0
  0
LINE
  5
1EC
  8
LAYER0001
  6
CONTINUOUS
 62
     7
 10
312.9920449182559
 20
82.456825821488
 30
0.0
 11
312.9920449182559
 21
84.45682422911867
 31
0.0
  0
ENDBLK
  5
8D
  8
0
  0
BLOCK
  8
0
  2
DC_GROUP_23
 70
     0
 10
0.0
 20
0.0
 30
0.0
  3
DC_GROUP_23
  1

  0
LINE
  5
1ED
  8
LAYER0001
  6
CONTINUOUS
 62
     7
 10
279.7183098718692
 20
141.9968334508825
 30
0.0
 11
279.7183098718692
 21
158.7453924108435
 31
0.0
  0
LINE
  5
1EE
  8
LAYER0001
  6
CONTINUOUS
 62
     7
 10
280.7183098718692
 20
135.996825821488
 30
0.0
 11
280.7183098718692
 21
158.7453924108435
 31
0.0
  0
LINE
  5
1EF
  8
LAYER0001
  6
CONTINUOUS
 62
     7
 10
279.7183098718692
 20
156.459381668656
 30
0.0
 11
280.7183098718692
 21
156.459381668656
 31
0.0
  0
LINE
  5
1F0
  8
LAYER0001
  6
CONTINUOUS
 62
     7
 10
279.7183098718692
 20
156.459381668656
 30
0.0
 11
273.3683098718692
 21
156.459381668656
 31
0.0
  0
LINE
  5
1F1
  8
LAYER0001
  6
CONTINUOUS
 62
     7
 10
287.0683098718693
 20
156.459381668656
 30
0.0
 11
280.7183098718692
 21
156.459381668656
 31
0.0
  0
INSERT
  5
1F2
  8
LAYER0001
  6
CONTINUOUS
  2
DC_GROUP_24
 10
0.0
 20
0.0
 30
0.0
  0
INSERT
  5
1F3
  8
LAYER0001
  6
CONTINUOUS
  2
DC_GROUP_25
 10
0.0
 20
0.0
 30
0.0
  0
TEXT
  5
1F4
  8
LAYER0001
 62
     7
 10
272.7541337043807
 20
158.0618226914295
 30
0.0
 40
4.0
  1
1
 50
-0.1000000000000078
 41
0.1666666666666695
  7
FDASTYLE1
 72
     5
 11
273.4207993556562
 21
158.0606591391856
 31
0.0
  0
ENDBLK
  5
90
  8
0
  0
BLOCK
  8
0
  2
DC_GROUP_24
 70
     0
 10
0.0
 20
0.0
 30
0.0
  3
DC_GROUP_24
  1

  0
LINE
  5
1F5
  8
LAYER0001
  6
CONTINUOUS
 62
     7
 10
277.7183114642386
 20
156.9952812035536
 30
0.0
 11
279.7183098718692
 21
156.459381668656
 31
0.0
  0
LINE
  5
1F6
  8
LAYER0001
  6
CONTINUOUS
 62
     7
 10
279.7183098718692
 20
156.459381668656
 30
0.0
 11
277.7183114642386
 21
155.9234821337584
 31
0.0
  0
LINE
  5
1F7
  8
LAYER0001
  6
CONTINUOUS
 62
     7
 10
279.7183098718692
 20
156.459381668656
 30
0.0
 11
277.7183114642386
 21
156.459381668656
 31
0.0
  0
ENDBLK
  5
93
  8
0
  0
BLOCK
  8
0
  2
DC_GROUP_25
 70
     0
 10
0.0
 20
0.0
 30
0.0
  3
DC_GROUP_25
  1

  0
LINE
  5
1F8
  8
LAYER0001
  6
CONTINUOUS
 62
     7
 10
282.7183082794999
 20
155.9234821337584
 30
0.0
 11
280.7183098718692
 21
156.459381668656
 31
0.0
  0
LINE
  5
1F9
  8
LAYER0001
  6
CONTINUOUS
 62
     7
 10
280.7183098718692
 20
156.459381668656
 30
0.0
 11
282.7183082794999
 21
156.9952812035536
 31
0.0
  0
LINE
  5
1FA
  8
LAYER0001
  6
CONTINUOUS
 62
     7
 10
280.7183098718692
 20
156.459381668656
 30
0.0
 11
282.7183082794999
 21
156.459381668656
 31
0.0
  0
ENDBLK
  5
96
  8
0
  0
BLOCK
  8
0
  2
DC_GROUP_26
 70
     0
 10
0.0
 20
0.0
 30
0.0
  3
DC_GROUP_26
  1

  0
LINE
  5
1FB
  8
LAYER0001
  6
CONTINUOUS
 62
     7
 10
279.5458886348793
 20
135.9601011553708
 30
0.0
 11
300.4047865960142
 21
156.459364958438
 31
0.0
  0
LINE
  5
1FC
  8
LAYER0001
  6
CONTINUOUS
 62
     7
 10
300.4047837183048
 20
156.4593664098669
 30
0.0
 11
347.034455232339
 21
156.4593664098669
 31
0.0
  0
INSERT
  5
1FD
  8
LAYER0001
  6
CONTINUOUS
  2
DC_GROUP_27
 10
0.0
 20
0.0
 30
0.0
  0
TEXT
  5
1FE
  8
LAYER0001
 62
     7
 10
301.1240525171329
 20
158.0593664098669
 30
0.0
 40
4.0
  1
ｾﾚｰｼｮﾝP1.5山60ﾟ
 41
0.6332076968855386
  7
FDASTYLE1
 72
     5
 11
337.0902497002315
 21
158.0593664098669
 31
0.0
  0
ENDBLK
  5
99
  8
0
  0
BLOCK
  8
0
  2
DC_GROUP_27
 70
     0
 10
0.0
 20
0.0
 30
0.0
  3
DC_GROUP_27
  1

  0
LINE
  5
1FF
  8
LAYER0001
  6
CONTINUOUS
 62
     7
 10
281.3479734706056
 20
136.9797443218139
 30
0.0
 11
279.5458886348793
 21
135.9601011553708
 31
0.0
  0
LINE
  5
200
  8
LAYER0001
  6
CONTINUOUS
 62
     7
 10
279.5458886348793
 20
135.9601011553708
 30
0.0
 11
280.5967156746276
 21
137.7441820040328
 31
0.0
  0
LINE
  5
201
  8
LAYER0001
  6
CONTINUOUS
 62
     7
 10
279.5458886348793
 20
135.9601011553708
 30
0.0
 11
280.9723445726166
 21
137.3619631629233
 31
0.0
  0
ENDBLK
  5
9C
  8
0
  0
BLOCK
  8
0
  2
DC_GROUP_28
 70
     0
 10
0.0
 20
0.0
 30
0.0
  3
DC_GROUP_28
  1

  0
LINE
  5
202
  8
LAYER0001
  6
CONTINUOUS
 62
     7
 10
205.9183144495059
 20
-21.08317227116337
 30
0.0
 11
205.9183144495059
 21
-54.05596485844365
 31
0.0
  0
LINE
  5
203
  8
LAYER0001
  6
CONTINUOUS
 62
     7
 10
235.7183098718692
 20
27.41682772883663
 30
0.0
 11
235.7183098718692
 21
-54.05596485844365
 31
0.0
  0
LINE
  5
204
  8
LAYER0001
  6
CONTINUOUS
 62
     7
 10
205.9183144495059
 20
-51.76996174565068
 30
0.0
 11
235.7183098718692
 21
-51.76996174565068
 31
0.0
  0
INSERT
  5
205
  8
LAYER0001
  6
CENTER
  2
DC_GROUP_29
 10
0.0
 20
0.0
 30
0.0
  0
INSERT
  5
206
  8
LAYER0001
  6
CONTINUOUS
  2
DC_GROUP_30
 10
0.0
 20
0.0
 30
0.0
  0
TEXT
  5
207
  8
LAYER0001
 62
     7
 10
209.6183159753849
 20
-50.16996174565067
 30
0.0
 40
4.0
  1
MAX39.8
 41
0.6802721088435371
  7
FDASTYLE1
 72
     5
 11
228.6659350230039
 21
-50.16996174565067
 31
0.0
  0
ENDBLK
  5
9F
  8
0
  0
BLOCK
  8
0
  2
DC_GROUP_29
 70
     0
 10
0.0
 20
0.0
 30
0.0
  3
DC_GROUP_29
  1

  0
LINE
  5
208
  8
LAYER0001
  6
CONTINUOUS
 62
     7
 10
207.9183128571365
 20
-52.30586128054829
 30
0.0
 11
205.9183144495059
 21
-51.76996174565068
 31
0.0
  0
LINE
  5
209
  8
LAYER0001
  6
CONTINUOUS
 62
     7
 10
205.9183144495059
 20
-51.76996174565068
 30
0.0
 11
207.9183128571365
 21
-51.23406221075307
 31
0.0
  0
LINE
  5
20A
  8
LAYER0001
  6
CONTINUOUS
 62
     7
 10
205.9183144495059
 20
-51.76996174565068
 30
0.0
 11
207.9183128571365
 21
-51.76996174565068
 31
0.0
  0
ENDBLK
  5
A2
  8
0
  0
BLOCK
  8
0
  2
DC_GROUP_30
 70
     0
 10
0.0
 20
0.0
 30
0.0
  3
DC_GROUP_30
  1

  0
LINE
  5
20B
  8
LAYER0001
  6
CONTINUOUS
 62
     7
 10
233.7183114642385
 20
-51.23406221075307
 30
0.0
 11
235.7183098718692
 21
-51.76996174565068
 31
0.0
  0
LINE
  5
20C
  8
LAYER0001
  6
CONTINUOUS
 62
     7
 10
235.7183098718692
 20
-51.76996174565068
 30
0.0
 11
233.7183114642385
 21
-52.30586128054829
 31
0.0
  0
LINE
  5
20D
  8
LAYER0001
  6
CONTINUOUS
 62
     7
 10
235.7183098718692
 20
-51.76996174565068
 30
0.0
 11
233.7183114642385
 21
-51.76996174565068
 31
0.0
  0
ENDBLK
  5
A5
  8
0
  0
BLOCK
  8
0
  2
DC_GROUP_31
 70
     0
 10
0.0
 20
0.0
 30
0.0
  3
DC_GROUP_31
  1

  0
LINE
  5
20E
  8
LAYER0001
  6
CONTINUOUS
 62
     7
 10
201.7183175012638
 20
-31.08317036381474
 30
0.0
 11
201.7183175012638
 21
-68.08177891484013
 31
0.0
  0
LINE
  5
20F
  8
LAYER0001
  6
CONTINUOUS
 62
     7
 10
205.9183144495059
 20
-21.08317227116337
 30
0.0
 11
205.9183144495059
 21
-68.08177891484013
 31
0.0
  0
LINE
  5
210
  8
LAYER0001
  6
CONTINUOUS
 62
     7
 10
201.7183175012638
 20
-65.79577580204716
 30
0.0
 11
205.9183144495059
 21
-65.79577580204716
 31
0.0
  0
LINE
  5
211
  8
LAYER0001
  6
CONTINUOUS
 62
     7
 10
201.7183175012638
 20
-65.79577580204716
 30
0.0
 11
195.3683175012638
 21
-65.79577580204716
 31
0.0
  0
LINE
  5
212
  8
LAYER0001
  6
CONTINUOUS
 62
     7
 10
212.2683144495059
 20
-65.79577580204716
 30
0.0
 11
205.9183144495059
 21
-65.79577580204716
 31
0.0
  0
INSERT
  5
213
  8
LAYER0001
  6
CONTINUOUS
  2
DC_GROUP_32
 10
0.0
 20
0.0
 30
0.0
  0
INSERT
  5
214
  8
LAYER0001
  6
CENTER
  2
DC_GROUP_33
 10
0.0
 20
0.0
 30
0.0
  0
TEXT
  5
215
  8
LAYER0001
 62
     7
 10
187.8965506870748
 20
-64.18740066282958
 30
0.0
 40
4.0
  1
4.2
 50
-0.1000000000000078
 41
0.55873015873016
  7
FDASTYLE1
 72
     5
 11
194.6013023799029
 21
-64.19910267396855
 31
0.0
  0
ENDBLK
  5
A8
  8
0
  0
BLOCK
  8
0
  2
DC_GROUP_32
 70
     0
 10
0.0
 20
0.0
 30
0.0
  3
DC_GROUP_32
  1

  0
LINE
  5
216
  8
LAYER0001
  6
CONTINUOUS
 62
     7
 10
199.7183190936331
 20
-65.25987626714955
 30
0.0
 11
201.7183175012638
 21
-65.79577580204716
 31
0.0
  0
LINE
  5
217
  8
LAYER0001
  6
CONTINUOUS
 62
     7
 10
201.7183175012638
 20
-65.79577580204716
 30
0.0
 11
199.7183190936331
 21
-66.33167533694477
 31
0.0
  0
LINE
  5
218
  8
LAYER0001
  6
CONTINUOUS
 62
     7
 10
201.7183175012638
 20
-65.79577580204716
 30
0.0
 11
199.7183190936331
 21
-65.79577580204716
 31
0.0
  0
ENDBLK
  5
AB
  8
0
  0
BLOCK
  8
0
  2
DC_GROUP_33
 70
     0
 10
0.0
 20
0.0
 30
0.0
  3
DC_GROUP_33
  1

  0
LINE
  5
219
  8
LAYER0001
  6
CONTINUOUS
 62
     7
 10
207.9183128571365
 20
-66.33167533694477
 30
0.0
 11
205.9183144495059
 21
-65.79577580204716
 31
0.0
  0
LINE
  5
21A
  8
LAYER0001
  6
CONTINUOUS
 62
     7
 10
205.9183144495059
 20
-65.79577580204716
 30
0.0
 11
207.9183128571365
 21
-65.25987626714955
 31
0.0
  0
LINE
  5
21B
  8
LAYER0001
  6
CONTINUOUS
 62
     7
 10
205.9183144495059
 20
-65.79577580204716
 30
0.0
 11
207.9183128571365
 21
-65.79577580204716
 31
0.0
  0
ENDBLK
  5
AE
  8
0
  0
BLOCK
  8
0
  2
DC_GROUP_34
 70
     0
 10
0.0
 20
0.0
 30
0.0
  3
DC_GROUP_34
  1

  0
LINE
  5
21C
  8
LAYER0001
  6
CONTINUOUS
 62
     7
 10
205.9183144495059
 20
-21.08317227116337
 30
0.0
 11
205.9183144495059
 21
-68.08177891484013
 31
0.0
  0
LINE
  5
21D
  8
LAYER0001
  6
CONTINUOUS
 62
     7
 10
280.7183098718692
 20
-29.58317036381474
 30
0.0
 11
280.7183098718692
 21
-68.08177891484013
 31
0.0
  0
LINE
  5
21E
  8
LAYER0001
  6
CONTINUOUS
 62
     7
 10
205.9183144495059
 20
-65.79577580204716
 30
0.0
 11
280.7183098718692
 21
-65.79577580204716
 31
0.0
  0
INSERT
  5
21F
  8
LAYER0001
  6
CENTER
  2
DC_GROUP_35
 10
0.0
 20
0.0
 30
0.0
  0
INSERT
  5
220
  8
LAYER0001
  6
CONTINUOUS
  2
DC_GROUP_36
 10
0.0
 20
0.0
 30
0.0
  0
TEXT
  5
221
  8
LAYER0001
 62
     7
 10
236.9183007165958
 20
-64.19577580204717
 30
0.0
 40
4.0
  1
74.8
 41
0.6095238095238109
  7
FDASTYLE1
 72
     5
 11
246.6706816689768
 21
-64.19577580204717
 31
0.0
  0
ENDBLK
  5
B1
  8
0
  0
BLOCK
  8
0
  2
DC_GROUP_35
 70
     0
 10
0.0
 20
0.0
 30
0.0
  3
DC_GROUP_35
  1

  0
LINE
  5
222
  8
LAYER0001
  6
CONTINUOUS
 62
     7
 10
207.9183128571365
 20
-66.33167533694477
 30
0.0
 11
205.9183144495059
 21
-65.79577580204716
 31
0.0
  0
LINE
  5
223
  8
LAYER0001
  6
CONTINUOUS
 62
     7
 10
205.9183144495059
 20
-65.79577580204716
 30
0.0
 11
207.9183128571365
 21
-65.25987626714955
 31
0.0
  0
LINE
  5
224
  8
LAYER0001
  6
CONTINUOUS
 62
     7
 10
205.9183144495059
 20
-65.79577580204716
 30
0.0
 11
207.9183128571365
 21
-65.79577580204716
 31
0.0
  0
ENDBLK
  5
B4
  8
0
  0
BLOCK
  8
0
  2
DC_GROUP_36
 70
     0
 10
0.0
 20
0.0
 30
0.0
  3
DC_GROUP_36
  1

  0
LINE
  5
225
  8
LAYER0001
  6
CONTINUOUS
 62
     7
 10
278.7183114642386
 20
-65.25987626714955
 30
0.0
 11
280.7183098718692
 21
-65.79577580204716
 31
0.0
  0
LINE
  5
226
  8
LAYER0001
  6
CONTINUOUS
 62
     7
 10
280.7183098718692
 20
-65.79577580204716
 30
0.0
 11
278.7183114642386
 21
-66.33167533694477
 31
0.0
  0
LINE
  5
227
  8
LAYER0001
  6
CONTINUOUS
 62
     7
 10
280.7183098718692
 20
-65.79577580204716
 30
0.0
 11
278.7183114642386
 21
-65.79577580204716
 31
0.0
  0
ENDBLK
  5
B7
  8
0
  0
BLOCK
  8
0
  2
DC_GROUP_37
 70
     0
 10
0.0
 20
0.0
 30
0.0
  3
DC_GROUP_37
  1

  0
LINE
  5
228
  8
LAYER0001
  6
CONTINUOUS
 62
     7
 10
205.9183144495059
 20
123.996825821488
 30
0.0
 11
205.9183144495059
 21
158.5679174352575
 31
0.0
  0
LINE
  5
229
  8
LAYER0001
  6
CONTINUOUS
 62
     7
 10
212.7183175012638
 20
80.496825821488
 30
0.0
 11
212.7183175012638
 21
158.5679174352575
 31
0.0
  0
LINE
  5
22A
  8
LAYER0001
  6
CONTINUOUS
 62
     7
 10
205.9183144495059
 20
156.2819219518591
 30
0.0
 11
212.7183175012638
 21
156.2819219518591
 31
0.0
  0
LINE
  5
22B
  8
LAYER0001
  6
CONTINUOUS
 62
     7
 10
205.9183144495059
 20
156.2819219518591
 30
0.0
 11
199.568314449506
 21
156.2819219518591
 31
0.0
  0
LINE
  5
22C
  8
LAYER0001
  6
CONTINUOUS
 62
     7
 10
219.0683175012638
 20
156.2819219518591
 30
0.0
 11
212.7183175012638
 21
156.2819219518591
 31
0.0
  0
INSERT
  5
22D
  8
LAYER0001
  6
CENTER
  2
DC_GROUP_38
 10
0.0
 20
0.0
 30
0.0
  0
INSERT
  5
22E
  8
LAYER0001
  6
CONTINUOUS
  2
DC_GROUP_39
 10
0.0
 20
0.0
 30
0.0
  0
TEXT
  5
22F
  8
LAYER0001
 62
     7
 10
173.9353269143219
 20
157.9014671926184
 30
0.0
 40
4.0
  1
MAX16.8
 50
-0.1000000000000078
 41
0.6802721088435375
  7
FDASTYLE1
 72
     5
 11
192.9829169507655
 21
157.8682228427918
 31
0.0
  0
ENDBLK
  5
BA
  8
0
  0
BLOCK
  8
0
  2
DC_GROUP_38
 70
     0
 10
0.0
 20
0.0
 30
0.0
  3
DC_GROUP_38
  1

  0
LINE
  5
230
  8
LAYER0001
  6
CONTINUOUS
 62
     7
 10
203.9183160418752
 20
156.8178214867567
 30
0.0
 11
205.9183144495059
 21
156.2819219518591
 31
0.0
  0
LINE
  5
231
  8
LAYER0001
  6
CONTINUOUS
 62
     7
 10
205.9183144495059
 20
156.2819219518591
 30
0.0
 11
203.9183160418752
 21
155.7460224169615
 31
0.0
  0
LINE
  5
232
  8
LAYER0001
  6
CONTINUOUS
 62
     7
 10
205.9183144495059
 20
156.2819219518591
 30
0.0
 11
203.9183160418752
 21
156.2819219518591
 31
0.0
  0
ENDBLK
  5
BD
  8
0
  0
BLOCK
  8
0
  2
DC_GROUP_39
 70
     0
 10
0.0
 20
0.0
 30
0.0
  3
DC_GROUP_39
  1

  0
LINE
  5
233
  8
LAYER0001
  6
CONTINUOUS
 62
     7
 10
214.7183159088944
 20
155.7460224169615
 30
0.0
 11
212.7183175012638
 21
156.2819219518591
 31
0.0
  0
LINE
  5
234
  8
LAYER0001
  6
CONTINUOUS
 62
     7
 10
212.7183175012638
 20
156.2819219518591
 30
0.0
 11
214.7183159088944
 21
156.8178214867567
 31
0.0
  0
LINE
  5
235
  8
LAYER0001
  6
CONTINUOUS
 62
     7
 10
212.7183175012638
 20
156.2819219518591
 30
0.0
 11
214.7183159088944
 21
156.2819219518591
 31
0.0
  0
ENDBLK
  5
C0
  8
0
  0
BLOCK
  8
0
  2
DC_GROUP_40
 70
     0
 10
0.0
 20
0.0
 30
0.0
  3
DC_GROUP_40
  1

  0
LINE
  5
236
  8
LAYER0001
  6
CONTINUOUS
 62
     7
 10
291.1672061408272
 20
129.6954052480318
 30
0.0
 11
307.4871474555207
 21
146.9848514785612
 31
0.0
  0
LINE
  5
237
  8
LAYER0001
  6
CONTINUOUS
 62
     7
 10
307.4871506616642
 20
146.9848485876013
 30
0.0
 11
315.716820232587
 21
146.9848485876013
 31
0.0
  0
INSERT
  5
238
  8
LAYER0001
  6
CONTINUOUS
  2
DC_GROUP_41
 10
0.0
 20
0.0
 30
0.0
  0
TEXT
  5
239
  8
LAYER0001
 62
     7
 10
307.9718995019962
 20
148.5848485876013
 30
0.0
 40
4.0
  1
M8
 41
0.7047619047619023
  7
FDASTYLE1
 72
     5
 11
313.6099947400914
 21
148.5848485876013
 31
0.0
  0
ENDBLK
  5
C3
  8
0
  0
BLOCK
  8
0
  2
DC_GROUP_41
 70
     0
 10
0.0
 20
0.0
 30
0.0
  3
DC_GROUP_41
  1

  0
LINE
  5
23A
  8
LAYER0001
  6
CONTINUOUS
 62
     7
 10
292.9297598255301
 20
130.7819531993752
 30
0.0
 11
291.1672061408272
 21
129.6954052480318
 31
0.0
  0
LINE
  5
23B
  8
LAYER0001
  6
CONTINUOUS
 62
     7
 10
291.1672061408272
 20
129.6954052480318
 30
0.0
 11
292.1503457509385
 21
131.5176616649662
 31
0.0
  0
LINE
  5
23C
  8
LAYER0001
  6
CONTINUOUS
 62
     7
 10
291.1672061408272
 20
129.6954052480318
 30
0.0
 11
292.5400527882343
 21
131.1498074321707
 31
0.0
  0
ENDBLK
  5
C6
  8
0
  0
BLOCK
  8
0
  2
DC_GROUP_42
 70
     0
 10
0.0
 20
0.0
 30
0.0
  3
DC_GROUP_42
  1

  0
LINE
  5
23D
  8
LAYER0001
  6
CONTINUOUS
 62
     7
 10
205.9183144495059
 20
-21.08317227116337
 30
0.0
 11
205.9183144495059
 21
-54.05596485844365
 31
0.0
  0
LINE
  5
23E
  8
LAYER0001
  6
CONTINUOUS
 62
     7
 10
189.7183175012638
 20
-7.5681709741663
 30
0.0
 11
189.7183175012638
 21
-54.05596485844365
 31
0.0
  0
LINE
  5
23F
  8
LAYER0001
  6
CONTINUOUS
 62
     7
 10
205.9183144495059
 20
-51.76996174565068
 30
0.0
 11
189.7183175012638
 21
-51.76996174565068
 31
0.0
  0
INSERT
  5
240
  8
LAYER0001
  6
CENTER
  2
DC_GROUP_43
 10
0.0
 20
0.0
 30
0.0
  0
INSERT
  5
241
  8
LAYER0001
  6
CONTINUOUS
  2
DC_GROUP_44
 10
0.0
 20
0.0
 30
0.0
  0
TEXT
  5
242
  8
LAYER0001
 62
     7
 10
192.6842537805606
 20
-50.16996174565067
 30
0.0
 40
4.0
  1
16.2
 41
0.5809523809523807
  7
FDASTYLE1
 72
     5
 11
201.9794918757987
 21
-50.16996174565067
 31
0.0
  0
ENDBLK
  5
C9
  8
0
  0
BLOCK
  8
0
  2
DC_GROUP_43
 70
     0
 10
0.0
 20
0.0
 30
0.0
  3
DC_GROUP_43
  1

  0
LINE
  5
243
  8
LAYER0001
  6
CONTINUOUS
 62
     7
 10
203.9183160418752
 20
-51.23406221075307
 30
0.0
 11
205.9183144495059
 21
-51.76996174565068
 31
0.0
  0
LINE
  5
244
  8
LAYER0001
  6
CONTINUOUS
 62
     7
 10
205.9183144495059
 20
-51.76996174565068
 30
0.0
 11
203.9183160418752
 21
-52.30586128054829
 31
0.0
  0
LINE
  5
245
  8
LAYER0001
  6
CONTINUOUS
 62
     7
 10
205.9183144495059
 20
-51.76996174565068
 30
0.0
 11
203.9183160418752
 21
-51.76996174565068
 31
0.0
  0
ENDBLK
  5
CC
  8
0
  0
BLOCK
  8
0
  2
DC_GROUP_44
 70
     0
 10
0.0
 20
0.0
 30
0.0
  3
DC_GROUP_44
  1

  0
LINE
  5
246
  8
LAYER0001
  6
CONTINUOUS
 62
     7
 10
191.7183159088945
 20
-52.30586128054829
 30
0.0
 11
189.7183175012638
 21
-51.76996174565068
 31
0.0
  0
LINE
  5
247
  8
LAYER0001
  6
CONTINUOUS
 62
     7
 10
189.7183175012638
 20
-51.76996174565068
 30
0.0
 11
191.7183159088945
 21
-51.23406221075307
 31
0.0
  0
LINE
  5
248
  8
LAYER0001
  6
CONTINUOUS
 62
     7
 10
189.7183175012638
 20
-51.76996174565068
 30
0.0
 11
191.7183159088945
 21
-51.76996174565068
 31
0.0
  0
ENDBLK
  5
CF
  8
0
  0
BLOCK
  8
0
  2
DC_GROUP_45
 70
     0
 10
0.0
 20
0.0
 30
0.0
  3
DC_GROUP_45
  1

  0
LINE
  5
249
  8
LAYER0001
  6
CONTINUOUS
 62
     7
 10
187.1783175012638
 20
4.071827976791951
 30
0.0
 11
167.3470864221622
 21
4.071827976791951
 31
0.0
  0
LINE
  5
24A
  8
LAYER0001
  6
CONTINUOUS
 62
     7
 10
187.1783175012638
 20
-5.928172500045207
 30
0.0
 11
167.3470864221622
 21
-5.928172500045207
 31
0.0
  0
LINE
  5
24B
  8
LAYER0001
  6
CONTINUOUS
 62
     7
 10
169.6330819055606
 20
4.071827976791951
 30
0.0
 11
169.6330819055606
 21
-5.928172500045207
 31
0.0
  0
INSERT
  5
24C
  8
LAYER0001
  6
CONTINUOUS
  2
DC_GROUP_46
 10
0.0
 20
0.0
 30
0.0
  0
INSERT
  5
24D
  8
LAYER0001
  6
CONTINUOUS
  2
DC_GROUP_47
 10
0.0
 20
0.0
 30
0.0
  0
TEXT
  5
24E
  8
LAYER0001
 62
     7
 10
168.0247067663431
 20
-5.725372663843559
 30
0.0
 40
4.0
  1
M10
 50
89.90000000000001
 41
0.723809523809526
  7
FDASTYLE1
 72
     5
 11
168.039866189864
 21
2.960328392774737
 31
0.0
  0
ENDBLK
  5
D2
  8
0
  0
BLOCK
  8
0
  2
DC_GROUP_46
 70
     0
 10
0.0
 20
0.0
 30
0.0
  3
DC_GROUP_46
  1

  0
LINE
  5
24F
  8
LAYER0001
  6
CONTINUOUS
 62
     7
 10
169.097182370663
 20
2.071829569161289
 30
0.0
 11
169.6330819055606
 21
4.071827976791951
 31
0.0
  0
LINE
  5
250
  8
LAYER0001
  6
CONTINUOUS
 62
     7
 10
169.6330819055606
 20
4.071827976791951
 30
0.0
 11
170.1689814404582
 21
2.071829569161289
 31
0.0
  0
LINE
  5
251
  8
LAYER0001
  6
CONTINUOUS
 62
     7
 10
169.6330819055606
 20
4.071827976791951
 30
0.0
 11
169.6330819055606
 21
2.071829569161289
 31
0.0
  0
ENDBLK
  5
D5
  8
0
  0
BLOCK
  8
0
  2
DC_GROUP_47
 70
     0
 10
0.0
 20
0.0
 30
0.0
  3
DC_GROUP_47
  1

  0
LINE
  5
252
  8
LAYER0001
  6
CONTINUOUS
 62
     7
 10
170.1689814404582
 20
-3.928174092414545
 30
0.0
 11
169.6330819055606
 21
-5.928172500045207
 31
0.0
  0
LINE
  5
253
  8
LAYER0001
  6
CONTINUOUS
 62
     7
 10
169.6330819055606
 20
-5.928172500045207
 30
0.0
 11
169.097182370663
 21
-3.928174092414545
 31
0.0
  0
LINE
  5
254
  8
LAYER0001
  6
CONTINUOUS
 62
     7
 10
169.6330819055606
 20
-5.928172500045207
 30
0.0
 11
169.6330819055606
 21
-3.928174092414545
 31
0.0
  0
ENDBLK
  5
D8
  8
0
  0
BLOCK
  8
0
  2
DC_GROUP_48
 70
     0
 10
0.0
 20
0.0
 30
0.0
  3
DC_GROUP_48
  1

  0
LINE
  5
255
  8
LAYER0001
  6
CONTINUOUS
 62
     7
 10
212.7183175012638
 20
43.83617457637081
 30
0.0
 11
235.7183098718692
 21
43.83617457637081
 31
0.0
  0
INSERT
  5
256
  8
LAYER0001
  6
CONTINUOUS
  2
DC_GROUP_49
 10
0.0
 20
0.0
 30
0.0
  0
INSERT
  5
257
  8
LAYER0001
  6
CONTINUOUS
  2
DC_GROUP_50
 10
0.0
 20
0.0
 30
0.0
  0
TEXT
  5
258
  8
LAYER0001
 62
     7
 10
221.0183098718692
 20
45.43617457637081
 30
0.0
 40
4.0
  1
23
 41
0.6476190476190453
  7
FDASTYLE1
 72
     5
 11
226.1992622528215
 21
45.43617457637081
 31
0.0
  0
ENDBLK
  5
DB
  8
0
  0
BLOCK
  8
0
  2
DC_GROUP_49
 70
     0
 10
0.0
 20
0.0
 30
0.0
  3
DC_GROUP_49
  1

  0
LINE
  5
259
  8
LAYER0001
  6
CONTINUOUS
 62
     7
 10
214.7183159088944
 20
43.3002750414732
 30
0.0
 11
212.7183175012638
 21
43.83617457637081
 31
0.0
  0
LINE
  5
25A
  8
LAYER0001
  6
CONTINUOUS
 62
     7
 10
212.7183175012638
 20
43.83617457637081
 30
0.0
 11
214.7183159088944
 21
44.37207411126842
 31
0.0
  0
LINE
  5
25B
  8
LAYER0001
  6
CONTINUOUS
 62
     7
 10
212.7183175012638
 20
43.83617457637081
 30
0.0
 11
214.7183159088944
 21
43.83617457637081
 31
0.0
  0
ENDBLK
  5
DE
  8
0
  0
BLOCK
  8
0
  2
DC_GROUP_50
 70
     0
 10
0.0
 20
0.0
 30
0.0
  3
DC_GROUP_50
  1

  0
LINE
  5
25C
  8
LAYER0001
  6
CONTINUOUS
 62
     7
 10
233.7183114642385
 20
44.37207411126842
 30
0.0
 11
235.7183098718692
 21
43.83617457637081
 31
0.0
  0
LINE
  5
25D
  8
LAYER0001
  6
CONTINUOUS
 62
     7
 10
235.7183098718692
 20
43.83617457637081
 30
0.0
 11
233.7183114642385
 21
43.3002750414732
 31
0.0
  0
LINE
  5
25E
  8
LAYER0001
  6
CONTINUOUS
 62
     7
 10
235.7183098718692
 20
43.83617457637081
 30
0.0
 11
233.7183114642385
 21
43.83617457637081
 31
0.0
  0
ENDBLK
  5
E1
  8
0
  0
BLOCK
  8
0
  2
DC_GROUP_51
 70
     0
 10
0.0
 20
0.0
 30
0.0
  3
DC_GROUP_51
  1

  0
LINE
  5
25F
  8
LAYER0001
  6
CONTINUOUS
 62
     7
 10
235.7183098718692
 20
43.83617457637081
 30
0.0
 11
243.7183098718692
 21
43.83617457637081
 31
0.0
  0
LINE
  5
260
  8
LAYER0001
  6
CONTINUOUS
 62
     7
 10
235.7183098718692
 20
43.83617457637081
 30
0.0
 11
229.3683098718692
 21
43.83617457637081
 31
0.0
  0
LINE
  5
261
  8
LAYER0001
  6
CONTINUOUS
 62
     7
 10
250.0683098718692
 20
43.83617457637081
 30
0.0
 11
243.7183098718692
 21
43.83617457637081
 31
0.0
  0
INSERT
  5
262
  8
LAYER0001
  6
CONTINUOUS
  2
DC_GROUP_52
 10
0.0
 20
0.0
 30
0.0
  0
INSERT
  5
263
  8
LAYER0001
  6
CONTINUOUS
  2
DC_GROUP_53
 10
0.0
 20
0.0
 30
0.0
  0
TEXT
  5
264
  8
LAYER0001
 62
     7
 10
238.1183098718692
 20
45.43617457637081
 30
0.0
 40
4.0
  1
8
 41
0.5333333333333314
  7
FDASTYLE1
 72
     5
 11
240.2516432052025
 21
45.43617457637081
 31
0.0
  0
ENDBLK
  5
E4
  8
0
  0
BLOCK
  8
0
  2
DC_GROUP_52
 70
     0
 10
0.0
 20
0.0
 30
0.0
  3
DC_GROUP_52
  1

  0
LINE
  5
265
  8
LAYER0001
  6
CONTINUOUS
 62
     7
 10
233.7183114642385
 20
44.37207411126842
 30
0.0
 11
235.7183098718692
 21
43.83617457637081
 31
0.0
  0
LINE
  5
266
  8
LAYER0001
  6
CONTINUOUS
 62
     7
 10
235.7183098718692
 20
43.83617457637081
 30
0.0
 11
233.7183114642385
 21
43.3002750414732
 31
0.0
  0
LINE
  5
267
  8
LAYER0001
  6
CONTINUOUS
 62
     7
 10
235.7183098718692
 20
43.83617457637081
 30
0.0
 11
233.7183114642385
 21
43.83617457637081
 31
0.0
  0
ENDBLK
  5
E7
  8
0
  0
BLOCK
  8
0
  2
DC_GROUP_53
 70
     0
 10
0.0
 20
0.0
 30
0.0
  3
DC_GROUP_53
  1

  0
LINE
  5
268
  8
LAYER0001
  6
CONTINUOUS
 62
     7
 10
245.7183082794999
 20
43.3002750414732
 30
0.0
 11
243.7183098718692
 21
43.83617457637081
 31
0.0
  0
LINE
  5
269
  8
LAYER0001
  6
CONTINUOUS
 62
     7
 10
243.7183098718692
 20
43.83617457637081
 30
0.0
 11
245.7183082794999
 21
44.37207411126842
 31
0.0
  0
LINE
  5
26A
  8
LAYER0001
  6
CONTINUOUS
 62
     7
 10
243.7183098718692
 20
43.83617457637081
 30
0.0
 11
245.7183082794999
 21
43.83617457637081
 31
0.0
  0
ENDBLK
  5
EA
  8
0
  0
BLOCK
  8
0
  2
DC_GROUP_54
 70
     0
 10
0.0
 20
0.0
 30
0.0
  3
DC_GROUP_54
  1

  0
LINE
  5
26B
  8
LAYER0001
  6
CONTINUOUS
 62
     7
 10
243.7183098718692
 20
43.83617457637081
 30
0.0
 11
254.7183098718692
 21
43.83617457637081
 31
0.0
  0
INSERT
  5
26C
  8
LAYER0001
  6
CONTINUOUS
  2
DC_GROUP_55
 10
0.0
 20
0.0
 30
0.0
  0
INSERT
  5
26D
  8
LAYER0001
  6
CONTINUOUS
  2
DC_GROUP_56
 10
0.0
 20
0.0
 30
0.0
  0
TEXT
  5
26E
  8
LAYER0001
 62
     7
 10
246.0183098718692
 20
45.43617457637081
 30
0.0
 40
4.0
  1
11
 41
0.4761904761904745
  7
FDASTYLE1
 72
     5
 11
249.827833681393
 21
45.43617457637081
 31
0.0
  0
ENDBLK
  5
ED
  8
0
  0
BLOCK
  8
0
  2
DC_GROUP_55
 70
     0
 10
0.0
 20
0.0
 30
0.0
  3
DC_GROUP_55
  1

  0
LINE
  5
26F
  8
LAYER0001
  6
CONTINUOUS
 62
     7
 10
245.7183082794999
 20
43.3002750414732
 30
0.0
 11
243.7183098718692
 21
43.83617457637081
 31
0.0
  0
LINE
  5
270
  8
LAYER0001
  6
CONTINUOUS
 62
     7
 10
243.7183098718692
 20
43.83617457637081
 30
0.0
 11
245.7183082794999
 21
44.37207411126842
 31
0.0
  0
LINE
  5
271
  8
LAYER0001
  6
CONTINUOUS
 62
     7
 10
243.7183098718692
 20
43.83617457637081
 30
0.0
 11
245.7183082794999
 21
43.83617457637081
 31
0.0
  0
ENDBLK
  5
F0
  8
0
  0
BLOCK
  8
0
  2
DC_GROUP_56
 70
     0
 10
0.0
 20
0.0
 30
0.0
  3
DC_GROUP_56
  1

  0
LINE
  5
272
  8
LAYER0001
  6
CONTINUOUS
 62
     7
 10
252.7183114642385
 20
44.37207411126842
 30
0.0
 11
254.7183098718692
 21
43.83617457637081
 31
0.0
  0
LINE
  5
273
  8
LAYER0001
  6
CONTINUOUS
 62
     7
 10
254.7183098718692
 20
43.83617457637081
 30
0.0
 11
252.7183114642385
 21
43.3002750414732
 31
0.0
  0
LINE
  5
274
  8
LAYER0001
  6
CONTINUOUS
 62
     7
 10
254.7183098718692
 20
43.83617457637081
 30
0.0
 11
252.7183114642385
 21
43.83617457637081
 31
0.0
  0
ENDBLK
  5
F3
  8
0
  0
BLOCK
  8
0
  2
DC_GROUP_57
 70
     0
 10
0.0
 20
0.0
 30
0.0
  3
DC_GROUP_57
  1

  0
LINE
  5
275
  8
LAYER0001
  6
CONTINUOUS
 62
     7
 10
210.6783175012638
 20
67.45682963618526
 30
0.0
 11
180.3652138635684
 21
67.45682963618526
 31
0.0
  0
LINE
  5
276
  8
LAYER0001
  6
CONTINUOUS
 62
     7
 10
210.6783175012638
 20
35.45682772883663
 30
0.0
 11
180.3652138635684
 21
35.45682772883663
 31
0.0
  0
LINE
  5
277
  8
LAYER0001
  6
CONTINUOUS
 62
     7
 10
181.3652138635684
 20
67.45682963618526
 30
0.0
 11
181.3652138635684
 21
35.45682772883663
 31
0.0
  0
INSERT
  5
278
  8
LAYER0001
  6
CENTER
  2
DC_GROUP_58
 10
0.0
 20
0.0
 30
0.0
  0
INSERT
  5
279
  8
LAYER0001
  6
CENTER
  2
DC_GROUP_59
 10
0.0
 20
0.0
 30
0.0
  0
TEXT
  5
27A
  8
LAYER0001
 62
     7
 10
179.7652138635685
 20
43.45682963618526
 30
0.0
 40
4.0
  1
φ32H8
 50
90.0
 41
0.6213017751479295
  7
FDASTYLE1
 72
     5
 11
179.7652138635685
 21
56.3799065592622
 31
0.0
  0
ENDBLK
  5
F6
  8
0
  0
BLOCK
  8
0
  2
DC_GROUP_58
 70
     0
 10
0.0
 20
0.0
 30
0.0
  3
DC_GROUP_58
  1

  0
LINE
  5
27B
  8
LAYER0001
  6
CONTINUOUS
 62
     7
 10
180.8293143286708
 20
65.45683122855461
 30
0.0
 11
181.3652138635684
 21
67.45682963618526
 31
0.0
  0
LINE
  5
27C
  8
LAYER0001
  6
CONTINUOUS
 62
     7
 10
181.3652138635684
 20
67.45682963618526
 30
0.0
 11
181.901113398466
 21
65.45683122855461
 31
0.0
  0
LINE
  5
27D
  8
LAYER0001
  6
CONTINUOUS
 62
     7
 10
181.3652138635684
 20
67.45682963618526
 30
0.0
 11
181.3652138635684
 21
65.45683122855461
 31
0.0
  0
ENDBLK
  5
F9
  8
0
  0
BLOCK
  8
0
  2
DC_GROUP_59
 70
     0
 10
0.0
 20
0.0
 30
0.0
  3
DC_GROUP_59
  1

  0
LINE
  5
27E
  8
LAYER0001
  6
CONTINUOUS
 62
     7
 10
181.901113398466
 20
37.45682613646729
 30
0.0
 11
181.3652138635684
 21
35.45682772883663
 31
0.0
  0
LINE
  5
27F
  8
LAYER0001
  6
CONTINUOUS
 62
     7
 10
181.3652138635684
 20
35.45682772883663
 30
0.0
 11
180.8293143286708
 21
37.45682613646729
 31
0.0
  0
LINE
  5
280
  8
LAYER0001
  6
CONTINUOUS
 62
     7
 10
181.3652138635684
 20
35.45682772883663
 30
0.0
 11
181.3652138635684
 21
37.45682613646729
 31
0.0
  0
ENDBLK
  5
FC
  8
0
  0
BLOCK
  8
0
  2
DC_GROUP_60
 70
     0
 10
0.0
 20
0.0
 30
0.0
  3
DC_GROUP_60
  1

  0
LINE
  5
281
  8
LAYER0001
  6
CONTINUOUS
 62
     7
 10
278.2183098718692
 20
15.91682772883663
 30
0.0
 11
278.2183098718692
 21
-52.76996174565068
 31
0.0
  0
LINE
  5
282
  8
LAYER0001
  6
CONTINUOUS
 62
     7
 10
280.7183098718692
 20
15.91682772883663
 30
0.0
 11
280.7183098718692
 21
-52.76996174565068
 31
0.0
  0
LINE
  5
283
  8
LAYER0001
  6
CONTINUOUS
 62
     7
 10
278.2183098718692
 20
-51.76996174565068
 30
0.0
 11
280.7183098718692
 21
-51.76996174565068
 31
0.0
  0
LINE
  5
284
  8
LAYER0001
  6
CONTINUOUS
 62
     7
 10
278.2183098718692
 20
-51.76996174565068
 30
0.0
 11
271.8683098718692
 21
-51.76996174565068
 31
0.0
  0
LINE
  5
285
  8
LAYER0001
  6
CONTINUOUS
 62
     7
 10
287.0683098718693
 20
-51.76996174565068
 30
0.0
 11
280.7183098718692
 21
-51.76996174565068
 31
0.0
  0
INSERT
  5
286
  8
LAYER0001
  6
CONTINUOUS
  2
DC_GROUP_61
 10
0.0
 20
0.0
 30
0.0
  0
INSERT
  5
287
  8
LAYER0001
  6
CONTINUOUS
  2
DC_GROUP_62
 10
0.0
 20
0.0
 30
0.0
  0
TEXT
  5
288
  8
LAYER0001
 62
     7
 10
285.2219864770938
 20
-50.16996174565067
 30
0.0
 40
4.0
  1
2.5
 41
0.5587301587301568
  7
FDASTYLE1
 72
     5
 11
291.9267483818557
 21
-50.16996174565067
 31
0.0
  0
ENDBLK
  5
FF
  8
0
  0
BLOCK
  8
0
  2
DC_GROUP_61
 70
     0
 10
0.0
 20
0.0
 30
0.0
  3
DC_GROUP_61
  1

  0
LINE
  5
289
  8
LAYER0001
  6
CONTINUOUS
 62
     7
 10
276.2183114642386
 20
-51.23406221075307
 30
0.0
 11
278.2183098718692
 21
-51.76996174565068
 31
0.0
  0
LINE
  5
28A
  8
LAYER0001
  6
CONTINUOUS
 62
     7
 10
278.2183098718692
 20
-51.76996174565068
 30
0.0
 11
276.2183114642386
 21
-52.30586128054829
 31
0.0
  0
LINE
  5
28B
  8
LAYER0001
  6
CONTINUOUS
 62
     7
 10
278.2183098718692
 20
-51.76996174565068
 30
0.0
 11
276.2183114642386
 21
-51.76996174565068
 31
0.0
  0
ENDBLK
  5
102
  8
0
  0
BLOCK
  8
0
  2
DC_GROUP_62
 70
     0
 10
0.0
 20
0.0
 30
0.0
  3
DC_GROUP_62
  1

  0
LINE
  5
28C
  8
LAYER0001
  6
CONTINUOUS
 62
     7
 10
282.7183082794999
 20
-52.30586128054829
 30
0.0
 11
280.7183098718692
 21
-51.76996174565068
 31
0.0
  0
LINE
  5
28D
  8
LAYER0001
  6
CONTINUOUS
 62
     7
 10
280.7183098718692
 20
-51.76996174565068
 30
0.0
 11
282.7183082794999
 21
-51.23406221075307
 31
0.0
  0
LINE
  5
28E
  8
LAYER0001
  6
CONTINUOUS
 62
     7
 10
280.7183098718692
 20
-51.76996174565068
 30
0.0
 11
282.7183082794999
 21
-51.76996174565068
 31
0.0
  0
ENDBLK
  5
105
  8
0
  0
BLOCK
  8
0
  2
DC_GROUP_63
 70
     0
 10
0.0
 20
0.0
 30
0.0
  3
DC_GROUP_63
  1

  0
LINE
  5
28F
  8
LAYER0001
  6
CONTINUOUS
 62
     7
 10
303.8354239770938
 20
100.456825821488
 30
0.0
 11
313.9920449182559
 21
100.456825821488
 31
0.0
  0
LINE
  5
290
  8
LAYER0001
  6
CONTINUOUS
 62
     7
 10
303.6546111414004
 20
125.456825821488
 30
0.0
 11
313.9920449182559
 21
125.456825821488
 31
0.0
  0
LINE
  5
291
  8
LAYER0001
  6
CONTINUOUS
 62
     7
 10
312.9920449182559
 20
100.456825821488
 30
0.0
 11
312.9920449182559
 21
125.456825821488
 31
0.0
  0
INSERT
  5
292
  8
LAYER0001
  6
CONTINUOUS
  2
DC_GROUP_64
 10
0.0
 20
0.0
 30
0.0
  0
INSERT
  5
293
  8
LAYER0001
  6
CONTINUOUS
  2
DC_GROUP_65
 10
0.0
 20
0.0
 30
0.0
  0
TEXT
  5
294
  8
LAYER0001
 62
     7
 10
311.3920449182559
 20
109.756825821488
 30
0.0
 40
4.0
  1
25
 50
90.0
 41
0.6476190476190453
  7
FDASTYLE1
 72
     5
 11
311.3920449182559
 21
114.9377782024404
 31
0.0
  0
ENDBLK
  5
108
  8
0
  0
BLOCK
  8
0
  2
DC_GROUP_64
 70
     0
 10
0.0
 20
0.0
 30
0.0
  3
DC_GROUP_64
  1

  0
LINE
  5
295
  8
LAYER0001
  6
CONTINUOUS
 62
     7
 10
313.5279444531536
 20
102.4568242291187
 30
0.0
 11
312.9920449182559
 21
100.456825821488
 31
0.0
  0
LINE
  5
296
  8
LAYER0001
  6
CONTINUOUS
 62
     7
 10
312.9920449182559
 20
100.456825821488
 30
0.0
 11
312.4561453833583
 21
102.4568242291187
 31
0.0
  0
LINE
  5
297
  8
LAYER0001
  6
CONTINUOUS
 62
     7
 10
312.9920449182559
 20
100.456825821488
 30
0.0
 11
312.9920449182559
 21
102.4568242291187
 31
0.0
  0
ENDBLK
  5
10B
  8
0
  0
BLOCK
  8
0
  2
DC_GROUP_65
 70
     0
 10
0.0
 20
0.0
 30
0.0
  3
DC_GROUP_65
  1

  0
LINE
  5
298
  8
LAYER0001
  6
CONTINUOUS
 62
     7
 10
312.4561453833583
 20
123.4568274138573
 30
0.0
 11
312.9920449182559
 21
125.456825821488
 31
0.0
  0
LINE
  5
299
  8
LAYER0001
  6
CONTINUOUS
 62
     7
 10
312.9920449182559
 20
125.456825821488
 30
0.0
 11
313.5279444531536
 21
123.4568274138573
 31
0.0
  0
LINE
  5
29A
  8
LAYER0001
  6
CONTINUOUS
 62
     7
 10
312.9920449182559
 20
125.456825821488
 30
0.0
 11
312.9920449182559
 21
123.4568274138573
 31
0.0
  0
ENDBLK
  5
10E
  8
0
  0
BLOCK
  8
0
  2
DC_GROUP_66
 70
     0
 10
0.0
 20
0.0
 30
0.0
  3
DC_GROUP_66
  1

  0
LINE
  5
29B
  8
LAYER0001
  6
CONTINUOUS
 62
     7
 10
283.2583098718692
 20
133.456825821488
 30
0.0
 11
325.8600335046817
 21
133.456825821488
 31
0.0
  0
LINE
  5
29C
  8
LAYER0001
  6
CONTINUOUS
 62
     7
 10
316.8406653711368
 20
92.456825821488
 30
0.0
 11
325.8600335046817
 21
92.456825821488
 31
0.0
  0
LINE
  5
29D
  8
LAYER0001
  6
CONTINUOUS
 62
     7
 10
324.8600335046817
 20
133.456825821488
 30
0.0
 11
324.8600335046817
 21
92.456825821488
 31
0.0
  0
INSERT
  5
29E
  8
LAYER0001
  6
CONTINUOUS
  2
DC_GROUP_67
 10
0.0
 20
0.0
 30
0.0
  0
INSERT
  5
29F
  8
LAYER0001
  6
CONTINUOUS
  2
DC_GROUP_68
 10
0.0
 20
0.0
 30
0.0
  0
TEXT
  5
2A0
  8
LAYER0001
 62
     7
 10
323.2600335046817
 20
109.756825821488
 30
0.0
 40
4.0
  1
41
 50
90.0
 41
0.5333333333333314
  7
FDASTYLE1
 72
     5
 11
323.2600335046817
 21
114.0234924881546
 31
0.0
  0
ENDBLK
  5
111
  8
0
  0
BLOCK
  8
0
  2
DC_GROUP_67
 70
     0
 10
0.0
 20
0.0
 30
0.0
  3
DC_GROUP_67
  1

  0
LINE
  5
2A1
  8
LAYER0001
  6
CONTINUOUS
 62
     7
 10
324.3241339697841
 20
131.4568274138574
 30
0.0
 11
324.8600335046817
 21
133.456825821488
 31
0.0
  0
LINE
  5
2A2
  8
LAYER0001
  6
CONTINUOUS
 62
     7
 10
324.8600335046817
 20
133.456825821488
 30
0.0
 11
325.3959330395794
 21
131.4568274138574
 31
0.0
  0
LINE
  5
2A3
  8
LAYER0001
  6
CONTINUOUS
 62
     7
 10
324.8600335046817
 20
133.456825821488
 30
0.0
 11
324.8600335046817
 21
131.4568274138574
 31
0.0
  0
ENDBLK
  5
114
  8
0
  0
BLOCK
  8
0
  2
DC_GROUP_68
 70
     0
 10
0.0
 20
0.0
 30
0.0
  3
DC_GROUP_68
  1

  0
LINE
  5
2A4
  8
LAYER0001
  6
CONTINUOUS
 62
     7
 10
325.3959330395794
 20
94.45682422911867
 30
0.0
 11
324.8600335046817
 21
92.456825821488
 31
0.0
  0
LINE
  5
2A5
  8
LAYER0001
  6
CONTINUOUS
 62
     7
 10
324.8600335046817
 20
92.456825821488
 30
0.0
 11
324.3241339697841
 21
94.45682422911867
 31
0.0
  0
LINE
  5
2A6
  8
LAYER0001
  6
CONTINUOUS
 62
     7
 10
324.8600335046817
 20
92.456825821488
 30
0.0
 11
324.8600335046817
 21
94.45682422911867
 31
0.0
  0
ENDBLK
  5
117
  8
0
  0
BLOCK
  8
0
  2
DC_GROUP_69
 70
     0
 10
0.0
 20
0.0
 30
0.0
  3
DC_GROUP_69
  1

  0
LINE
  5
2A7
  8
LAYER0001
  6
CONTINUOUS
 62
     7
 10
280.7183098718692
 20
-29.58317036381474
 30
0.0
 11
280.7183098718692
 21
-79.94977513066044
 31
0.0
  0
LINE
  5
2A8
  8
LAYER0001
  6
CONTINUOUS
 62
     7
 10
201.7183175012638
 20
-31.08317036381474
 30
0.0
 11
201.7183175012638
 21
-79.94977513066044
 31
0.0
  0
LINE
  5
2A9
  8
LAYER0001
  6
CONTINUOUS
 62
     7
 10
280.7183098718692
 20
-77.66377201786747
 30
0.0
 11
201.7183175012638
 21
-77.66377201786747
 31
0.0
  0
INSERT
  5
2AA
  8
LAYER0001
  6
CONTINUOUS
  2
DC_GROUP_70
 10
0.0
 20
0.0
 30
0.0
  0
INSERT
  5
2AB
  8
LAYER0001
  6
CONTINUOUS
  2
DC_GROUP_71
 10
0.0
 20
0.0
 30
0.0
  0
TEXT
  5
2AC
  8
LAYER0001
 62
     7
 10
238.0183098718692
 20
-76.06377201786748
 30
0.0
 40
4.0
  1
79
 41
0.6285714285714299
  7
FDASTYLE1
 72
     5
 11
243.0468813004406
 21
-76.06377201786748
 31
0.0
  0
ENDBLK
  5
11A
  8
0
  0
BLOCK
  8
0
  2
DC_GROUP_70
 70
     0
 10
0.0
 20
0.0
 30
0.0
  3
DC_GROUP_70
  1

  0
LINE
  5
2AD
  8
LAYER0001
  6
CONTINUOUS
 62
     7
 10
278.7183114642386
 20
-77.12787248296986
 30
0.0
 11
280.7183098718692
 21
-77.66377201786747
 31
0.0
  0
LINE
  5
2AE
  8
LAYER0001
  6
CONTINUOUS
 62
     7
 10
280.7183098718692
 20
-77.66377201786747
 30
0.0
 11
278.7183114642386
 21
-78.19967155276508
 31
0.0
  0
LINE
  5
2AF
  8
LAYER0001
  6
CONTINUOUS
 62
     7
 10
280.7183098718692
 20
-77.66377201786747
 30
0.0
 11
278.7183114642386
 21
-77.66377201786747
 31
0.0
  0
ENDBLK
  5
11D
  8
0
  0
BLOCK
  8
0
  2
DC_GROUP_71
 70
     0
 10
0.0
 20
0.0
 30
0.0
  3
DC_GROUP_71
  1

  0
LINE
  5
2B0
  8
LAYER0001
  6
CONTINUOUS
 62
     7
 10
203.7183159088945
 20
-78.19967155276508
 30
0.0
 11
201.7183175012638
 21
-77.66377201786747
 31
0.0
  0
LINE
  5
2B1
  8
LAYER0001
  6
CONTINUOUS
 62
     7
 10
201.7183175012638
 20
-77.66377201786747
 30
0.0
 11
203.7183159088945
 21
-77.12787248296986
 31
0.0
  0
LINE
  5
2B2
  8
LAYER0001
  6
CONTINUOUS
 62
     7
 10
201.7183175012638
 20
-77.66377201786747
 30
0.0
 11
203.7183159088945
 21
-77.66377201786747
 31
0.0
  0
ENDBLK
  5
120
  8
0
  0
BLOCK
  8
0
  2
DC_GROUP_72
 70
     0
 10
0.0
 20
0.0
 30
0.0
  3
DC_GROUP_72
  1

  0
LINE
  5
2B3
  8
LAYER0001
  6
CONTINUOUS
 62
     7
 10
477.6516899988224
 20
-39.08317036381474
 30
0.0
 11
477.6516899988224
 21
-53.32153645268193
 31
0.0
  0
LINE
  5
2B4
  8
LAYER0001
  6
CONTINUOUS
 62
     7
 10
488.6516899988224
 20
-39.08317036381474
 30
0.0
 11
488.6516899988224
 21
-53.32153645268193
 31
0.0
  0
LINE
  5
2B5
  8
LAYER0001
  6
CONTINUOUS
 62
     7
 10
477.6516899988224
 20
-51.03553333988896
 30
0.0
 11
488.6516899988224
 21
-51.03553333988896
 31
0.0
  0
LINE
  5
2B6
  8
LAYER0001
  6
CONTINUOUS
 62
     7
 10
452.5924442767726
 20
-51.03553333988896
 30
0.0
 11
477.6516899988224
 21
-51.03553333988896
 31
0.0
  0
LINE
  5
2B7
  8
LAYER0001
  6
CONTINUOUS
 62
     7
 10
493.6516899988224
 20
-51.03553333988896
 30
0.0
 11
488.6516899988224
 21
-51.03553333988896
 31
0.0
  0
INSERT
  5
2B8
  8
LAYER0001
  6
CONTINUOUS
  2
DC_GROUP_73
 10
0.0
 20
0.0
 30
0.0
  0
INSERT
  5
2B9
  8
LAYER0001
  6
CONTINUOUS
  2
DC_GROUP_74
 10
0.0
 20
0.0
 30
0.0
  0
TEXT
  5
2BA
  8
LAYER0001
 62
     7
 10
453.5924637722825
 20
-50.01319313680547
 30
0.0
 40
4.0
  1
11H8
 50
-0.1000000000000078
 41
0.6952380952380957
  7
FDASTYLE1
 72
     5
 11
464.7162563535655
 21
-50.03260783710422
 31
0.0
  0
ENDBLK
  5
123
  8
0
  0
BLOCK
  8
0
  2
DC_GROUP_73
 70
     0
 10
0.0
 20
0.0
 30
0.0
  3
DC_GROUP_73
  1

  0
LINE
  5
2BB
  8
LAYER0001
  6
CONTINUOUS
 62
     7
 10
475.6516915911917
 20
-50.49963380499135
 30
0.0
 11
477.6516899988224
 21
-51.03553333988896
 31
0.0
  0
LINE
  5
2BC
  8
LAYER0001
  6
CONTINUOUS
 62
     7
 10
477.6516899988224
 20
-51.03553333988896
 30
0.0
 11
475.6516915911917
 21
-51.57143287478657
 31
0.0
  0
LINE
  5
2BD
  8
LAYER0001
  6
CONTINUOUS
 62
     7
 10
477.6516899988224
 20
-51.03553333988896
 30
0.0
 11
475.6516915911917
 21
-51.03553333988896
 31
0.0
  0
ENDBLK
  5
126
  8
0
  0
BLOCK
  8
0
  2
DC_GROUP_74
 70
     0
 10
0.0
 20
0.0
 30
0.0
  3
DC_GROUP_74
  1

  0
LINE
  5
2BE
  8
LAYER0001
  6
CONTINUOUS
 62
     7
 10
490.651688406453
 20
-51.57143287478657
 30
0.0
 11
488.6516899988224
 21
-51.03553333988896
 31
0.0
  0
LINE
  5
2BF
  8
LAYER0001
  6
CONTINUOUS
 62
     7
 10
488.6516899988224
 20
-51.03553333988896
 30
0.0
 11
490.651688406453
 21
-50.49963380499135
 31
0.0
  0
LINE
  5
2C0
  8
LAYER0001
  6
CONTINUOUS
 62
     7
 10
488.6516899988224
 20
-51.03553333988896
 30
0.0
 11
490.651688406453
 21
-51.03553333988896
 31
0.0
  0
ENDBLK
  5
129
  8
0
  0
BLOCK
  8
0
  2
DC_GROUP_75
 70
     0
 10
0.0
 20
0.0
 30
0.0
  3
DC_GROUP_75
  1

  0
LINE
  5
2C1
  8
LAYER0001
  6
CONTINUOUS
 62
     7
 10
469.1516899988224
 20
-39.08317036381474
 30
0.0
 11
469.1516899988224
 21
-62.86845722904911
 31
0.0
  0
LINE
  5
2C2
  8
LAYER0001
  6
CONTINUOUS
 62
     7
 10
497.1516899988224
 20
-39.08317036381474
 30
0.0
 11
497.1516899988224
 21
-62.86845722904911
 31
0.0
  0
LINE
  5
2C3
  8
LAYER0001
  6
CONTINUOUS
 62
     7
 10
469.1516899988224
 20
-61.86845722904911
 30
0.0
 11
497.1516899988224
 21
-61.86845722904911
 31
0.0
  0
INSERT
  5
2C4
  8
LAYER0001
  6
CONTINUOUS
  2
DC_GROUP_76
 10
0.0
 20
0.0
 30
0.0
  0
INSERT
  5
2C5
  8
LAYER0001
  6
CONTINUOUS
  2
DC_GROUP_77
 10
0.0
 20
0.0
 30
0.0
  0
TEXT
  5
2C6
  8
LAYER0001
 62
     7
 10
479.9516899988224
 20
-60.26845722904912
 30
0.0
 40
4.0
  1
28
 41
0.6476190476190453
  7
FDASTYLE1
 72
     5
 11
485.1326423797748
 21
-60.26845722904912
 31
0.0
  0
ENDBLK
  5
12C
  8
0
  0
BLOCK
  8
0
  2
DC_GROUP_76
 70
     0
 10
0.0
 20
0.0
 30
0.0
  3
DC_GROUP_76
  1

  0
LINE
  5
2C7
  8
LAYER0001
  6
CONTINUOUS
 62
     7
 10
471.1516884064531
 20
-62.40435676394672
 30
0.0
 11
469.1516899988224
 21
-61.86845722904911
 31
0.0
  0
LINE
  5
2C8
  8
LAYER0001
  6
CONTINUOUS
 62
     7
 10
469.1516899988224
 20
-61.86845722904911
 30
0.0
 11
471.1516884064531
 21
-61.3325576941515
 31
0.0
  0
LINE
  5
2C9
  8
LAYER0001
  6
CONTINUOUS
 62
     7
 10
469.1516899988224
 20
-61.86845722904911
 30
0.0
 11
471.1516884064531
 21
-61.86845722904911
 31
0.0
  0
ENDBLK
  5
12F
  8
0
  0
BLOCK
  8
0
  2
DC_GROUP_77
 70
     0
 10
0.0
 20
0.0
 30
0.0
  3
DC_GROUP_77
  1

  0
LINE
  5
2CA
  8
LAYER0001
  6
CONTINUOUS
 62
     7
 10
495.1516915911917
 20
-61.3325576941515
 30
0.0
 11
497.1516899988224
 21
-61.86845722904911
 31
0.0
  0
LINE
  5
2CB
  8
LAYER0001
  6
CONTINUOUS
 62
     7
 10
497.1516899988224
 20
-61.86845722904911
 30
0.0
 11
495.1516915911917
 21
-62.40435676394672
 31
0.0
  0
LINE
  5
2CC
  8
LAYER0001
  6
CONTINUOUS
 62
     7
 10
497.1516899988224
 20
-61.86845722904911
 30
0.0
 11
495.1516915911917
 21
-61.86845722904911
 31
0.0
  0
ENDBLK
  5
132
  8
0
  0
BLOCK
  8
0
  2
DC_GROUP_78
 70
     0
 10
0.0
 20
0.0
 30
0.0
  3
DC_GROUP_78
  1

  0
LINE
  5
2CD
  8
LAYER0001
  6
CONTINUOUS
 62
     7
 10
524.3225431162882
 20
75.22684287306478
 30
0.0
 11
567.7813794389446
 21
100.3178109505196
 31
0.0
  0
LINE
  5
2CE
  8
LAYER0001
  6
CONTINUOUS
 62
     7
 10
573.7250457117129
 20
51.45722255000362
 30
0.0
 11
580.8736290857364
 21
51.45722255000362
 31
0.0
  0
ARC
  5
2CF
  8
LAYER0001
  6
CONTINUOUS
 62
     7
 10
483.1516594812442
 20
51.45682963618526
 30
0.0
 40
95.43597412109375
 50
0.0000359721780753
 51
30.00000424992064
  0
INSERT
  5
2D0
  8
LAYER0001
  6
CONTINUOUS
  2
DC_GROUP_79
 10
0.0
 20
0.0
 30
0.0
  0
INSERT
  5
2D1
  8
LAYER0001
  6
CONTINUOUS
  2
DC_GROUP_80
 10
0.0
 20
0.0
 30
0.0
  0
TEXT
  5
2D2
  8
LAYER0001
 62
     7
 10
575.6300608216271
 20
81.20858144258924
 30
0.0
 40
4.0
  1
30ﾟ
 50
-74.89999999999999
 41
0.4499999999999977
  7
FDASTYLE1
 72
     5
 11
577.0367851682975
 21
75.99502923584146
 31
0.0
  0
ENDBLK
  5
135
  8
0
  0
BLOCK
  8
0
  2
DC_GROUP_79
 70
     0
 10
0.0
 20
0.0
 30
0.0
  3
DC_GROUP_79
  1

  0
LINE
  5
2D3
  8
LAYER0001
  6
CONTINUOUS
 62
     7
 10
579.1025464128461
 20
53.46239366512037
 30
0.0
 11
578.5876336023192
 21
51.4568895540341
 31
0.0
  0
LINE
  5
2D4
  8
LAYER0001
  6
CONTINUOUS
 62
     7
 10
578.5876336023192
 20
51.4568895540341
 30
0.0
 11
578.030806187669
 21
53.45116264775085
 31
0.0
  0
LINE
  5
2D5
  8
LAYER0001
  6
CONTINUOUS
 62
     7
 10
578.5876336023192
 20
51.4568895540341
 30
0.0
 11
578.5666763002575
 21
53.45677815643561
 31
0.0
  0
ENDBLK
  5
138
  8
0
  0
BLOCK
  8
0
  2
DC_GROUP_80
 70
     0
 10
0.0
 20
0.0
 30
0.0
  3
DC_GROUP_80
  1

  0
LINE
  5
2D6
  8
LAYER0001
  6
CONTINUOUS
 62
     7
 10
566.3165452336667
 20
97.1693183202068
 30
0.0
 11
565.8016339655386
 21
99.17482282730305
 31
0.0
  0
LINE
  5
2D7
  8
LAYER0001
  6
CONTINUOUS
 62
     7
 10
565.8016339655386
 20
99.17482282730305
 30
0.0
 11
567.2503146342551
 21
97.69546274195679
 31
0.0
  0
LINE
  5
2D8
  8
LAYER0001
  6
CONTINUOUS
 62
     7
 10
565.8016339655386
 20
99.17482282730305
 30
0.0
 11
566.7834299339609
 21
97.43239053108179
 31
0.0
  0
ENDBLK
  5
13B
  8
0
  0
BLOCK
  8
0
  2
DC_GROUP_81
 70
     0
 10
0.0
 20
0.0
 30
0.0
  3
DC_GROUP_81
  1

  0
LINE
  5
2D9
  8
LAYER0001
  6
CONTINUOUS
 62
     7
 10
532.5961301527752
 20
100.9012743979482
 30
0.0
 11
561.0740621568443
 21
129.3791775959093
 31
0.0
  0
LINE
  5
2DA
  8
LAYER0001
  6
CONTINUOUS
 62
     7
 10
573.7250457117129
 20
51.45701274165401
 30
0.0
 11
593.3505272790958
 21
51.45701274165401
 31
0.0
  0
ARC
  5
2DB
  8
LAYER0001
  6
CONTINUOUS
 62
     7
 10
483.1516594812442
 20
51.45682963618526
 30
0.0
 40
107.9128799438477
 50
0.0000359721780753
 51
44.99998759186074
  0
INSERT
  5
2DC
  8
LAYER0001
  6
CONTINUOUS
  2
DC_GROUP_82
 10
0.0
 20
0.0
 30
0.0
  0
INSERT
  5
2DD
  8
LAYER0001
  6
CONTINUOUS
  2
DC_GROUP_83
 10
0.0
 20
0.0
 30
0.0
  0
TEXT
  5
2DE
  8
LAYER0001
 62
     7
 10
582.482664607983
 20
97.79961235425124
 30
0.0
 40
4.0
  1
45ﾟ
 50
-67.39999999999999
 41
0.4499999999999969
  7
FDASTYLE1
 72
     5
 11
584.5578593503459
 21
92.81427718184116
 31
0.0
  0
ENDBLK
  5
13E
  8
0
  0
BLOCK
  8
0
  2
DC_GROUP_82
 70
     0
 10
0.0
 20
0.0
 30
0.0
  3
DC_GROUP_82
  1

  0
LINE
  5
2DF
  8
LAYER0001
  6
CONTINUOUS
 62
     7
 10
591.5818815133069
 20
53.46177621315356
 30
0.0
 11
591.0645394250706
 21
51.45689738744665
 31
0.0
  0
LINE
  5
2E0
  8
LAYER0001
  6
CONTINUOUS
 62
     7
 10
591.0645394250706
 20
51.45689738744665
 30
0.0
 11
590.5101284683291
 21
53.45184361054982
 31
0.0
  0
LINE
  5
2E1
  8
LAYER0001
  6
CONTINUOUS
 62
     7
 10
591.0645394250706
 20
51.45689738744665
 30
0.0
 11
591.046004990818
 21
53.45680991185169
 31
0.0
  0
ENDBLK
  5
141
  8
0
  0
BLOCK
  8
0
  2
DC_GROUP_83
 70
     0
 10
0.0
 20
0.0
 30
0.0
  3
DC_GROUP_83
  1

  0
LINE
  5
2E2
  8
LAYER0001
  6
CONTINUOUS
 62
     7
 10
560.4762181887049
 20
125.9600749662059
 30
0.0
 11
559.457605191939
 21
127.7627422968158
 31
0.0
  0
LINE
  5
2E3
  8
LAYER0001
  6
CONTINUOUS
 62
     7
 10
559.457605191939
 20
127.7627422968158
 30
0.0
 11
561.2410851364321
 21
126.7108957159781
 31
0.0
  0
LINE
  5
2E4
  8
LAYER0001
  6
CONTINUOUS
 62
     7
 10
559.457605191939
 20
127.7627422968158
 30
0.0
 11
560.8586516625685
 21
126.335485341092
 31
0.0
  0
ENDBLK
  5
144
  8
0
  0
BLOCK
  8
0
  2
DC_GROUP_84
 70
     0
 10
0.0
 20
0.0
 30
0.0
  3
DC_GROUP_84
  1

  0
LINE
  5
2E5
  8
LAYER0001
  6
CONTINUOUS
 62
     7
 10
443.4187698446753
 20
6.411737888544963
 30
0.0
 11
426.8334654631364
 21
-33.19494882812967
 31
0.0
  0
LINE
  5
2E6
  8
LAYER0001
  6
CONTINUOUS
 62
     7
 10
426.8334603235294
 20
-33.19494953861943
 30
0.0
 11
394.7196373865177
 21
-33.19494953861943
 31
0.0
  0
INSERT
  5
2E7
  8
LAYER0001
  6
CONTINUOUS
  2
DC_GROUP_85
 10
0.0
 20
0.0
 30
0.0
  0
TEXT
  5
2E8
  8
LAYER0001
 62
     7
 10
396.5482079431583
 20
-31.59494953861942
 30
0.0
 40
4.0
  1
PCD104.77
 41
0.7026455026455017
  7
FDASTYLE1
 72
     5
 11
421.8434460383963
 21
-31.59494953861942
 31
0.0
  0
ENDBLK
  5
147
  8
0
  0
BLOCK
  8
0
  2
DC_GROUP_85
 70
     0
 10
0.0
 20
0.0
 30
0.0
  3
DC_GROUP_85
  1

  0
LINE
  5
2E9
  8
LAYER0001
  6
CONTINUOUS
 62
     7
 10
442.1519558783591
 20
4.773945375198136
 30
0.0
 11
443.4187698446753
 21
6.411737888544963
 31
0.0
  0
LINE
  5
2EA
  8
LAYER0001
  6
CONTINUOUS
 62
     7
 10
443.4187698446753
 20
6.411737888544963
 30
0.0
 11
443.1405760430005
 21
4.359960573449986
 31
0.0
  0
LINE
  5
2EB
  8
LAYER0001
  6
CONTINUOUS
 62
     7
 10
443.4187698446753
 20
6.411737888544963
 30
0.0
 11
442.6462659606798
 21
4.566952974324061
 31
0.0
  0
ENDBLK
  5
14A
  8
0
  0
BLOCK
  8
0
  2
DC_GROUP_86
 70
     0
 10
0.0
 20
0.0
 30
0.0
  3
DC_GROUP_86
  1

  0
LINE
  5
2EC
  8
LAYER0001
  6
CONTINUOUS
 62
     7
 10
392.5783266565372
 20
51.45682963618526
 30
0.0
 11
387.5882935449649
 21
51.45682963618526
 31
0.0
  0
LINE
  5
2ED
  8
LAYER0001
  6
CONTINUOUS
 62
     7
 10
417.9929003259708
 20
109.4568220067907
 30
0.0
 11
387.5882935449649
 21
109.4568220067907
 31
0.0
  0
LINE
  5
2EE
  8
LAYER0001
  6
CONTINUOUS
 62
     7
 10
388.5882935449649
 20
51.45682963618526
 30
0.0
 11
388.5882935449649
 21
109.4568220067907
 31
0.0
  0
INSERT
  5
2EF
  8
LAYER0001
  6
CONTINUOUS
  2
DC_GROUP_87
 10
0.0
 20
0.0
 30
0.0
  0
INSERT
  5
2F0
  8
LAYER0001
  6
CONTINUOUS
  2
DC_GROUP_88
 10
0.0
 20
0.0
 30
0.0
  0
TEXT
  5
2F1
  8
LAYER0001
 62
     7
 10
386.9882935449649
 20
77.25682963618526
 30
0.0
 40
4.0
  1
58
 50
90.0
 41
0.6476190476190453
  7
FDASTYLE1
 72
     5
 11
386.9882935449649
 21
82.43778201713762
 31
0.0
  0
ENDBLK
  5
14D
  8
0
  0
BLOCK
  8
0
  2
DC_GROUP_87
 70
     0
 10
0.0
 20
0.0
 30
0.0
  3
DC_GROUP_87
  1

  0
LINE
  5
2F2
  8
LAYER0001
  6
CONTINUOUS
 62
     7
 10
389.1241930798626
 20
53.45682804381592
 30
0.0
 11
388.5882935449649
 21
51.45682963618526
 31
0.0
  0
LINE
  5
2F3
  8
LAYER0001
  6
CONTINUOUS
 62
     7
 10
388.5882935449649
 20
51.45682963618526
 30
0.0
 11
388.0523940100673
 21
53.45682804381592
 31
0.0
  0
LINE
  5
2F4
  8
LAYER0001
  6
CONTINUOUS
 62
     7
 10
388.5882935449649
 20
51.45682963618526
 30
0.0
 11
388.5882935449649
 21
53.45682804381592
 31
0.0
  0
ENDBLK
  5
150
  8
0
  0
BLOCK
  8
0
  2
DC_GROUP_88
 70
     0
 10
0.0
 20
0.0
 30
0.0
  3
DC_GROUP_88
  1

  0
LINE
  5
2F5
  8
LAYER0001
  6
CONTINUOUS
 62
     7
 10
388.0523940100673
 20
107.45682359916
 30
0.0
 11
388.5882935449649
 21
109.4568220067907
 31
0.0
  0
LINE
  5
2F6
  8
LAYER0001
  6
CONTINUOUS
 62
     7
 10
388.5882935449649
 20
109.4568220067907
 30
0.0
 11
389.1241930798626
 21
107.45682359916
 31
0.0
  0
LINE
  5
2F7
  8
LAYER0001
  6
CONTINUOUS
 62
     7
 10
388.5882935449649
 20
109.4568220067907
 30
0.0
 11
388.5882935449649
 21
107.45682359916
 31
0.0
  0
ENDBLK
  5
153
  8
0
  0
BLOCK
  8
0
  2
DC_GROUP_89
 70
     0
 10
0.0
 20
0.0
 30
0.0
  3
DC_GROUP_89
  1

  0
LINE
  5
2F8
  8
LAYER0001
  6
CONTINUOUS
 62
     7
 10
503.1516899988224
 20
-65.02677571049442
 30
0.0
 11
503.1516899988224
 21
-53.21657124272099
 31
0.0
  0
LINE
  5
2F9
  8
LAYER0001
  6
CONTINUOUS
 62
     7
 10
519.1517052576114
 20
-65.02677571049442
 30
0.0
 11
519.1517052576114
 21
-53.21657124272099
 31
0.0
  0
LINE
  5
2FA
  8
LAYER0001
  6
CONTINUOUS
 62
     7
 10
503.1516899988224
 20
-54.21657124272099
 30
0.0
 11
519.1517052576114
 21
-54.21657124272099
 31
0.0
  0
INSERT
  5
2FB
  8
LAYER0001
  6
CONTINUOUS
  2
DC_GROUP_90
 10
0.0
 20
0.0
 30
0.0
  0
INSERT
  5
2FC
  8
LAYER0001
  6
CONTINUOUS
  2
DC_GROUP_91
 10
0.0
 20
0.0
 30
0.0
  0
TEXT
  5
2FD
  8
LAYER0001
 62
     7
 10
506.3516899988224
 20
-52.61657124272099
 30
0.0
 40
4.0
  1
φ16
 41
0.6093750000000053
  7
FDASTYLE1
 72
     5
 11
514.1516899988225
 21
-52.61657124272099
 31
0.0
  0
ENDBLK
  5
156
  8
0
  0
BLOCK
  8
0
  2
DC_GROUP_90
 70
     0
 10
0.0
 20
0.0
 30
0.0
  3
DC_GROUP_90
  1

  0
LINE
  5
2FE
  8
LAYER0001
  6
CONTINUOUS
 62
     7
 10
505.1516884064531
 20
-54.7524707776186
 30
0.0
 11
503.1516899988224
 21
-54.21657124272099
 31
0.0
  0
LINE
  5
2FF
  8
LAYER0001
  6
CONTINUOUS
 62
     7
 10
503.1516899988224
 20
-54.21657124272099
 30
0.0
 11
505.1516884064531
 21
-53.68067170782338
 31
0.0
  0
LINE
  5
300
  8
LAYER0001
  6
CONTINUOUS
 62
     7
 10
503.1516899988224
 20
-54.21657124272099
 30
0.0
 11
505.1516884064531
 21
-54.21657124272099
 31
0.0
  0
ENDBLK
  5
159
  8
0
  0
BLOCK
  8
0
  2
DC_GROUP_91
 70
     0
 10
0.0
 20
0.0
 30
0.0
  3
DC_GROUP_91
  1

  0
LINE
  5
301
  8
LAYER0001
  6
CONTINUOUS
 62
     7
 10
517.1517068499807
 20
-53.68067170782338
 30
0.0
 11
519.1517052576114
 21
-54.21657124272099
 31
0.0
  0
LINE
  5
302
  8
LAYER0001
  6
CONTINUOUS
 62
     7
 10
519.1517052576114
 20
-54.21657124272099
 30
0.0
 11
517.1517068499807
 21
-54.7524707776186
 31
0.0
  0
LINE
  5
303
  8
LAYER0001
  6
CONTINUOUS
 62
     7
 10
519.1517052576114
 20
-54.21657124272099
 30
0.0
 11
517.1517068499807
 21
-54.21657124272099
 31
0.0
  0
ENDBLK
  5
15C
  8
0
  0
BLOCK
  8
0
  2
DC_GROUP_92
 70
     0
 10
0.0
 20
0.0
 30
0.0
  3
DC_GROUP_92
  1

  0
LINE
  5
304
  8
LAYER0001
  6
CONTINUOUS
 62
     7
 10
455.1516899988224
 20
123.8341175390173
 30
0.0
 11
455.1516899988224
 21
157.4593854833532
 31
0.0
  0
LINE
  5
305
  8
LAYER0001
  6
CONTINUOUS
 62
     7
 10
483.1516899988224
 20
148.3471027685095
 30
0.0
 11
483.1516899988224
 21
157.4593854833532
 31
0.0
  0
LINE
  5
306
  8
LAYER0001
  6
CONTINUOUS
 62
     7
 10
455.1516899988224
 20
156.4593854833532
 30
0.0
 11
483.1516899988224
 21
156.4593854833532
 31
0.0
  0
INSERT
  5
307
  8
LAYER0001
  6
BORDER
  2
DC_GROUP_93
 10
0.0
 20
0.0
 30
0.0
  0
INSERT
  5
308
  8
LAYER0001
  6
CONTINUOUS
  2
DC_GROUP_94
 10
0.0
 20
0.0
 30
0.0
  0
TEXT
  5
309
  8
LAYER0001
 62
     7
 10
465.9516899988224
 20
158.0593854833532
 30
0.0
 40
4.0
  1
28
 41
0.6476190476190453
  7
FDASTYLE1
 72
     5
 11
471.1326423797748
 21
158.0593854833532
 31
0.0
  0
ENDBLK
  5
15F
  8
0
  0
BLOCK
  8
0
  2
DC_GROUP_93
 70
     0
 10
0.0
 20
0.0
 30
0.0
  3
DC_GROUP_93
  1

  0
LINE
  5
30A
  8
LAYER0001
  6
CONTINUOUS
 62
     7
 10
457.151688406453
 20
155.9234859484556
 30
0.0
 11
455.1516899988224
 21
156.4593854833532
 31
0.0
  0
LINE
  5
30B
  8
LAYER0001
  6
CONTINUOUS
 62
     7
 10
455.1516899988224
 20
156.4593854833532
 30
0.0
 11
457.151688406453
 21
156.9952850182508
 31
0.0
  0
LINE
  5
30C
  8
LAYER0001
  6
CONTINUOUS
 62
     7
 10
455.1516899988224
 20
156.4593854833532
 30
0.0
 11
457.151688406453
 21
156.4593854833532
 31
0.0
  0
ENDBLK
  5
162
  8
0
  0
BLOCK
  8
0
  2
DC_GROUP_94
 70
     0
 10
0.0
 20
0.0
 30
0.0
  3
DC_GROUP_94
  1

  0
LINE
  5
30D
  8
LAYER0001
  6
CONTINUOUS
 62
     7
 10
481.1516915911917
 20
156.9952850182508
 30
0.0
 11
483.1516899988224
 21
156.4593854833532
 31
0.0
  0
LINE
  5
30E
  8
LAYER0001
  6
CONTINUOUS
 62
     7
 10
483.1516899988224
 20
156.4593854833532
 30
0.0
 11
481.1516915911917
 21
155.9234859484556
 31
0.0
  0
LINE
  5
30F
  8
LAYER0001
  6
CONTINUOUS
 62
     7
 10
483.1516899988224
 20
156.4593854833532
 30
0.0
 11
481.1516915911917
 21
156.4593854833532
 31
0.0
  0
ENDBLK
  5
165
  8
0
  0
BLOCK
  8
0
  2
DC_GROUP_95
 70
     0
 10
0.0
 20
0.0
 30
0.0
  3
DC_GROUP_95
  1

  0
LINE
  5
310
  8
LAYER0001
  6
CONTINUOUS
 62
     7
 10
517.9007251716348
 20
30.10088589960321
 30
0.0
 11
551.9534856800997
 21
-2.451537706787008
 31
0.0
  0
LINE
  5
311
  8
LAYER0001
  6
CONTINUOUS
 62
     7
 10
551.9534783289005
 20
-2.451545150191691
 30
0.0
 11
596.8673119470645
 21
-2.451545150191691
 31
0.0
  0
INSERT
  5
312
  8
LAYER0001
  6
CONTINUOUS
  2
DC_GROUP_96
 10
0.0
 20
0.0
 30
0.0
  0
TEXT
  5
313
  8
LAYER0001
 62
     7
 10
553.4387383386661
 20
-0.8515422891687425
 30
0.0
 40
4.0
  1
4-M6×13 PCD76
 41
0.6326905417814503
  7
FDASTYLE1
 72
     5
 11
586.8447989447267
 21
-0.8515422891687425
 31
0.0
  0
ENDBLK
  5
168
  8
0
  0
BLOCK
  8
0
  2
DC_GROUP_96
 70
     0
 10
0.0
 20
0.0
 30
0.0
  3
DC_GROUP_96
  1

  0
LINE
  5
314
  8
LAYER0001
  6
CONTINUOUS
 62
     7
 10
518.9761188153493
 20
28.33150452378652
 30
0.0
 11
517.9007251716348
 21
30.10088589960321
 31
0.0
  0
LINE
  5
315
  8
LAYER0001
  6
CONTINUOUS
 62
     7
 10
517.9007251716348
 20
30.10088589960321
 30
0.0
 11
519.7167355372609
 21
29.10625617253525
 31
0.0
  0
LINE
  5
316
  8
LAYER0001
  6
CONTINUOUS
 62
     7
 10
517.9007251716348
 20
30.10088589960321
 30
0.0
 11
519.346427176305
 21
28.71888034816088
 31
0.0
  0
ENDBLK
  5
16B
  8
0
  0
BLOCK
  8
0
  2
DC_GROUP_97
 70
     0
 10
0.0
 20
0.0
 30
0.0
  3
DC_GROUP_97
  1

  0
LINE
  5
317
  8
LAYER0001
  6
CONTINUOUS
 62
     7
 10
282.2583098718692
 20
82.456825821488
 30
0.0
 11
339.0140299722721
 21
82.456825821488
 31
0.0
  0
LINE
  5
318
  8
LAYER0001
  6
CONTINUOUS
 62
     7
 10
289.8314898877602
 20
51.45682963618526
 30
0.0
 11
305.6916189777761
 21
51.45682963618526
 31
0.0
  0
LINE
  5
319
  8
LAYER0001
  6
CONTINUOUS
 62
     7
 10
326.2124932088977
 20
51.45682963618526
 30
0.0
 11
339.0140299722721
 21
51.45682963618526
 31
0.0
  0
LINE
  5
31A
  8
LAYER0001
  6
CONTINUOUS
 62
     7
 10
336.728029720502
 20
51.45682963618526
 30
0.0
 11
336.728029720502
 21
82.456825821488
 31
0.0
  0
INSERT
  5
31B
  8
LAYER0001
  6
CONTINUOUS
  2
DC_GROUP_98
 10
0.0
 20
0.0
 30
0.0
  0
INSERT
  5
31C
  8
LAYER0001
  6
CONTINUOUS
  2
DC_GROUP_99
 10
0.0
 20
0.0
 30
0.0
  0
TEXT
  5
31D
  8
LAYER0001
 62
     7
 10
335.1112770051282
 20
57.35963678320314
 30
0.0
 40
4.0
  1
MAX 39
 50
89.90000000000001
 41
0.7301587301587301
  7
FDASTYLE1
 72
     5
 11
335.1418618069687
 21
74.88341961673123
 31
0.0
  0
ENDBLK
  5
16E
  8
0
  0
BLOCK
  8
0
  2
DC_GROUP_98
 70
     0
 10
0.0
 20
0.0
 30
0.0
  3
DC_GROUP_98
  1

  0
LINE
  5
31E
  8
LAYER0001
  6
CONTINUOUS
 62
     7
 10
337.2639292553997
 20
53.45682804381591
 30
0.0
 11
336.728029720502
 21
51.45682963618526
 31
0.0
  0
LINE
  5
31F
  8
LAYER0001
  6
CONTINUOUS
 62
     7
 10
336.728029720502
 20
51.45682963618526
 30
0.0
 11
336.1921301856044
 21
53.45682804381592
 31
0.0
  0
LINE
  5
320
  8
LAYER0001
  6
CONTINUOUS
 62
     7
 10
336.728029720502
 20
51.45682963618526
 30
0.0
 11
336.728029720502
 21
53.45682804381592
 31
0.0
  0
ENDBLK
  5
171
  8
0
  0
BLOCK
  8
0
  2
DC_GROUP_99
 70
     0
 10
0.0
 20
0.0
 30
0.0
  3
DC_GROUP_99
  1

  0
LINE
  5
321
  8
LAYER0001
  6
CONTINUOUS
 62
     7
 10
336.1921301856044
 20
80.45682741385734
 30
0.0
 11
336.728029720502
 21
82.456825821488
 31
0.0
  0
LINE
  5
322
  8
LAYER0001
  6
CONTINUOUS
 62
     7
 10
336.728029720502
 20
82.456825821488
 30
0.0
 11
337.2639292553997
 21
80.45682741385734
 31
0.0
  0
LINE
  5
323
  8
LAYER0001
  6
CONTINUOUS
 62
     7
 10
336.728029720502
 20
82.456825821488
 30
0.0
 11
336.728029720502
 21
80.45682741385734
 31
0.0
  0
ENDBLK
  5
174
  8
0
  0
BLOCK
  8
0
  2
DC_GROUP_100
 70
     0
 10
0.0
 20
0.0
 30
0.0
  3
DC_GROUP_100
  1

  0
LINE
  5
324
  8
0
  6
CONTINUOUS
 62
     7
 10
242.9183144495059
 20
-28.54317036381474
 30
0.0
 11
255.7656631477512
 21
-42.04934614431074
 31
0.0
  0
LINE
  5
325
  8
0
  6
CONTINUOUS
 62
     7
 10
255.7656631477512
 20
-42.04934614431074
 30
0.0
 11
271.7656631477512
 21
-42.04934614431074
 31
0.0
  0
INSERT
  5
326
  8
0
  6
CONTINUOUS
  2
DC_GROUP_101
 10
0.0
 20
0.0
 30
0.0
  0
TEXT
  5
327
  8
0
 62
     7
 10
255.7656631477512
 20
-42.04934614431074
 30
0.0
 40
4.0
  1
M8×12
 41
0.6213017751479282
  7
FDASTYLE1
 72
     5
 11
268.6887400708281
 21
-42.04934614431074
 31
0.0
  0
ENDBLK
  5
177
  8
0
  0
BLOCK
  8
0
  2
DC_GROUP_101
 70
     0
 10
0.0
 20
0.0
 30
0.0
  3
DC_GROUP_101
  1

  0
LINE
  5
328
  8
0
  6
CONTINUOUS
 62
     7
 10
243.9084513163571
 20
-30.36163425593105
 30
0.0
 11
242.9183144495059
 21
-28.54317036381474
 31
0.0
  0
LINE
  5
329
  8
0
  6
CONTINUOUS
 62
     7
 10
242.9183144495059
 20
-28.54317036381474
 30
0.0
 11
244.6850316639148
 21
-29.6229352578263
 31
0.0
  0
LINE
  5
32A
  8
0
  6
CONTINUOUS
 62
     7
 10
242.9183144495059
 20
-28.54317036381474
 30
0.0
 11
244.296741490136
 21
-29.99228475687868
 31
0.0
  0
ENDBLK
  5
17A
  8
0
  0
BLOCK
  8
0
  2
DC_GROUP_102
 70
     0
 10
0.0
 20
0.0
 30
0.0
  3
DC_GROUP_102
  1

  0
LINE
  5
32B
  8
0
  6
CONTINUOUS
 62
     9
 10
242.9183144495059
 20
-32.56096623166094
 30
0.0
 11
242.9183144495059
 21
-40.37816744449564
 31
0.0
  0
LINE
  5
32C
  8
0
  6
CONTINUOUS
 62
     9
 10
205.9183144495059
 20
-19.54317227116337
 30
0.0
 11
205.9183144495059
 21
-40.37816744449564
 31
0.0
  0
LINE
  5
32D
  8
0
  6
CONTINUOUS
 62
     9
 10
205.9183144495059
 20
-39.37816744449564
 30
0.0
 11
242.9183144495059
 21
-39.37816744449564
 31
0.0
  0
INSERT
  5
32E
  8
0
  6
CENTER
  2
DC_GROUP_103
 10
0.0
 20
0.0
 30
0.0
  0
INSERT
  5
32F
  8
0
  6
CONTINUOUS
  2
DC_GROUP_104
 10
0.0
 20
0.0
 30
0.0
  0
TEXT
  5
330
  8
0
 62
     7
 10
221.218314449506
 20
-38.37816744449564
 30
0.0
 40
4.0
  1
37
 41
0.6476190476190453
  7
FDASTYLE1
 72
     5
 11
226.3992668304583
 21
-38.37816744449564
 31
0.0
  0
ENDBLK
  5
17D
  8
0
  0
BLOCK
  8
0
  2
DC_GROUP_103
 70
     0
 10
0.0
 20
0.0
 30
0.0
  3
DC_GROUP_103
  1

  0
LINE
  5
331
  8
0
  6
CONTINUOUS
 62
     9
 10
207.9183128571365
 20
-39.91406697939325
 30
0.0
 11
205.9183144495059
 21
-39.37816744449564
 31
0.0
  0
LINE
  5
332
  8
0
  6
CONTINUOUS
 62
     9
 10
205.9183144495059
 20
-39.37816744449564
 30
0.0
 11
207.9183128571365
 21
-38.84226790959803
 31
0.0
  0
LINE
  5
333
  8
0
  6
CONTINUOUS
 62
     9
 10
205.9183144495059
 20
-39.37816744449564
 30
0.0
 11
207.9183128571365
 21
-39.37816744449564
 31
0.0
  0
ENDBLK
  5
180
  8
0
  0
BLOCK
  8
0
  2
DC_GROUP_104
 70
     0
 10
0.0
 20
0.0
 30
0.0
  3
DC_GROUP_104
  1

  0
LINE
  5
334
  8
0
  6
CONTINUOUS
 62
     9
 10
240.9183160418752
 20
-38.84226790959803
 30
0.0
 11
242.9183144495059
 21
-39.37816744449564
 31
0.0
  0
LINE
  5
335
  8
0
  6
CONTINUOUS
 62
     9
 10
242.9183144495059
 20
-39.37816744449564
 30
0.0
 11
240.9183160418752
 21
-39.91406697939325
 31
0.0
  0
LINE
  5
336
  8
0
  6
CONTINUOUS
 62
     9
 10
242.9183144495059
 20
-39.37816744449564
 30
0.0
 11
240.9183160418752
 21
-39.37816744449564
 31
0.0
  0
ENDBLK
  5
183
  8
0
  0
BLOCK
  8
0
  2
DC_GROUP_105
 70
     0
 10
0.0
 20
0.0
 30
0.0
  3
DC_GROUP_105
  1

  0
LINE
  5
337
  8
0
  6
CONTINUOUS
 62
     5
 10
540.1321004102526
 20
65.0359292949567
 30
0.0
 11
540.1320995792827
 21
60.5359235729108
 31
0.0
  0
LINE
  5
338
  8
0
  6
CONTINUOUS
 62
     5
 10
540.882087268834
 20
64.28596243271457
 30
0.0
 11
540.1320918794926
 21
65.03595790938427
 31
0.0
  0
LINE
  5
339
  8
0
  6
CONTINUOUS
 62
     5
 10
539.3821269459559
 20
64.28589023489319
 30
0.0
 11
540.1321330857782
 21
65.03589654026911
 31
0.0
  0
LINE
  5
33A
  8
0
  6
CONTINUOUS
 62
     5
 10
540.1321531385772
 20
60.53586055337595
 30
0.0
 11
540.8821592783995
 21
61.28586685875187
 31
0.0
  0
LINE
  5
33B
  8
0
  6
CONTINUOUS
 62
     5
 10
540.1321044301483
 20
60.53595496561842
 30
0.0
 11
539.382098251214
 21
61.28596123188224
 31
0.0
  0
LINE
  5
33C
  8
0
  6
CONTINUOUS
 62
     5
 10
532.6320784391517
 20
65.78594283925636
 30
0.0
 11
547.6320784391517
 21
65.78594006936027
 31
0.0
  0
LINE
  5
33D
  8
0
  6
CONTINUOUS
 62
     5
 10
542.0078619091469
 20
71.31299662340062
 30
0.0
 11
541.0334359350275
 21
71.15866285815599
 31
0.0
  0
LINE
  5
33E
  8
0
  6
CONTINUOUS
 62
     5
 10
542.0078878365461
 20
71.31300289184921
 30
0.0
 11
541.8535562818897
 21
72.28741373623647
 31
0.0
  0
LINE
  5
33F
  8
0
  6
CONTINUOUS
 62
     5
 10
547.6320860685464
 20
65.78594126145177
 30
0.0
 11
547.6320874534947
 21
73.28594221512608
 31
0.0
  0
LINE
  5
340
  8
0
  6
CONTINUOUS
 62
     5
 10
532.632078870424
 20
73.2859354482806
 30
0.0
 11
547.632078870424
 21
73.2859326783845
 31
0.0
  0
LINE
  5
341
  8
0
  6
CONTINUOUS
 62
     5
 10
532.6320755781279
 20
65.7859383093039
 30
0.0
 11
532.6320776555498
 21
77.03593735562959
 31
0.0
  0
LINE
  5
342
  8
0
  6
CONTINUOUS
 62
     5
 10
532.6320790860611
 20
77.03593687879216
 30
0.0
 11
534.8820790860611
 21
77.03593646330775
 31
0.0
  0
LINE
  5
343
  8
0
  6
CONTINUOUS
 62
     5
 10
534.8820869845491
 20
75.9109278802374
 30
0.0
 11
534.8820871922899
 21
77.03592025084286
 31
0.0
  0
LINE
  5
344
  8
0
  6
CONTINUOUS
 62
     5
 10
534.8820788783189
 20
75.91093598647059
 30
0.0
 11
536.3820788783189
 21
75.91093570948098
 31
0.0
  0
LINE
  5
345
  8
0
  6
CONTINUOUS
 62
     5
 10
536.3820700875081
 20
74.78593713999403
 30
0.0
 11
536.3820702952503
 21
75.91093713999403
 31
0.0
  0
LINE
  5
346
  8
0
  6
CONTINUOUS
 62
     5
 10
536.3820939293639
 20
74.78592569589783
 30
0.0
 11
537.8820939293639
 21
74.78592541890822
 31
0.0
  0
LINE
  5
347
  8
0
  6
CONTINUOUS
 62
     5
 10
537.8820645653098
 20
73.28593710142397
 30
0.0
 11
537.8820648422994
 21
74.78593686300539
 31
0.0
  0
LINE
  5
348
  8
0
  6
CONTINUOUS
 62
     5
 10
539.3821162523507
 20
75.63617978511367
 30
0.0
 11
540.1321223921729
 21
76.38618609048959
 31
0.0
  0
LINE
  5
349
  8
0
  6
CONTINUOUS
 62
     5
 10
537.1724572982184
 20
76.38619582125087
 30
0.0
 11
540.1320825591228
 21
76.38619527472723
 31
0.0
  0
LINE
  5
34A
  8
0
  6
CONTINUOUS
 62
     5
 10
540.1320935518203
 20
76.38622284584523
 30
0.0
 11
539.3820981624789
 21
77.13621832251494
 31
0.0
  0
ARC
  5
34B
  8
0
  6
CONTINUOUS
 62
     5
 10
540.1517052576114
 20
69.45682963618526
 30
0.0
 40
2.625001907348633
 50
45.00008720528022
 51
339.9999394584169
  0
TEXT
  5
34C
  8
0
 62
     5
 10
538.2521984727836
 20
61.83193024195997
 30
0.0
 40
2.5
  1
F
 50
89.99998941977626
 41
0.54421794982186
  7
FDASTYLE1
 72
     5
 11
538.2521987240215
 21
63.19247511651459
 31
0.0
  0
TEXT
  5
34D
  8
0
 62
     5
 10
545.7713065385286
 20
69.62590897509624
 30
0.0
 40
2.5
  1
N min
 50
89.99998941977626
 41
0.6995393319099815
  7
FDASTYLE1
 72
     5
 11
545.771308153238
 21
78.37015062397086
 31
0.0
  0
TEXT
  5
34E
  8
0
 62
     5
 10
543.9924626636783
 20
82.56340863302529
 30
0.0
 40
1.25
  1
-1
 50
89.99998941977626
 41
0.6149070012128496
  7
FDASTYLE1
 72
     5
 11
543.9924629475497
 21
84.10067613605739
 31
0.0
  0
TEXT
  5
34F
  8
0
 62
     5
 10
539.9546478165457
 20
78.09019828390991
 30
0.0
 40
2.5
  1
ΣS
 50
89.99998941977626
 41
0.7846700504791531
  7
FDASTYLE1
 72
     5
 11
539.9546486134791
 21
82.40588356154518
 31
0.0
  0
ENDBLK
  5
186
  8
0
  0
BLOCK
  8
0
  2
DC_GROUP_106
 70
     0
 10
0.0
 20
0.0
 30
0.0
  3
DC_GROUP_106
  1

  0
LINE
  5
350
  8
0
  6
CONTINUOUS
 62
     9
 10
464.1516823694278
 20
56.72227153071651
 30
0.0
 11
464.1516823694278
 21
60.01278192208697
 31
0.0
  0
LINE
  5
351
  8
0
  6
CONTINUOUS
 62
     9
 10
502.1516899988224
 20
56.97152003535518
 30
0.0
 11
502.1516899988224
 21
60.01278192208697
 31
0.0
  0
LINE
  5
352
  8
0
  6
CONTINUOUS
 62
     9
 10
464.1516823694278
 20
59.01278192208697
 30
0.0
 11
502.1516899988224
 21
59.01278192208697
 31
0.0
  0
INSERT
  5
353
  8
0
  6
CONTINUOUS
  2
DC_GROUP_107
 10
0.0
 20
0.0
 30
0.0
  0
INSERT
  5
354
  8
0
  6
CONTINUOUS
  2
DC_GROUP_108
 10
0.0
 20
0.0
 30
0.0
  0
TEXT
  5
355
  8
0
 62
     7
 10
475.1516861841251
 20
60.01278192208697
 30
0.0
 40
4.0
  1
PCD38
 41
0.7314285714285717
  7
FDASTYLE1
 72
     5
 11
489.7802576126965
 21
60.01278192208697
 31
0.0
  0
ENDBLK
  5
189
  8
0
  0
BLOCK
  8
0
  2
DC_GROUP_107
 70
     0
 10
0.0
 20
0.0
 30
0.0
  3
DC_GROUP_107
  1

  0
LINE
  5
356
  8
0
  6
CONTINUOUS
 62
     9
 10
466.1516807770585
 20
58.47688238718936
 30
0.0
 11
464.1516823694278
 21
59.01278192208697
 31
0.0
  0
LINE
  5
357
  8
0
  6
CONTINUOUS
 62
     9
 10
464.1516823694278
 20
59.01278192208697
 30
0.0
 11
466.1516807770585
 21
59.54868145698458
 31
0.0
  0
LINE
  5
358
  8
0
  6
CONTINUOUS
 62
     9
 10
464.1516823694278
 20
59.01278192208697
 30
0.0
 11
466.1516807770585
 21
59.01278192208697
 31
0.0
  0
ENDBLK
  5
18C
  8
0
  0
BLOCK
  8
0
  2
DC_GROUP_108
 70
     0
 10
0.0
 20
0.0
 30
0.0
  3
DC_GROUP_108
  1

  0
LINE
  5
359
  8
0
  6
CONTINUOUS
 62
     9
 10
500.1516915911917
 20
59.54868145698458
 30
0.0
 11
502.1516899988224
 21
59.01278192208697
 31
0.0
  0
LINE
  5
35A
  8
0
  6
CONTINUOUS
 62
     9
 10
502.1516899988224
 20
59.01278192208697
 30
0.0
 11
500.1516915911917
 21
58.47688238718936
 31
0.0
  0
LINE
  5
35B
  8
0
  6
CONTINUOUS
 62
     9
 10
502.1516899988224
 20
59.01278192208697
 30
0.0
 11
500.1516915911917
 21
59.01278192208697
 31
0.0
  0
ENDBLK
  5
18F
  8
0
  0
BLOCK
  8
0
  2
DC_GROUP_109
 70
     0
 10
0.0
 20
0.0
 30
0.0
  3
DC_GROUP_109
  1

  0
LINE
  5
35C
  8
0
  6
CONTINUOUS
 62
     7
 10
463.3125475317459
 20
52.87751702104881
 30
0.0
 11
428.2305536721879
 21
127.4156960258256
 31
0.0
  0
LINE
  5
35D
  8
0
  6
CONTINUOUS
 62
     7
 10
428.2305536721879
 20
127.4156960258256
 30
0.0
 11
409.0305536721879
 21
127.4156960258256
 31
0.0
  0
INSERT
  5
35E
  8
0
  6
CONTINUOUS
  2
DC_GROUP_110
 10
0.0
 20
0.0
 30
0.0
  0
TEXT
  5
35F
  8
0
 62
     7
 10
409.0305536721879
 20
127.4156960258256
 30
0.0
 40
4.0
  1
2-φ3.3
 41
0.6243496357960464
  7
FDASTYLE1
 72
     5
 11
424.5144246399299
 21
127.4156960258256
 31
0.0
  0
ENDBLK
  5
192
  8
0
  0
BLOCK
  8
0
  2
DC_GROUP_110
 70
     0
 10
0.0
 20
0.0
 30
0.0
  3
DC_GROUP_110
  1

  0
LINE
  5
360
  8
0
  6
CONTINUOUS
 62
     7
 10
462.9457295893692
 20
54.91531645651325
 30
0.0
 11
463.3125475317459
 21
52.87751702104881
 31
0.0
  0
LINE
  5
361
  8
0
  6
CONTINUOUS
 62
     7
 10
463.3125475317459
 20
52.87751702104881
 30
0.0
 11
461.9759718310036
 21
54.45889216256772
 31
0.0
  0
LINE
  5
362
  8
0
  6
CONTINUOUS
 62
     7
 10
463.3125475317459
 20
52.87751702104881
 30
0.0
 11
462.4608507101864
 21
54.68710430954049
 31
0.0
  0
ENDBLK
  5
195
  8
0
  0
ENDSEC
  0
SECTION
  2
ENTITIES
  0
LINE
  5
363
  8
LAYER0002
  6
CONTINUOUS
 62
     3
 10
79.57239374547669
 20
-190.0
 30
0.0
 11
79.57239374547669
 21
190.0
 31
0.0
  0
LINE
  5
364
  8
LAYER0002
  6
CONTINUOUS
 62
     3
 10
633.5723937454767
 20
-190.0
 30
0.0
 11
633.5723937454767
 21
190.0
 31
0.0
  0
LINE
  5
365
  8
LAYER0002
  6
CONTINUOUS
 62
     3
 10
79.57239374547669
 20
-190.0
 30
0.0
 11
633.5723937454767
 21
-190.0
 31
0.0
  0
LINE
  5
366
  8
LAYER0002
  6
CONTINUOUS
 62
     3
 10
79.57239374547669
 20
189.9999999999999
 30
0.0
 11
633.5723937454767
 21
189.9999999999999
 31
0.0
  0
LINE
  5
367
  8
LAYER0002
  6
CONTINUOUS
 62
     3
 10
453.5723937454767
 20
-190.0
 30
0.0
 11
453.5723937454767
 21
-130.0
 31
0.0
  0
LINE
  5
368
  8
LAYER0002
  6
CONTINUOUS
 62
     3
 10
453.5723937454767
 20
-176.0
 30
0.0
 11
633.5723937454767
 21
-176.0
 31
0.0
  0
LINE
  5
369
  8
LAYER0002
  6
CONTINUOUS
 62
     3
 10
502.5723937454767
 20
-162.0
 30
0.0
 11
633.5723937454767
 21
-162.0
 31
0.0
  0
LINE
  5
36A
  8
LAYER0002
  6
CONTINUOUS
 62
     3
 10
502.5723937454767
 20
-148.0
 30
0.0
 11
633.5723937454767
 21
-148.0
 31
0.0
  0
LINE
  5
36B
  8
LAYER0002
  6
CONTINUOUS
 62
     3
 10
502.5723937454767
 20
-138.0
 30
0.0
 11
633.5723937454767
 21
-138.0
 31
0.0
  0
LINE
  5
36C
  8
LAYER0002
  6
CONTINUOUS
 62
     3
 10
502.5723937454767
 20
-176.0
 30
0.0
 11
502.5723937454767
 21
-130.0
 31
0.0
  0
LINE
  5
36D
  8
LAYER0002
  6
CONTINUOUS
 62
     3
 10
611.5723937454767
 20
-176.0
 30
0.0
 11
611.5723937454767
 21
-130.0
 31
0.0
  0
LINE
  5
36E
  8
LAYER0002
  6
CONTINUOUS
 62
     3
 10
527.5723937454767
 20
-190.0
 30
0.0
 11
527.5723937454767
 21
-176.0
 31
0.0
  0
LINE
  5
36F
  8
LAYER0002
  6
CONTINUOUS
 62
     3
 10
618.5723937454767
 20
-188.0
 30
0.0
 11
628.5723937454767
 21
-188.0
 31
0.0
  0
LINE
  5
370
  8
LAYER0002
  6
CONTINUOUS
 62
     3
 10
623.5723937454767
 20
-178.0
 30
0.0
 11
618.5723937454767
 21
-188.0
 31
0.0
  0
LINE
  5
371
  8
LAYER0002
  6
CONTINUOUS
 62
     3
 10
623.5723937454767
 20
-178.0
 30
0.0
 11
628.5723937454767
 21
-188.0
 31
0.0
  0
LINE
  5
372
  8
LAYER0002
  6
CONTINUOUS
 62
     3
 10
453.5723937454767
 20
-130.0
 30
0.0
 11
633.5723937454767
 21
-130.0
 31
0.0
  0
LINE
  5
373
  8
LAYER0002
  6
CONTINUOUS
 62
     3
 10
582.5723937454767
 20
-176.0
 30
0.0
 11
582.5723937454767
 21
-148.0
 31
0.0
  0
LINE
  5
374
  8
LAYER0002
  6
CONTINUOUS
 62
     4
 10
461.5723937454767
 20
-172.0
 30
0.0
 11
461.5723937454767
 21
-130.0
 31
0.0
  0
LINE
  5
375
  8
LAYER0002
  6
CONTINUOUS
 62
     4
 10
465.5723937454767
 20
-172.0
 30
0.0
 11
465.5723937454767
 21
-130.0
 31
0.0
  0
LINE
  5
376
  8
LAYER0002
  6
CONTINUOUS
 62
     4
 10
478.0723937454767
 20
-176.0
 30
0.0
 11
478.0723937454767
 21
-130.0
 31
0.0
  0
LINE
  5
377
  8
LAYER0002
  6
CONTINUOUS
 62
     4
 10
453.5723937454767
 20
-137.0
 30
0.0
 11
502.5723937454767
 21
-137.0
 31
0.0
  0
LINE
  5
378
  8
LAYER0002
  6
CONTINUOUS
 62
     4
 10
453.5723937454767
 20
-144.0
 30
0.0
 11
502.5723937454767
 21
-144.0
 31
0.0
  0
LINE
  5
379
  8
LAYER0002
  6
CONTINUOUS
 62
     4
 10
453.5723937454767
 20
-165.0
 30
0.0
 11
502.5723937454767
 21
-165.0
 31
0.0
  0
LINE
  5
37A
  8
LAYER0002
  6
CONTINUOUS
 62
     4
 10
453.5723937454767
 20
-172.0
 30
0.0
 11
502.5723937454767
 21
-172.0
 31
0.0
  0
LINE
  5
37B
  8
LAYER0002
  6
CONTINUOUS
 62
     4
 10
611.5723937454767
 20
-166.0
 30
0.0
 11
633.5723937454767
 21
-166.0
 31
0.0
  0
LINE
  5
37C
  8
LAYER0002
  6
CONTINUOUS
 62
     4
 10
509.5723937454767
 20
-139.5
 30
0.0
 11
509.5723937454767
 21
-130.0
 31
0.0
  0
LINE
  5
37D
  8
LAYER0002
  6
CONTINUOUS
 62
     4
 10
558.5723937454767
 20
-148.0
 30
0.0
 11
558.5723937454767
 21
-146.5
 31
0.0
  0
LINE
  5
37E
  8
LAYER0002
  6
CONTINUOUS
 62
     4
 10
582.5723937454767
 20
-148.0
 30
0.0
 11
582.5723937454767
 21
-146.5
 31
0.0
  0
LINE
  5
37F
  8
LAYER0002
  6
CONTINUOUS
 62
     4
 10
599.5723937454767
 20
-148.0
 30
0.0
 11
599.5723937454767
 21
-146.5
 31
0.0
  0
LINE
  5
380
  8
LAYER0002
  6
CONTINUOUS
 62
     4
 10
558.5723937454767
 20
-139.5
 30
0.0
 11
558.5723937454767
 21
-130.0
 31
0.0
  0
LINE
  5
381
  8
LAYER0002
  6
CONTINUOUS
 62
     4
 10
582.5723937454767
 20
-139.5
 30
0.0
 11
582.5723937454767
 21
-130.0
 31
0.0
  0
LINE
  5
382
  8
LAYER0002
  6
CONTINUOUS
 62
     4
 10
599.5723937454767
 20
-139.5
 30
0.0
 11
599.5723937454767
 21
-130.0
 31
0.0
  0
LINE
  5
383
  8
LAYER0002
  6
CONTINUOUS
 62
     4
 10
453.5723937454767
 20
-151.0
 30
0.0
 11
502.5723937454767
 21
-151.0
 31
0.0
  0
LINE
  5
384
  8
LAYER0002
  6
CONTINUOUS
 62
     4
 10
453.5723937454767
 20
-158.0
 30
0.0
 11
502.5723937454767
 21
-158.0
 31
0.0
  0
LINE
  5
385
  8
LAYER0002
  6
CONTINUOUS
 62
     4
 10
457.5723937454767
 20
-130.5
 30
0.0
 11
454.5723937454767
 21
-136.5
 31
0.0
  0
LINE
  5
386
  8
LAYER0002
  6
CONTINUOUS
 62
     4
 10
457.5723937454767
 20
-130.5
 30
0.0
 11
460.5723937454767
 21
-136.5
 31
0.0
  0
LINE
  5
387
  8
LAYER0002
  6
CONTINUOUS
 62
     4
 10
454.5723937454767
 20
-136.5
 30
0.0
 11
460.5723937454767
 21
-136.5
 31
0.0
  0
LINE
  5
388
  8
LAYER0002
  6
CONTINUOUS
 62
     4
 10
457.5723937454767
 20
-158.5
 30
0.0
 11
454.5723937454767
 21
-164.5
 31
0.0
  0
LINE
  5
389
  8
LAYER0002
  6
CONTINUOUS
 62
     4
 10
457.5723937454767
 20
-158.5
 30
0.0
 11
460.5723937454767
 21
-164.5
 31
0.0
  0
LINE
  5
38A
  8
LAYER0002
  6
CONTINUOUS
 62
     4
 10
454.5723937454767
 20
-164.5
 30
0.0
 11
460.5723937454767
 21
-164.5
 31
0.0
  0
LINE
  5
38B
  8
LAYER0002
  6
CONTINUOUS
 62
     4
 10
457.5723937454767
 20
-151.5
 30
0.0
 11
454.5723937454767
 21
-157.5
 31
0.0
  0
LINE
  5
38C
  8
LAYER0002
  6
CONTINUOUS
 62
     4
 10
457.5723937454767
 20
-151.5
 30
0.0
 11
460.5723937454767
 21
-157.5
 31
0.0
  0
LINE
  5
38D
  8
LAYER0002
  6
CONTINUOUS
 62
     4
 10
454.5723937454767
 20
-157.5
 30
0.0
 11
460.5723937454767
 21
-157.5
 31
0.0
  0
LINE
  5
38E
  8
LAYER0002
  6
CONTINUOUS
 62
     4
 10
457.5723937454767
 20
-144.5
 30
0.0
 11
454.5723937454767
 21
-150.5
 31
0.0
  0
LINE
  5
38F
  8
LAYER0002
  6
CONTINUOUS
 62
     4
 10
457.5723937454767
 20
-144.5
 30
0.0
 11
460.5723937454767
 21
-150.5
 31
0.0
  0
LINE
  5
390
  8
LAYER0002
  6
CONTINUOUS
 62
     4
 10
454.5723937454767
 20
-150.5
 30
0.0
 11
460.5723937454767
 21
-150.5
 31
0.0
  0
LINE
  5
391
  8
LAYER0002
  6
CONTINUOUS
 62
     4
 10
457.5723937454767
 20
-137.5
 30
0.0
 11
454.5723937454767
 21
-143.5
 31
0.0
  0
LINE
  5
392
  8
LAYER0002
  6
CONTINUOUS
 62
     4
 10
457.5723937454767
 20
-137.5
 30
0.0
 11
460.5723937454767
 21
-143.5
 31
0.0
  0
LINE
  5
393
  8
LAYER0002
  6
CONTINUOUS
 62
     4
 10
454.5723937454767
 20
-143.5
 30
0.0
 11
460.5723937454767
 21
-143.5
 31
0.0
  0
LINE
  5
394
  8
LAYER0002
  6
CONTINUOUS
 62
     4
 10
529.2390604121433
 20
-176.0
 30
0.0
 11
529.2390604121433
 21
-162.0
 31
0.0
  0
LINE
  5
395
  8
LAYER0002
  6
CONTINUOUS
 62
     4
 10
555.90572707881
 20
-176.0
 30
0.0
 11
555.90572707881
 21
-161.9509415757253
 31
0.0
  0
LINE
  5
396
  8
LAYER0002
  6
CONTINUOUS
 62
     4
 10
569.2390604121433
 20
-167.5
 30
0.0
 11
569.2390604121433
 21
-161.9509415757253
 31
0.0
  0
LINE
  5
397
  8
LAYER0002
  6
CONTINUOUS
 62
     4
 10
582.5723937454767
 20
-155.0
 30
0.0
 11
611.5723937454767
 21
-155.0
 31
0.0
  0
LINE
  5
398
  8
LAYER0002
  6
CONTINUOUS
 62
     4
 10
502.5723937454767
 20
-166.0
 30
0.0
 11
582.5723937454767
 21
-166.0
 31
0.0
  0
TEXT
  5
39A
  8
LAYER0002
 62
     7
 10
503.5661518929514
 20
-130.821188728956
 30
0.0
 40
2.44248928
  1
符号
 41
0.8
  7
FDASTYLE0
  0
TEXT
  5
39B
  8
LAYER0002
 62
     7
 10
518.9865248673825
 20
-135.8245525019963
 30
0.0
 40
4.0
  1
品       名
 41
0.6192847442281572
  7
FDASTYLE1
 72
     5
 11
542.2716312503612
 21
-135.8245525019963
 31
0.0
  0
TEXT
  5
39C
  8
LAYER0002
 62
     7
 10
563.8055501867863
 20
-135.8245525019963
 30
0.0
 40
4.0
  1
材  料
 41
0.5950413223140509
  7
FDASTYLE1
 72
     5
 11
574.2782774595136
 21
-135.8245525019963
 31
0.0
  0
TEXT
  5
39D
  8
LAYER0002
 62
     7
 10
586.0884554303317
 20
-135.8245525019963
 30
0.0
 40
4.0
  1
個 数
 41
0.5813148788927315
  7
FDASTYLE1
 72
     5
 11
593.9943377832728
 21
-135.8245525019963
 31
0.0
  0
TEXT
  5
39E
  8
LAYER0002
 62
     7
 10
602.2942046983646
 20
-133.5649080050572
 30
0.0
 40
2.5
  1
単重量
 41
0.6666666666666666
  7
FDASTYLE1
 72
     5
 11
608.2942046983646
 21
-133.5649080050572
 31
0.0
  0
TEXT
  5
39F
  8
LAYER0002
 62
     7
 10
601.2813453691126
 20
-137.3631304897525
 30
0.0
 40
2.5
  1
(kg)
 41
0.5333333333333371
  7
FDASTYLE1
 72
     5
 11
606.614678702446
 21
-137.3631304897525
 31
0.0
  0
TEXT
  5
3A0
  8
LAYER0002
 62
     7
 10
615.7145908109544
 20
-135.8245525019963
 30
0.0
 40
4.0
  1
記  事
 41
0.5950413223140509
  7
FDASTYLE1
 72
     5
 11
626.1873180836817
 21
-135.8245525019963
 31
0.0
  0
TEXT
  5
3A1
  8
LAYER0002
 62
     7
 10
615.4174732006412
 20
-165.4873041997729
 30
0.0
 40
3.0
  1
コード番号
 41
0.6666666666666666
  7
FDASTYLE1
 72
     5
 11
627.4174732006412
 21
-165.4873041997729
 31
0.0
  0
TEXT
  5
3A2
  8
LAYER0002
 62
     7
 10
458.4843857613084
 20
-175.1879010540338
 30
0.0
 40
2.5
  1
訂 正 来 歴
 41
0.5890861275476669
  7
FDASTYLE1
 72
     5
 11
469.9715652484879
 21
-175.1879010540338
 31
0.0
  0
TEXT
  5
3A3
  8
LAYER0002
 62
     7
 10
482.4627285922417
 20
-175.2166697391651
 30
0.0
 40
2.5
  1
工 事 番 号
 41
0.5890861275476669
  7
FDASTYLE1
 72
     5
 11
493.9499080794212
 21
-175.2166697391651
 31
0.0
  0
TEXT
  5
3A4
  8
LAYER0002
 62
     7
 10
455.5063940920796
 20
-165.9634530565915
 30
0.0
 40
1.90819475
  1
記号
 41
0.8
  7
FDASTYLE0
  0
TEXT
  5
3A5
  8
LAYER0002
 62
     7
 10
461.4457811522385
 20
-165.9634530565915
 30
0.0
 40
1.90819475
  1
理由
 41
0.8
  7
FDASTYLE0
  0
TEXT
  5
3A6
  8
LAYER0002
 62
     7
 10
468.191760536461
 20
-169.8786046700178
 30
0.0
 40
3.0
  1
日 付
 41
0.5813148788927344
  7
FDASTYLE1
 72
     5
 11
474.1211723011669
 21
-169.8786046700178
 31
0.0
  0
TEXT
  5
3A7
  8
LAYER0002
 62
     7
 10
510.0205627274419
 20
-165.7187911464244
 30
0.0
 40
3.0
  1
承   認
 41
0.6035665294924586
  7
FDASTYLE1
 72
     5
 11
519.7983405052197
 21
-165.7187911464244
 31
0.0
  0
TEXT
  5
3A8
  8
LAYER0002
 62
     7
 10
536.4356217787107
 20
-165.4873041997729
 30
0.0
 40
3.0
  1
検   図
 41
0.6035665294924586
  7
FDASTYLE1
 72
     5
 11
546.2133995564885
 21
-165.4873041997729
 31
0.0
  0
TEXT
  5
3A9
  8
LAYER0002
 62
     7
 10
558.0495858438518
 20
-165.4873041997729
 30
0.0
 40
3.0
  1
担  当
 41
0.5950413223140511
  7
FDASTYLE1
 72
     5
 11
565.9041312983973
 21
-165.4873041997729
 31
0.0
  0
TEXT
  5
3AA
  8
LAYER0002
 62
     7
 10
571.2494512295879
 20
-165.4873041997729
 30
0.0
 40
3.0
  1
製  図
 41
0.5950413223140511
  7
FDASTYLE1
 72
     5
 11
579.1039966841333
 21
-165.4873041997729
 31
0.0
  0
TEXT
  5
3AB
  8
LAYER0002
 62
     7
 10
583.5186309758966
 20
-153.2184960272417
 30
0.0
 40
3.0
  1
作図
 41
0.6666666666666762
  7
FDASTYLE1
 72
     5
 11
588.3186309758967
 21
-153.2184960272417
 31
0.0
  0
TEXT
  5
3AC
  8
LAYER0002
 62
     7
 10
584.6760657091543
 20
-160.2371566401815
 30
0.0
 40
4.0
  1
第 三 角 法
 41
0.5890861275476675
  7
FDASTYLE1
 72
     5
 11
603.0555528886415
 21
-160.2371566401815
 31
0.0
  0
TEXT
  5
3AD
  8
LAYER0002
 62
     7
 10
583.9816048691997
 20
-166.413251986379
 30
0.0
 40
3.0
  1
尺度
 41
0.6666666666666762
  7
FDASTYLE1
 72
     5
 11
588.7816048691998
 21
-166.413251986379
 31
0.0
  0
TEXT
  5
3AF
  8
LAYER0002
 62
     3
 10
461.9515481155107
 20
-185.9272077185017
 30
0.0
 40
7.0
  1
株式会社 野村製作所
 41
0.5976394989045255
  7
FDASTYLE2
 72
     5
 11
517.8344271000773
 21
-185.9272077185017
 31
0.0
  0
TEXT
  5
3B1
  8
LAYER0002
 62
     3
 10
533.6311292844923
 20
-187.1216685584563
 30
0.0
 40
8.0
  1
２－
 41
0.7699296059137625
  7
FDASTYLE3
 72
     5
 11
547.5206593751766
 21
-187.1216685584563
 31
0.0
  0
TEXT
  5
3B2
  8
LAYER0002
 62
     3
 10
550.5430869088992
 20
-187.1216685584563
 30
0.0
 40
8.0
  1
9306088
 41
1.373624177206848
  7
FDASTYLE3
 72
     5
 11
605.7188228589439
 21
-187.1216685584563
 31
0.0
  0
TEXT
  5
3B3
  8
LAYER0002
 62
     4
 10
590.1032971299989
 20
-145.0216474852281
 30
0.0
 40
3.0
  1
1式
 41
0.520661157024785
  7
FDASTYLE1
 72
     5
 11
593.5396607663624
 21
-145.0216474852281
 31
0.0
  0
TEXT
  5
3B4
  8
LAYER0002
 62
     4
 10
595.8735726361166
 20
-172.297487439201
 30
0.0
 40
3.0
  1
1/1
 41
0.5222222222222273
  7
FDASTYLE1
 72
     5
 11
600.5735726361166
 21
-172.297487439201
 31
0.0
  0
TEXT
  5
3B5
  8
LAYER0002
 62
     4
 10
589.9750090870618
 20
-153.3662384140306
 30
0.0
 40
3.0
  1
1993.7.30
 41
0.5592592592592601
  7
FDASTYLE1
 72
     5
 11
605.0750090870619
 21
-153.3662384140306
 31
0.0
  0
TEXT
  5
3B6
  8
LAYER0002
 62
     6
 10
521.6085333514537
 20
-145.7243747487088
 30
0.0
 40
5.0
  1
外　形　図
 41
0.5833333333333334
  7
FDASTYLE1
 72
     5
 11
539.1085333514537
 21
-145.7243747487088
 31
0.0
  0
TEXT
  5
3B7
  8
LAYER0002
 62
     6
 10
508.9768756015056
 20
-154.3920863201719
 30
0.0
 40
5.0
  1
日鋼プレシジォン
 41
0.5833333333333322
  7
FDASTYLE1
 72
     5
 11
536.9768756015055
 21
-154.3920863201719
 31
0.0
  0
TEXT
  5
3B8
  8
LAYER0002
 62
     6
 10
517.4424132567851
 20
-160.8053724226564
 30
0.0
 40
5.0
  1
  GO2-6型 ﾁｬｯｸ
 41
0.553604224058769
  7
FDASTYLE1
 72
     5
 11
553.9802920446639
 21
-160.8053724226564
 31
0.0
  0
CIRCLE
  5
3B9
  8
0
  6
CONTINUOUS
 62
     3
 10
483.1516899988224
 20
51.45682963618526
 30
0.0
 40
16.0
  0
LINE
  5
3BA
  8
0
  6
CONTINUOUS
 62
     3
 10
201.7183175012638
 20
131.456825821488
 30
0.0
 11
201.7183175012638
 21
4.571827738373372
 31
0.0
  0
LINE
  5
3BB
  8
0
  6
CONTINUOUS
 62
     3
 10
280.7183098718692
 20
133.456825821488
 30
0.0
 11
280.7183098718692
 21
129.456825821488
 31
0.0
  0
LINE
  5
3BC
  8
0
  6
CONTINUOUS
 62
     3
 10
201.7183175012638
 20
131.456825821488
 30
0.0
 11
250.7183098718692
 21
131.456825821488
 31
0.0
  0
LINE
  5
3BD
  8
0
  6
CONTINUOUS
 62
     3
 10
201.7183175012638
 20
-28.54317036381474
 30
0.0
 11
279.2183098718692
 21
-28.54317036381474
 31
0.0
  0
LINE
  5
3BE
  8
0
  6
CONTINUOUS
 62
     3
 10
280.7183102690776
 20
-27.04317500498826
 30
0.0
 11
279.2183086766934
 21
-28.54317659737251
 31
0.0
  0
LINE
  5
3BF
  8
0
  6
CONTINUOUS
 62
     3
 10
205.9183144495059
 20
121.456825821488
 30
0.0
 11
205.9183144495059
 21
4.571827738373372
 31
0.0
  0
LINE
  5
3C0
  8
0
  6
CONTINUOUS
 62
     3
 10
201.7183175012638
 20
-18.54317227116337
 30
0.0
 11
205.9183144495059
 21
-18.54317227116337
 31
0.0
  0
LINE
  5
3C1
  8
0
  6
CONTINUOUS
 62
     3
 10
201.7183175012638
 20
121.456825821488
 30
0.0
 11
205.9183144495059
 21
121.456825821488
 31
0.0
  0
LINE
  5
3C2
  8
0
  6
CONTINUOUS
 62
     3
 10
205.9183144495059
 20
24.45682772883663
 30
0.0
 11
228.7183098718692
 21
24.45682772883663
 31
0.0
  0
LINE
  5
3C3
  8
0
  6
CONTINUOUS
 62
     3
 10
278.2183098718692
 20
81.33992823848018
 30
0.0
 11
278.2183098718692
 21
18.45682772883663
 31
0.0
  0
LINE
  5
3C4
  8
0
  6
CONTINUOUS
 62
     3
 10
278.2183098718692
 20
18.45682772883663
 30
0.0
 11
280.7183098718692
 21
18.45682772883663
 31
0.0
  0
LINE
  5
3C5
  8
0
  6
CONTINUOUS
 62
     3
 10
278.2183098718692
 20
81.33992823848018
 30
0.0
 11
280.7183098718692
 21
81.33992823848018
 31
0.0
  0
LINE
  5
3C6
  8
0
  6
CONTINUOUS
 62
     3
 10
266.7183098718692
 20
74.5436178136755
 30
0.0
 11
278.2183098718692
 21
74.5436178136755
 31
0.0
  0
LINE
  5
3C7
  8
0
  6
CONTINUOUS
 62
     3
 10
255.8697838708927
 20
67.78931102046261
 30
0.0
 11
266.7183098718692
 21
67.78931102046261
 31
0.0
  0
LINE
  5
3C8
  8
0
  6
CONTINUOUS
 62
     3
 10
266.7183098718692
 20
81.04094752558956
 30
0.0
 11
266.7183098718692
 21
67.78931102046261
 31
0.0
  0
LINE
  5
3C9
  8
0
  6
CONTINUOUS
 62
     3
 10
250.7183098718692
 20
139.4568334508825
 30
0.0
 11
250.7183098718692
 21
101.956825821488
 31
0.0
  0
LINE
  5
3CA
  8
0
  6
CONTINUOUS
 62
     3
 10
250.7183098718692
 20
101.956825821488
 30
0.0
 11
250.7183098718692
 21
78.456825821488
 31
0.0
  0
LINE
  5
3CB
  8
0
  6
CONTINUOUS
 62
     3
 10
231.7183098718692
 20
78.456825821488
 30
0.0
 11
254.2183098718692
 21
78.456825821488
 31
0.0
  0
LINE
  5
3CC
  8
0
  6
CONTINUOUS
 62
     3
 10
250.7183098718692
 20
139.4568334508825
 30
0.0
 11
279.7183098718692
 21
139.4568334508825
 31
0.0
  0
LINE
  5
3CD
  8
0
  6
CONTINUOUS
 62
     3
 10
250.7183098718692
 20
82.456825821488
 30
0.0
 11
279.7183098718692
 21
82.456825821488
 31
0.0
  0
LINE
  5
3CE
  8
0
  6
CONTINUOUS
 62
     3
 10
272.7183098718692
 20
139.4568334508825
 30
0.0
 11
272.7183098718692
 21
133.456825821488
 31
0.0
  0
LINE
  5
3CF
  8
0
  6
CONTINUOUS
 62
     3
 10
265.7183098718692
 20
139.4568334508825
 30
0.0
 11
265.7183098718692
 21
82.456825821488
 31
0.0
  0
LINE
  5
3D0
  8
0
  6
CONTINUOUS
 62
     3
 10
266.2183098718692
 20
133.456825821488
 30
0.0
 11
280.7183098718692
 21
133.456825821488
 31
0.0
  0
LINE
  5
3D1
  8
0
  6
CONTINUOUS
 62
     3
 10
266.2183098718692
 20
92.456825821488
 30
0.0
 11
280.7183098718692
 21
92.456825821488
 31
0.0
  0
LINE
  5
3D2
  8
0
  6
CONTINUOUS
 62
     3
 10
272.7183098718692
 20
92.456825821488
 30
0.0
 11
272.7183098718692
 21
82.456825821488
 31
0.0
  0
LINE
  5
3D3
  8
0
  6
CONTINUOUS
 62
     3
 10
280.7183098718692
 20
91.26110133418331
 30
0.0
 11
280.7183098718692
 21
-27.04317036381474
 31
0.0
  0
LINE
  5
3D4
  8
0
  6
CONTINUOUS
 62
     3
 10
266.2183098718692
 20
133.456825821488
 30
0.0
 11
266.2183098718692
 21
92.456825821488
 31
0.0
  0
LINE
  5
3D5
  8
0
  6
CONTINUOUS
 62
     3
 10
280.7183098718692
 20
121.456825821488
 30
0.0
 11
280.7183098718692
 21
104.456825821488
 31
0.0
  0
LINE
  5
3D6
  8
0
  6
CONTINUOUS
 62
     3
 10
280.7183098718692
 20
96.456825821488
 30
0.0
 11
280.7183098718692
 21
92.456825821488
 31
0.0
  0
LINE
  5
3D7
  8
0
  6
CONTINUOUS
 62
     3
 10
287.7183098718692
 20
131.956825821488
 30
0.0
 11
287.7183098718692
 21
118.956825821488
 31
0.0
  0
LINE
  5
3D8
  8
0
  6
CONTINUOUS
 62
     3
 10
287.7183098718692
 20
106.956825821488
 30
0.0
 11
287.7183098718692
 21
93.956825821488
 31
0.0
  0
LINE
  5
3D9
  8
0
  6
CONTINUOUS
 62
     3
 10
295.7183098718692
 20
131.956825821488
 30
0.0
 11
295.7183098718692
 21
118.956825821488
 31
0.0
  0
LINE
  5
3DA
  8
0
  6
CONTINUOUS
 62
     3
 10
295.7183098718692
 20
106.956825821488
 30
0.0
 11
295.7183098718692
 21
93.956825821488
 31
0.0
  0
LINE
  5
3DB
  8
0
  6
CONTINUOUS
 62
     3
 10
287.7183098718692
 20
93.956825821488
 30
0.0
 11
295.7183098718692
 21
93.956825821488
 31
0.0
  0
LINE
  5
3DC
  8
0
  6
CONTINUOUS
 62
     3
 10
287.7183098718692
 20
106.956825821488
 30
0.0
 11
295.7183098718692
 21
106.956825821488
 31
0.0
  0
LINE
  5
3DD
  8
0
  6
CONTINUOUS
 62
     3
 10
287.7183098718692
 20
131.956825821488
 30
0.0
 11
295.7183098718692
 21
131.956825821488
 31
0.0
  0
LINE
  5
3DE
  8
0
  6
CONTINUOUS
 62
     3
 10
287.7183098718692
 20
118.956825821488
 30
0.0
 11
295.7183098718692
 21
118.956825821488
 31
0.0
  0
LINE
  5
3DF
  8
0
  6
CONTINUOUS
 62
     3
 10
266.2183098718692
 20
96.456825821488
 30
0.0
 11
287.7183098718692
 21
96.456825821488
 31
0.0
  0
LINE
  5
3E0
  8
0
  6
CONTINUOUS
 62
     3
 10
266.2183098718692
 20
104.456825821488
 30
0.0
 11
287.7183098718692
 21
104.456825821488
 31
0.0
  0
LINE
  5
3E1
  8
0
  6
CONTINUOUS
 62
     3
 10
266.2183098718692
 20
129.456825821488
 30
0.0
 11
287.7183098718692
 21
129.456825821488
 31
0.0
  0
LINE
  5
3E2
  8
0
  6
CONTINUOUS
 62
     3
 10
266.2183098718692
 20
121.456825821488
 30
0.0
 11
287.7183098718692
 21
121.456825821488
 31
0.0
  0
LINE
  5
3E3
  8
0
  6
CONTINUOUS
 62
     3
 10
269.7183098718692
 20
129.456825821488
 30
0.0
 11
269.7183098718692
 21
121.456825821488
 31
0.0
  0
LINE
  5
3E4
  8
0
  6
CONTINUOUS
 62
     3
 10
269.7183098718692
 20
104.456825821488
 30
0.0
 11
269.7183098718692
 21
96.456825821488
 31
0.0
  0
LINE
  5
3E5
  8
0
  6
CONTINUOUS
 62
     3
 10
212.7183175012638
 20
77.956825821488
 30
0.0
 11
212.7183175012638
 21
24.95682772883663
 31
0.0
  0
LINE
  5
3E6
  8
0
  6
CONTINUOUS
 62
     3
 10
254.7183098718692
 20
77.956825821488
 30
0.0
 11
254.7183098718692
 21
24.95682772883663
 31
0.0
  0
LINE
  5
3E7
  8
0
  6
CONTINUOUS
 62
     3
 10
254.2183091109384
 20
78.45683988636677
 30
0.0
 11
254.7183096417332
 21
77.95683935557202
 31
0.0
  0
LINE
  5
3E8
  8
0
  6
CONTINUOUS
 62
     3
 10
212.7183741967726
 20
77.95678433813089
 30
0.0
 11
213.2183655395913
 21
78.45678330945509
 31
0.0
  0
LINE
  5
3E9
  8
0
  6
CONTINUOUS
 62
     3
 10
212.7183163055411
 20
24.95682355230235
 30
0.0
 11
213.2183168363358
 21
24.4568230215076
 31
0.0
  0
LINE
  5
3EA
  8
0
  6
CONTINUOUS
 62
     3
 10
254.7183150365297
 20
24.9568208549041
 30
0.0
 11
254.218314505735
 21
24.45682032410934
 31
0.0
  0
LINE
  5
3EB
  8
0
  6
CONTINUOUS
 62
     3
 10
235.7183098718692
 20
72.956825821488
 30
0.0
 11
235.7183098718692
 21
29.95682772883663
 31
0.0
  0
LINE
  5
3EC
  8
0
  6
CONTINUOUS
 62
     3
 10
242.7183098718692
 20
74.706825821488
 30
0.0
 11
242.7183098718692
 21
28.20682772883663
 31
0.0
  0
LINE
  5
3ED
  8
0
  6
CONTINUOUS
 62
     3
 10
244.2183098718692
 20
74.706825821488
 30
0.0
 11
244.2183098718692
 21
74.456825821488
 31
0.0
  0
LINE
  5
3EE
  8
0
  6
CONTINUOUS
 62
     3
 10
235.7183098718692
 20
72.956825821488
 30
0.0
 11
242.7183098718692
 21
72.956825821488
 31
0.0
  0
LINE
  5
3EF
  8
0
  6
CONTINUOUS
 62
     3
 10
235.7183098718692
 20
29.95682772883663
 30
0.0
 11
242.7183098718692
 21
29.95682772883663
 31
0.0
  0
LINE
  5
3F0
  8
0
  6
CONTINUOUS
 62
     3
 10
242.7183098718692
 20
74.706825821488
 30
0.0
 11
244.2183098718692
 21
74.706825821488
 31
0.0
  0
LINE
  5
3F1
  8
0
  6
CONTINUOUS
 62
     3
 10
242.7183098718692
 20
28.20682772883663
 30
0.0
 11
244.2183098718692
 21
28.20682772883663
 31
0.0
  0
LINE
  5
3F2
  8
0
  6
CONTINUOUS
 62
     3
 10
235.2183098718692
 20
67.45682963618526
 30
0.0
 11
235.2183098718692
 21
58.45682963618526
 31
0.0
  0
LINE
  5
3F3
  8
0
  6
CONTINUOUS
 62
     3
 10
213.2183175012638
 20
67.45682963618526
 30
0.0
 11
213.2183175012638
 21
58.45682963618526
 31
0.0
  0
LINE
  5
3F4
  8
0
  6
CONTINUOUS
 62
     3
 10
213.2183175012638
 20
44.45682963618526
 30
0.0
 11
213.2183175012638
 21
35.45682772883663
 31
0.0
  0
LINE
  5
3F5
  8
0
  6
CONTINUOUS
 62
     3
 10
235.2183098718692
 20
44.45682963618526
 30
0.0
 11
235.2183098718692
 21
35.45682772883663
 31
0.0
  0
LINE
  5
3F6
  8
0
  6
CONTINUOUS
 62
     3
 10
243.7183098718692
 20
28.45682772883663
 30
0.0
 11
254.7183098718692
 21
28.45682772883663
 31
0.0
  0
LINE
  5
3F7
  8
0
  6
CONTINUOUS
 62
     3
 10
243.7183098718692
 20
74.456825821488
 30
0.0
 11
254.7183098718692
 21
74.456825821488
 31
0.0
  0
LINE
  5
3F8
  8
0
  6
CONTINUOUS
 62
     3
 10
228.7183098718692
 20
24.45682772883663
 30
0.0
 11
278.2183098718692
 21
24.45682772883663
 31
0.0
  0
LINE
  5
3F9
  8
0
  6
CONTINUOUS
 62
     3
 10
243.7183098718692
 20
74.456825821488
 30
0.0
 11
243.7183098718692
 21
28.45682772883663
 31
0.0
  0
LINE
  5
3FA
  8
0
  6
CONTINUOUS
 62
     3
 10
244.2183098718692
 20
29.15682849177608
 30
0.0
 11
244.2183098718692
 21
28.20682772883663
 31
0.0
  0
LINE
  5
3FB
  8
0
  6
CONTINUOUS
 62
     3
 10
209.7183175012638
 20
78.456825821488
 30
0.0
 11
231.7183098718692
 21
78.456825821488
 31
0.0
  0
LINE
  5
3FC
  8
0
  6
CONTINUOUS
 62
     3
 10
262.7183098718692
 20
15.95682820567379
 30
0.0
 11
262.7183098718692
 21
10.95682987460384
 31
0.0
  0
LINE
  5
3FD
  8
0
  6
CONTINUOUS
 62
     3
 10
269.7183098718692
 20
7.821827797978017
 30
0.0
 11
269.7183098718692
 21
-9.678172500045207
 31
0.0
  0
LINE
  5
3FE
  8
0
  6
CONTINUOUS
 62
     3
 10
262.7183098718692
 20
15.95682820567379
 30
0.0
 11
280.7183098718692
 21
15.95682820567379
 31
0.0
  0
LINE
  5
3FF
  8
0
  6
CONTINUOUS
 62
     3
 10
262.7183098718692
 20
10.95682987460384
 30
0.0
 11
280.7183098718692
 21
10.95682987460384
 31
0.0
  0
LINE
  5
400
  8
0
  6
CONTINUOUS
 62
     3
 10
205.9183144495059
 20
-6.428172500045207
 30
0.0
 11
269.7183098718692
 21
-6.428172500045207
 31
0.0
  0
LINE
  5
401
  8
0
  6
CONTINUOUS
 62
     3
 10
205.9183144495059
 20
4.571827738373372
 30
0.0
 11
269.7183098718692
 21
4.571827738373372
 31
0.0
  0
LINE
  5
402
  8
0
  6
CONTINUOUS
 62
     3
 10
269.7183098718692
 20
-9.678172500045207
 30
0.0
 11
280.7183098718692
 21
-9.678172500045207
 31
0.0
  0
LINE
  5
403
  8
0
  6
CONTINUOUS
 62
     3
 10
269.7183098718692
 20
7.821827797978017
 30
0.0
 11
280.7183098718692
 21
7.821827797978017
 31
0.0
  0
LINE
  5
404
  8
0
  6
CONTINUOUS
 62
     3
 10
261.2749343513619
 20
13.45682712317864
 30
0.0
 11
262.7183110645635
 21
15.95682858201155
 31
0.0
  0
LINE
  5
405
  8
0
  6
CONTINUOUS
 62
     3
 10
261.2749246754568
 20
13.45682510147901
 30
0.0
 11
262.7183013886584
 21
10.9568236426461
 31
0.0
  0
LINE
  5
406
  8
0
  6
CONTINUOUS
 62
     3
 10
189.7183175012638
 20
4.071827976791951
 30
0.0
 11
189.7183175012638
 21
-5.928172500045207
 31
0.0
  0
LINE
  5
407
  8
0
  6
CONTINUOUS
 62
     3
 10
189.7183175012638
 20
-5.928172500045207
 30
0.0
 11
269.7183098718692
 21
-5.928172500045207
 31
0.0
  0
LINE
  5
408
  8
0
  6
CONTINUOUS
 62
     3
 10
189.7183175012638
 20
4.071827976791951
 30
0.0
 11
269.7183098718692
 21
4.071827976791951
 31
0.0
  0
LINE
  5
409
  8
0
  6
CONTINUOUS
 62
     3
 10
269.7183098718692
 20
-8.928172500045207
 30
0.0
 11
279.7183098718692
 21
-8.928172500045207
 31
0.0
  0
LINE
  5
40A
  8
0
  6
CONTINUOUS
 62
     3
 10
269.7183098718692
 20
7.071827738373372
 30
0.0
 11
279.7183098718692
 21
7.071827738373372
 31
0.0
  0
LINE
  5
40B
  8
0
  6
CONTINUOUS
 62
     3
 10
279.7183098718692
 20
7.071827738373372
 30
0.0
 11
279.7183098718692
 21
-8.928172500045207
 31
0.0
  0
LINE
  5
40C
  8
0
  6
CONTINUOUS
 62
     3
 10
205.9183144495059
 20
78.456825821488
 30
0.0
 11
209.7183175012638
 21
78.456825821488
 31
0.0
  0
LINE
  5
40D
  8
0
  6
CONTINUOUS
 62
     3
 10
205.9183144495059
 20
-6.428172500045207
 30
0.0
 11
205.9183144495059
 21
-18.54317227116337
 31
0.0
  0
LINE
  5
40E
  8
0
  6
CONTINUOUS
 62
     3
 10
201.7183175012638
 20
-6.428172500045207
 30
0.0
 11
201.7183175012638
 21
-28.54317036381474
 31
0.0
  0
LINE
  5
40F
  8
0
  6
CONTINUOUS
 62
     3
 10
213.2183175012638
 20
35.45682772883663
 30
0.0
 11
235.2183098718692
 21
35.45682772883663
 31
0.0
  0
LINE
  5
410
  8
0
  6
CONTINUOUS
 62
     3
 10
213.2183175012638
 20
67.45682963618526
 30
0.0
 11
235.2183098718692
 21
67.45682963618526
 31
0.0
  0
LINE
  5
411
  8
0
  6
CONTINUOUS
 62
     3
 10
213.2183163692457
 20
67.45682558312467
 30
0.0
 11
212.718315838451
 21
67.95682615606631
 31
0.0
  0
LINE
  5
412
  8
0
  6
CONTINUOUS
 62
     3
 10
235.2183086781149
 20
67.45683136642163
 30
0.0
 11
235.7183092089097
 21
67.95683193936327
 31
0.0
  0
LINE
  5
413
  8
0
  6
CONTINUOUS
 62
     3
 10
235.2183123287637
 20
35.45682709990672
 30
0.0
 11
235.7183128595584
 21
34.95682652696507
 31
0.0
  0
LINE
  5
414
  8
0
  6
CONTINUOUS
 62
     3
 10
213.2183100211987
 20
35.45683018580519
 30
0.0
 11
212.718309490404
 21
34.95682961286354
 31
0.0
  0
LINE
  5
415
  8
0
  6
CONTINUOUS
 62
     3
 10
243.7183098718692
 20
35.45682772883663
 30
0.0
 11
254.7183098718692
 21
35.45682772883663
 31
0.0
  0
LINE
  5
416
  8
0
  6
CONTINUOUS
 62
     3
 10
243.7183098718692
 20
67.45682963618526
 30
0.0
 11
254.7183098718692
 21
67.45682963618526
 31
0.0
  0
LINE
  5
417
  8
0
  6
CONTINUOUS
 62
     3
 10
243.7183098718692
 20
68.45682963618526
 30
0.0
 11
251.7183098718692
 21
68.45682963618526
 31
0.0
  0
LINE
  5
418
  8
0
  6
CONTINUOUS
 62
     3
 10
243.7183098718692
 20
72.45683345088253
 30
0.0
 11
251.7183098718692
 21
72.45683345088253
 31
0.0
  0
LINE
  5
419
  8
0
  6
CONTINUOUS
 62
     3
 10
247.7183098718692
 20
72.45683345088253
 30
0.0
 11
247.7183098718692
 21
68.45682963618526
 31
0.0
  0
LINE
  5
41A
  8
0
  6
CONTINUOUS
 62
     3
 10
251.7183098718692
 20
72.45683345088253
 30
0.0
 11
251.7183098718692
 21
68.45682963618526
 31
0.0
  0
LINE
  5
41B
  8
0
  6
CONTINUOUS
 62
     3
 10
251.7183098718692
 20
71.95682963618526
 30
0.0
 11
254.7183098718692
 21
71.95682963618526
 31
0.0
  0
LINE
  5
41C
  8
0
  6
CONTINUOUS
 62
     3
 10
251.7183098718692
 20
68.95682963618526
 30
0.0
 11
254.7183098718692
 21
68.95682963618526
 31
0.0
  0
LINE
  5
41D
  8
0
  6
CONTINUOUS
 62
     3
 10
247.7183197436954
 20
71.70682327974373
 30
0.0
 11
248.4683205398875
 21
72.45682407593586
 31
0.0
  0
LINE
  5
41E
  8
0
  6
CONTINUOUS
 62
     3
 10
247.7183143488989
 20
69.2068260205665
 30
0.0
 11
248.4683097502945
 21
68.45683061917089
 31
0.0
  0
LINE
  5
41F
  8
0
  6
CONTINUOUS
 62
     3
 10
248.4683098718692
 20
72.45683345088253
 30
0.0
 11
248.4683098718692
 21
68.45682963618526
 31
0.0
  0
LINE
  5
420
  8
0
  6
CONTINUOUS
 62
     3
 10
243.7183154973374
 20
71.45682840914287
 30
0.0
 11
244.7183138615286
 21
72.45682677333411
 31
0.0
  0
LINE
  5
421
  8
0
  6
CONTINUOUS
 62
     3
 10
243.7183154973374
 20
69.45682628596387
 30
0.0
 11
244.7183165589269
 21
68.45682522437437
 31
0.0
  0
LINE
  5
422
  8
0
  6
CONTINUOUS
 62
     3
 10
244.7183098718692
 20
72.45683345088253
 30
0.0
 11
244.7183098718692
 21
68.45682963618526
 31
0.0
  0
LINE
  5
423
  8
0
  6
CONTINUOUS
 62
     3
 10
469.1516899988224
 20
139.4568372655798
 30
0.0
 11
469.1516899988224
 21
74.54362162837276
 31
0.0
  0
LINE
  5
424
  8
0
  6
CONTINUOUS
 62
     3
 10
497.1516899988224
 20
139.4568372655798
 30
0.0
 11
497.1516899988224
 21
74.54362162837276
 31
0.0
  0
LINE
  5
425
  8
0
  6
CONTINUOUS
 62
     3
 10
469.1516899988224
 20
28.37003764399776
 30
0.0
 11
469.1516899988224
 21
-36.54317036381474
 31
0.0
  0
LINE
  5
426
  8
0
  6
CONTINUOUS
 62
     3
 10
497.1516899988224
 20
28.37003764399776
 30
0.0
 11
497.1516899988224
 21
-36.54317036381474
 31
0.0
  0
LINE
  5
427
  8
0
  6
CONTINUOUS
 62
     3
 10
504.6516899988224
 20
137.4472089696814
 30
0.0
 11
504.6516899988224
 21
128.5136228490759
 31
0.0
  0
LINE
  5
428
  8
0
  6
CONTINUOUS
 62
     3
 10
461.6516823694278
 20
137.4472165990759
 30
0.0
 11
461.6516823694278
 21
128.5136304784704
 31
0.0
  0
LINE
  5
429
  8
0
  6
CONTINUOUS
 62
     3
 10
461.6516823694278
 20
-25.5999712060999
 30
0.0
 11
461.6516823694278
 21
-34.53354969731083
 31
0.0
  0
LINE
  5
42A
  8
0
  6
CONTINUOUS
 62
     3
 10
504.6516899988224
 20
-25.59996357670536
 30
0.0
 11
504.6516899988224
 21
-34.53354969731083
 31
0.0
  0
LINE
  5
42B
  8
0
  6
CONTINUOUS
 62
     3
 10
469.1516899988224
 20
-36.54317036381474
 30
0.0
 11
497.1516899988224
 21
-36.54317036381474
 31
0.0
  0
LINE
  5
42C
  8
0
  6
CONTINUOUS
 62
     3
 10
469.1516899988224
 20
139.4568372655798
 30
0.0
 11
497.1516899988224
 21
139.4568372655798
 31
0.0
  0
LINE
  5
42D
  8
0
  6
CONTINUOUS
 62
     3
 10
469.1516899988224
 20
82.45682963618526
 30
0.0
 11
497.1516899988224
 21
82.45682963618526
 31
0.0
  0
LINE
  5
42E
  8
0
  6
CONTINUOUS
 62
     3
 10
469.1516899988224
 20
20.4568315435339
 30
0.0
 11
497.1516899988224
 21
20.4568315435339
 31
0.0
  0
LINE
  5
42F
  8
0
  6
CONTINUOUS
 62
     3
 10
477.6516899988224
 20
10.45682987460384
 30
0.0
 11
488.6516899988224
 21
10.45682987460384
 31
0.0
  0
LINE
  5
430
  8
0
  6
CONTINUOUS
 62
     3
 10
477.6516899988224
 20
-30.54317036381474
 30
0.0
 11
488.6516899988224
 21
-30.54317036381474
 31
0.0
  0
LINE
  5
431
  8
0
  6
CONTINUOUS
 62
     3
 10
477.6516899988224
 20
92.45682963618526
 30
0.0
 11
488.6516899988224
 21
92.45682963618526
 31
0.0
  0
LINE
  5
432
  8
0
  6
CONTINUOUS
 62
     3
 10
477.6516899988224
 20
133.4568296361853
 30
0.0
 11
488.6516899988224
 21
133.4568296361853
 31
0.0
  0
LINE
  5
433
  8
0
  6
CONTINUOUS
 62
     3
 10
477.6516899988224
 20
139.4568372655798
 30
0.0
 11
477.6516899988224
 21
128.9209333349157
 31
0.0
  0
LINE
  5
434
  8
0
  6
CONTINUOUS
 62
     3
 10
488.6516899988224
 20
139.4568372655798
 30
0.0
 11
488.6516899988224
 21
128.9209333349157
 31
0.0
  0
LINE
  5
435
  8
0
  6
CONTINUOUS
 62
     3
 10
477.6516899988224
 20
20.4568315435339
 30
0.0
 11
477.6516899988224
 21
5.920931904404256
 31
0.0
  0
LINE
  5
436
  8
0
  6
CONTINUOUS
 62
     3
 10
488.6516899988224
 20
20.4568315435339
 30
0.0
 11
488.6516899988224
 21
5.920931904404256
 31
0.0
  0
LINE
  5
437
  8
0
  6
CONTINUOUS
 62
     3
 10
461.6516747684955
 20
137.4471986350862
 30
0.0
 11
469.1516606878331
 21
139.4568135908593
 31
0.0
  0
LINE
  5
438
  8
0
  6
CONTINUOUS
 62
     3
 10
497.1516631719885
 20
-36.54314106264849
 30
0.0
 11
504.6516638301844
 21
-34.53352215761072
 31
0.0
  0
LINE
  5
439
  8
0
  6
CONTINUOUS
 62
     3
 10
461.6516723419677
 20
-34.53353857552543
 30
0.0
 11
469.1516582613053
 21
-36.54315353129846
 31
0.0
  0
LINE
  5
43A
  8
0
  6
CONTINUOUS
 62
     3
 10
497.1516639542383
 20
139.4568130975316
 30
0.0
 11
504.6516572430051
 21
137.4471961671262
 31
0.0
  0
LINE
  5
43B
  8
0
  6
CONTINUOUS
 62
     3
 10
477.6516899988224
 20
-1.007268340499309
 30
0.0
 11
477.6516899988224
 21
-19.07906666508427
 31
0.0
  0
LINE
  5
43C
  8
0
  6
CONTINUOUS
 62
     3
 10
488.6516899988224
 20
-1.007268340499309
 30
0.0
 11
488.6516899988224
 21
-19.07906666508427
 31
0.0
  0
LINE
  5
43D
  8
0
  6
CONTINUOUS
 62
     3
 10
488.6516899988224
 20
-26.00727406254521
 30
0.0
 11
488.6516899988224
 21
-36.54317036381474
 31
0.0
  0
LINE
  5
43E
  8
0
  6
CONTINUOUS
 62
     3
 10
477.6516899988224
 20
-26.00727406254521
 30
0.0
 11
477.6516899988224
 21
-36.54317036381474
 31
0.0
  0
LINE
  5
43F
  8
0
  6
CONTINUOUS
 62
     3
 10
477.6516899988224
 20
121.9927259374548
 30
0.0
 11
477.6516899988224
 21
103.9209333349157
 31
0.0
  0
LINE
  5
440
  8
0
  6
CONTINUOUS
 62
     3
 10
488.6516899988224
 20
121.9927259374548
 30
0.0
 11
488.6516899988224
 21
103.9209333349157
 31
0.0
  0
LINE
  5
441
  8
0
  6
CONTINUOUS
 62
     3
 10
488.6516899988224
 20
96.99273356684932
 30
0.0
 11
488.6516899988224
 21
82.45682963618526
 31
0.0
  0
LINE
  5
442
  8
0
  6
CONTINUOUS
 62
     3
 10
477.6516899988224
 20
96.99273356684932
 30
0.0
 11
477.6516899988224
 21
82.45682963618526
 31
0.0
  0
LINE
  5
443
  8
0
  6
CONTINUOUS
 62
     3
 10
457.1516899988224
 20
105.9927259374548
 30
0.0
 11
453.1516899988224
 21
105.9927259374548
 31
0.0
  0
LINE
  5
444
  8
0
  6
CONTINUOUS
 62
     3
 10
451.151691062993
 20
109.4568248779018
 30
0.0
 11
453.1516915398302
 21
112.9209261924465
 31
0.0
  0
LINE
  5
445
  8
0
  6
CONTINUOUS
 62
     3
 10
453.1517349096316
 20
105.9927634907882
 30
0.0
 11
451.1517358633059
 21
109.4568655205886
 31
0.0
  0
LINE
  5
446
  8
0
  6
CONTINUOUS
 62
     3
 10
459.1517061087502
 20
109.4568267933659
 30
0.0
 11
457.1517037245644
 21
105.9927264324955
 31
0.0
  0
LINE
  5
447
  8
0
  6
CONTINUOUS
 62
     3
 10
457.1517235736219
 20
112.9209589013564
 30
0.0
 11
459.1517211894368
 21
109.4568580465316
 31
0.0
  0
LINE
  5
448
  8
0
  6
CONTINUOUS
 62
     3
 10
453.1516899988224
 20
112.9209333349157
 30
0.0
 11
457.1516899988224
 21
112.9209333349157
 31
0.0
  0
LINE
  5
449
  8
0
  6
CONTINUOUS
 62
     3
 10
495.1516747400333
 20
-67.5667680810999
 30
0.0
 11
508.9030327722599
 21
-67.5667680810999
 31
0.0
  0
LINE
  5
44A
  8
0
  6
CONTINUOUS
 62
     3
 10
503.1516594812442
 20
-74.56679096928349
 30
0.0
 11
506.7125267908146
 21
-74.56679096928349
 31
0.0
  0
LINE
  5
44B
  8
0
  6
CONTINUOUS
 62
     3
 10
519.1517052576114
 20
-74.56679096928349
 30
0.0
 11
519.1517052576114
 21
-67.56677571049443
 31
0.0
  0
LINE
  5
44C
  8
0
  6
CONTINUOUS
 62
     3
 10
503.1516899988224
 20
-74.56677571049443
 30
0.0
 11
503.1516899988224
 21
-67.56677571049443
 31
0.0
  0
LINE
  5
44D
  8
0
  6
CONTINUOUS
 62
     3
 10
503.151677621931
 20
-74.56678479541679
 30
0.0
 11
506.8846545803895
 21
-76.72202008594414
 31
0.0
  0
LINE
  5
44E
  8
0
  6
CONTINUOUS
 62
     3
 10
513.7016930505802
 20
-84.5014604639124
 30
0.0
 11
513.7016930505802
 21
-77.45352497807255
 31
0.0
  0
LINE
  5
44F
  8
0
  6
CONTINUOUS
 62
     3
 10
508.6016869470646
 20
-84.56678333988896
 30
0.0
 11
508.6016869470646
 21
-77.45353260746708
 31
0.0
  0
LINE
  5
450
  8
0
  6
CONTINUOUS
 62
     3
 10
514.1516899988224
 20
-84.52550068608036
 30
0.0
 11
514.1516899988224
 21
-77.45353260746708
 31
0.0
  0
LINE
  5
451
  8
0
  6
CONTINUOUS
 62
     3
 10
508.1517052576114
 20
-84.56678333988896
 30
0.0
 11
508.1517052576114
 21
-77.45352497807255
 31
0.0
  0
LINE
  5
452
  8
0
  6
CONTINUOUS
 62
     3
 10
515.4874231628542
 20
-76.68234362853275
 30
0.0
 11
519.1516913352079
 21
-74.56677712267549
 31
0.0
  0
LINE
  5
453
  8
0
  6
CONTINUOUS
 62
     3
 10
515.6334099695255
 20
-74.56679096928349
 30
0.0
 11
519.1516594812442
 21
-74.56679096928349
 31
0.0
  0
LINE
  5
454
  8
0
  6
CONTINUOUS
 62
     3
 10
514.1516594812442
 20
-77.45352497807255
 30
0.0
 11
508.1516594812442
 21
-77.45352497807255
 31
0.0
  0
LINE
  5
455
  8
0
  6
CONTINUOUS
 62
     3
 10
513.5516686365177
 20
-67.95352497807255
 30
0.0
 11
508.7516655847599
 21
-67.95352497807255
 31
0.0
  0
LINE
  5
456
  8
0
  6
CONTINUOUS
 62
     3
 10
507.2016930505802
 20
-75.07661762943974
 30
0.0
 11
507.2016930505802
 21
-76.76286640873661
 31
0.0
  0
LINE
  5
457
  8
0
  6
CONTINUOUS
 62
     3
 10
515.1016716882755
 20
-75.07661762943974
 30
0.0
 11
515.1016716882755
 21
-76.76286640873661
 31
0.0
  0
LINE
  5
458
  8
0
  6
CONTINUOUS
 62
     3
 10
514.451662533002
 20
-70.25352802983036
 30
0.0
 11
507.8516716882755
 21
-70.25352802983036
 31
0.0
  0
LINE
  5
459
  8
0
  6
CONTINUOUS
 62
     3
 10
514.5442528650333
 20
-74.45352497807255
 30
0.0
 11
507.7590508386661
 21
-74.45352497807255
 31
0.0
  0
LINE
  5
45A
  8
0
  6
CONTINUOUS
 62
     3
 10
513.1516747400333
 20
-75.21745625248661
 30
0.0
 11
513.1516747400333
 21
-76.68959370365849
 31
0.0
  0
LINE
  5
45B
  8
0
  6
CONTINUOUS
 62
     3
 10
509.1516747400333
 20
-75.21745625248661
 30
0.0
 11
509.1516747400333
 21
-76.68958607426396
 31
0.0
  0
LINE
  5
45C
  8
0
  6
CONTINUOUS
 62
     3
 10
507.8516990276928
 20
-70.25352926404082
 30
0.0
 11
508.7516988335889
 21
-67.95352886862963
 31
0.0
  0
LINE
  5
45D
  8
0
  6
CONTINUOUS
 62
     3
 10
513.5517090855169
 20
-67.95350157451014
 30
0.0
 11
514.4517091858384
 21
-70.2535018227087
 31
0.0
  0
LINE
  5
45E
  8
0
  6
CONTINUOUS
 62
     3
 10
513.7647423669864
 20
-71.25352802983036
 30
0.0
 11
508.4727044031192
 21
-71.25352802983036
 31
0.0
  0
LINE
  5
45F
  8
0
  6
CONTINUOUS
 62
     3
 10
513.400377742963
 20
-67.5667680810999
 30
0.0
 11
528.5501580164005
 21
-67.5667680810999
 31
0.0
  0
LINE
  5
460
  8
0
  6
CONTINUOUS
 62
     3
 10
509.1516899988224
 20
-3.079062850387004
 30
0.0
 11
513.1516899988224
 21
-3.079062850387004
 31
0.0
  0
LINE
  5
461
  8
0
  6
CONTINUOUS
 62
     3
 10
515.1516923846971
 20
-6.54315795075911
 30
0.0
 11
513.1516900005108
 21
-10.00726256892824
 31
0.0
  0
LINE
  5
462
  8
0
  6
CONTINUOUS
 62
     3
 10
513.1516373557938
 20
-3.079105922682743
 30
0.0
 11
515.1516364021195
 21
-6.543207952483158
 31
0.0
  0
LINE
  5
463
  8
0
  6
CONTINUOUS
 62
     3
 10
507.1516770905855
 20
-6.543160575678598
 30
0.0
 11
509.1516813821222
 21
-3.079056911184694
 31
0.0
  0
LINE
  5
464
  8
0
  6
CONTINUOUS
 62
     3
 10
509.1516637816835
 20
-10.00729435023015
 30
0.0
 11
507.151665212195
 21
-6.543191843592581
 31
0.0
  0
LINE
  5
465
  8
0
  6
CONTINUOUS
 62
     3
 10
513.1516899988224
 20
-10.00727024784794
 30
0.0
 11
509.1516899988224
 21
-10.00727024784794
 31
0.0
  0
ARC
  5
466
  8
0
  6
CONTINUOUS
 62
     3
 10
483.1516899988224
 20
51.45682963618526
 30
0.0
 40
80.0
 50
0.0
 51
79.92134121426152
  0
ARC
  5
467
  8
0
  6
CONTINUOUS
 62
     3
 10
483.1516899988224
 20
51.45682963618526
 30
0.0
 40
33.0
 50
0.0
 51
64.89728145549709
  0
CIRCLE
  5
468
  8
0
  6
CONTINUOUS
 62
     3
 10
483.1516899988224
 20
51.45682963618526
 30
0.0
 40
27.0
  0
ARC
  5
469
  8
0
  6
CONTINUOUS
 62
     3
 10
483.1516899988224
 20
51.45682963618526
 30
0.0
 40
33.0
 50
115.1027440440267
 51
244.8972523135076
  0
ARC
  5
46A
  8
0
  6
CONTINUOUS
 62
     3
 10
483.1516899988224
 20
51.45682963618526
 30
0.0
 40
33.0
 50
295.1027185445029
 51
360.0
  0
CIRCLE
  5
46B
  8
0
  6
CONTINUOUS
 62
     3
 10
520.1934685632755
 20
14.41504368075619
 30
0.0
 40
5.5
  0
CIRCLE
  5
46C
  8
0
  6
CONTINUOUS
 62
     3
 10
520.1934685632755
 20
88.49861583003292
 30
0.0
 40
5.5
  0
CIRCLE
  5
46D
  8
0
  6
CONTINUOUS
 62
     3
 10
446.1098885461856
 20
88.49861583003292
 30
0.0
 40
5.5
  0
CIRCLE
  5
46E
  8
0
  6
CONTINUOUS
 62
     3
 10
520.1934685632755
 20
14.41504368075619
 30
0.0
 40
8.5
  0
CIRCLE
  5
46F
  8
0
  6
CONTINUOUS
 62
     3
 10
520.1934685632755
 20
88.49861583003292
 30
0.0
 40
8.5
  0
CIRCLE
  5
470
  8
0
  6
CONTINUOUS
 62
     3
 10
446.1098885461856
 20
88.49861583003292
 30
0.0
 40
8.5
  0
CIRCLE
  5
471
  8
0
  6
CONTINUOUS
 62
     3
 10
446.1098885461856
 20
14.41504368075619
 30
0.0
 40
8.5
  0
CIRCLE
  5
472
  8
0
  6
CONTINUOUS
 62
     3
 10
450.2427163049747
 20
70.45682963618526
 30
0.0
 40
2.5
  0
CIRCLE
  5
473
  8
0
  6
CONTINUOUS
 62
     3
 10
516.0606560632755
 20
70.45682963618526
 30
0.0
 40
2.5
  0
CIRCLE
  5
474
  8
0
  6
CONTINUOUS
 62
     3
 10
516.0606560632755
 20
32.45682963618526
 30
0.0
 40
2.5
  0
CIRCLE
  5
475
  8
0
  6
CONTINUOUS
 62
     3
 10
450.2427163049747
 20
32.4568315435339
 30
0.0
 40
2.5
  0
ARC
  5
476
  8
0
  6
CONTINUOUS
 62
     3
 10
483.1516899988224
 20
51.45682963618526
 30
0.0
 40
78.5
 50
0.0
 51
79.7266876531053
  0
ARC
  5
477
  8
0
  6
CONTINUOUS
 62
     3
 10
483.1516899988224
 20
51.45682963618526
 30
0.0
 40
78.5
 50
100.2733310162294
 51
259.7266585111158
  0
ARC
  5
478
  8
0
  6
CONTINUOUS
 62
     3
 10
483.1516899988224
 20
51.45682963618526
 30
0.0
 40
78.5
 50
280.2733123468947
 51
360.0
  0
ARC
  5
479
  8
0
  6
CONTINUOUS
 62
     3
 10
483.1516899988224
 20
51.45682963618526
 30
0.0
 40
80.0
 50
280.0786587857385
 51
360.0
  0
ARC
  5
47A
  8
0
  6
CONTINUOUS
 62
     3
 10
483.1516899988224
 20
51.45682963618526
 30
0.0
 40
80.0
 50
100.0786774550732
 51
259.9213189024612
  0
CIRCLE
  5
47B
  8
0
  6
CONTINUOUS
 62
     3
 10
483.1516899988224
 20
51.45682963618526
 30
0.0
 40
23.0
  0
CIRCLE
  5
47C
  8
0
  6
CONTINUOUS
 62
     3
 10
455.1516899988224
 20
109.4568220067907
 30
0.0
 40
8.0
  0
CIRCLE
  5
47D
  8
0
  6
CONTINUOUS
 62
     3
 10
455.1516899988224
 20
109.4568220067907
 30
0.0
 40
2.400000095367432
  0
CIRCLE
  5
47E
  8
0
  6
CONTINUOUS
 62
     3
 10
455.1516899988224
 20
109.4568220067907
 30
0.0
 40
0.75
  0
CIRCLE
  5
47F
  8
0
  6
CONTINUOUS
 62
     3
 10
455.1516899988224
 20
109.4568220067907
 30
0.0
 40
3.299999952316284
  0
ARC
  5
480
  8
0
  6
CONTINUOUS
 62
     3
 10
511.1516747400333
 20
-74.45352497807255
 30
0.0
 40
3.0
 50
269.9999906653329
 51
311.8103038204597
  0
ARC
  5
481
  8
0
  6
CONTINUOUS
 62
     3
 10
511.1516747400333
 20
-77.45352497807255
 30
0.0
 40
3.0
 50
48.18968934935123
 51
131.8102746784701
  0
ARC
  5
482
  8
0
  6
CONTINUOUS
 62
     3
 10
511.1516747400333
 20
-74.45352497807255
 30
0.0
 40
3.0
 50
228.1896706800164
 51
269.9999701747653
  0
ARC
  5
483
  8
0
  6
CONTINUOUS
 62
     3
 10
511.1516747400333
 20
-70.25352802983036
 30
0.0
 40
3.299999952316284
 50
342.3602834400861
 51
359.9999710095898
  0
ARC
  5
484
  8
0
  6
CONTINUOUS
 62
     3
 10
511.1516747400333
 20
-70.25352802983036
 30
0.0
 40
3.299999952316284
 50
179.9999776881997
 51
197.6396788801879
  0
ARC
  5
485
  8
0
  6
CONTINUOUS
 62
     3
 10
516.9476494714786
 20
-72.6580537866663
 30
0.0
 40
3.0
 50
152.1068511557016
 51
216.7619682541758
  0
ARC
  5
486
  8
0
  6
CONTINUOUS
 62
     3
 10
505.3556694910099
 20
-72.65804615727177
 30
0.0
 40
3.0
 50
323.2379957736453
 51
387.8898190133927
  0
ARC
  5
487
  8
0
  6
CONTINUOUS
 62
     3
 10
514.1516747400333
 20
-75.38887348881474
 30
0.0
 40
1.0
 50
110.7154403325615
 51
179.9999776881994
  0
ARC
  5
488
  8
0
  6
CONTINUOUS
 62
     3
 10
514.1516747400333
 20
-75.38887348881474
 30
0.0
 40
1.0
 50
18.19486409036892
 51
69.28452369526075
  0
ARC
  5
489
  8
0
  6
CONTINUOUS
 62
     3
 10
508.1516747400333
 20
-75.38887348881474
 30
0.0
 40
1.0
 50
359.9999710095899
 51
429.2845236952608
  0
ARC
  5
48A
  8
0
  6
CONTINUOUS
 62
     3
 10
508.1516747400333
 20
-75.38887348881474
 30
0.0
 40
1.0
 50
110.7154403325615
 51
161.8050913997164
  0
ARC
  5
48B
  8
0
  6
CONTINUOUS
 62
     3
 10
514.1516747400333
 20
-76.45061817875615
 30
0.0
 40
1.0
 50
269.9999906653324
 51
341.8051256643479
  0
ARC
  5
48C
  8
0
  6
CONTINUOUS
 62
     3
 10
508.1516747400333
 20
-76.45061817875615
 30
0.0
 40
1.0
 50
269.9999906653324
 51
359.9999710095899
  0
ARC
  5
48D
  8
0
  6
CONTINUOUS
 62
     3
 10
514.1516747400333
 20
-76.45061817875615
 30
0.0
 40
1.0
 50
179.9999776881994
 51
269.9999733624879
  0
ARC
  5
48E
  8
0
  6
CONTINUOUS
 62
     3
 10
508.1516747400333
 20
-76.45061817875615
 30
0.0
 40
1.0
 50
198.1948402983925
 51
269.9999701747648
  0
ARC
  5
48F
  8
0
  6
CONTINUOUS
 62
     3
 10
511.1516747400333
 20
-68.43140736332646
 30
0.0
 40
1.200000047683716
 50
23.46796137491567
 51
156.5320077755479
  0
CIRCLE
  5
490
  8
0
  6
CONTINUOUS
 62
     3
 10
511.1516899988224
 20
-6.543166549117473
 30
0.0
 40
8.0
  0
CIRCLE
  5
491
  8
0
  6
CONTINUOUS
 62
     3
 10
511.1516899988224
 20
-6.543166549117473
 30
0.0
 40
2.400000095367432
  0
CIRCLE
  5
492
  8
0
  6
CONTINUOUS
 62
     3
 10
511.1516899988224
 20
-6.543166549117473
 30
0.0
 40
0.75
  0
CIRCLE
  5
493
  8
0
  6
CONTINUOUS
 62
     3
 10
511.1516899988224
 20
-6.543166549117473
 30
0.0
 40
3.299999952316284
  0
CIRCLE
  5
494
  8
0
  6
CONTINUOUS
 62
     3
 10
464.1516823694278
 20
51.45682963618526
 30
0.0
 40
1.649999976158142
  0
CIRCLE
  5
495
  8
0
  6
CONTINUOUS
 62
     3
 10
502.1516899988224
 20
51.45682963618526
 30
0.0
 40
1.649999976158142
  0
CIRCLE
  5
496
  8
0
  6
CONTINUOUS
 62
     3
 10
483.1516899988224
 20
70.45682963618526
 30
0.0
 40
1.5
  0
CIRCLE
  5
497
  8
0
  6
CONTINUOUS
 62
     3
 10
466.6972069665958
 20
41.95682963618526
 30
0.0
 40
1.5
  0
CIRCLE
  5
498
  8
0
  6
CONTINUOUS
 62
     3
 10
499.6061730310489
 20
41.95682963618526
 30
0.0
 40
1.5
  0
LINE
  5
499
  8
0
  6
CENTER
 62
     7
 10
193.1376595422794
 20
51.45682963618526
 30
0.0
 11
288.4849877283145
 21
51.45682963618526
 31
0.0
  0
LINE
  5
49A
  8
0
  6
CENTER
 62
     7
 10
264.5898919031192
 20
125.456825821488
 30
0.0
 11
301.1146111414005
 21
125.456825821488
 31
0.0
  0
LINE
  5
49B
  8
0
  6
CENTER
 62
     7
 10
264.5898919031192
 20
100.456825821488
 30
0.0
 11
301.2954239770938
 21
100.456825821488
 31
0.0
  0
LINE
  5
49C
  8
0
  6
CENTER
 62
     7
 10
257.004885189252
 20
13.45682820567379
 30
0.0
 11
285.938234798627
 21
13.45682820567379
 31
0.0
  0
LINE
  5
49D
  8
0
  6
CENTER
 62
     7
 10
183.40490197392
 20
-0.928172500045207
 30
0.0
 11
288.4849877283145
 21
-0.928172500045207
 31
0.0
  0
LINE
  5
49E
  8
0
  6
CENTER
 62
     7
 10
242.3056130334903
 20
70.45682963618526
 30
0.0
 11
256.5495018884708
 21
70.45682963618526
 31
0.0
  0
LINE
  5
49F
  8
0
  6
CENTER
 62
     7
 10
395.1183342859317
 20
51.45682963618526
 30
0.0
 11
571.1850304529239
 21
51.45682963618526
 31
0.0
  0
LINE
  5
4A0
  8
0
  6
CENTER
 62
     7
 10
435.5032951895951
 20
3.808419307022291
 30
0.0
 11
456.7165081424778
 21
25.02163047176498
 31
0.0
  0
LINE
  5
4A1
  8
0
  6
CENTER
 62
     7
 10
444.180546453419
 20
28.95681820936431
 30
0.0
 11
453.5048163238533
 21
34.34018733429127
 31
0.0
  0
LINE
  5
4A2
  8
0
  6
CENTER
 62
     7
 10
444.1805613098925
 20
73.95685239957084
 30
0.0
 11
456.304914276104
 21
66.95685472415187
 31
0.0
  0
LINE
  5
4A3
  8
0
  6
CENTER
 62
     7
 10
435.5033228788361
 20
99.1052412097993
 30
0.0
 11
456.7165276973765
 21
77.89203817939824
 31
0.0
  0
LINE
  5
4A4
  8
0
  6
CENTER
 62
     7
 10
511.3209457519393
 20
23.28762472764345
 30
0.0
 11
530.8000956271794
 21
3.808476494372712
 31
0.0
  0
LINE
  5
4A5
  8
0
  6
CENTER
 62
     7
 10
509.9984986497723
 20
35.95685275719882
 30
0.0
 11
522.1228483123589
 21
28.95685698912837
 31
0.0
  0
LINE
  5
4A6
  8
0
  6
CENTER
 62
     7
 10
509.5868617706988
 20
77.89197964334869
 30
0.0
 11
530.800066631386
 21
99.1051827158966
 31
0.0
  0
LINE
  5
4A7
  8
0
  6
CENTER
 62
     7
 10
509.9984937041735
 20
66.95682357378189
 30
0.0
 11
522.1228499740099
 21
73.95682315654938
 31
0.0
  0
LINE
  5
4A8
  8
0
  6
CENTER
 62
     7
 10
421.8109612390567
 20
109.4568296361853
 30
0.0
 11
466.6542458459903
 21
109.4568296361853
 31
0.0
  0
LINE
  5
4A9
  8
0
  6
CENTER
 62
     7
 10
473.4671807214786
 20
-22.54317036381474
 30
0.0
 11
493.0856499597599
 21
-22.54317036381474
 31
0.0
  0
LINE
  5
4AA
  8
0
  6
CENTER
 62
     7
 10
473.4671807214786
 20
100.4568296361853
 30
0.0
 11
493.0856499597599
 21
100.4568296361853
 31
0.0
  0
LINE
  5
4AB
  8
0
  6
CENTER
 62
     7
 10
473.7785820886661
 20
2.456829636185262
 30
0.0
 11
493.0856499597599
 21
2.456829636185262
 31
0.0
  0
LINE
  5
4AC
  8
0
  6
CENTER
 62
     7
 10
455.1516899988224
 20
121.2941175390173
 30
0.0
 11
455.1516899988224
 21
97.64702281245479
 31
0.0
  0
LINE
  5
4AD
  8
0
  6
CENTER
 62
     7
 10
511.1516899988224
 20
-88.04933491459599
 30
0.0
 11
511.1516899988224
 21
-60.56029072514286
 31
0.0
  0
LINE
  5
4AE
  8
0
  6
CENTER
 62
     7
 10
522.8293175622989
 20
-6.543170363814738
 30
0.0
 11
499.6491265222599
 21
-6.543170363814738
 31
0.0
  0
LINE
  5
4AF
  8
0
  6
CENTER
 62
     7
 10
511.1516899988224
 20
-18.3804544519495
 30
0.0
 11
511.1516899988224
 21
5.266632645218465
 31
0.0
  0
LINE
  5
4B0
  8
0
  6
CENTER
 62
     7
 10
502.1516899988224
 20
55.97152003535518
 30
0.0
 11
502.1516899988224
 21
46.7492948461462
 31
0.0
  0
LINE
  5
4B1
  8
0
  6
CENTER
 62
     7
 10
464.1516823694278
 20
55.72227153071651
 30
0.0
 11
464.1516823694278
 21
46.7492948461462
 31
0.0
  0
LINE
  5
4B2
  8
0
  6
CENTER
 62
     7
 10
464.0411068859829
 20
40.42331685452098
 30
0.0
 11
469.1337371829431
 21
43.36354800251172
 31
0.0
  0
LINE
  5
4B3
  8
0
  6
CENTER
 62
     7
 10
502.2622820208094
 20
40.42331496864188
 30
0.0
 11
497.1696517238493
 21
43.36354611663262
 31
0.0
  0
ARC
  5
4B4
  8
0
  6
CENTER
 62
     7
 10
483.1516899988224
 20
51.45682963618526
 30
0.0
 40
52.3849983215332
 50
28.53726972029093
 51
61.46273449173453
  0
ARC
  5
4B5
  8
0
  6
CENTER
 62
     7
 10
483.1516899988224
 20
51.45682963618526
 30
0.0
 40
38.0
 50
19.43052727349415
 51
40.56945902823233
  0
ARC
  5
4B6
  8
0
  6
CENTER
 62
     7
 10
483.1516899988224
 20
51.45682963618526
 30
0.0
 40
52.3849983215332
 50
118.5372910077893
 51
151.4627643169694
  0
ARC
  5
4B7
  8
0
  6
CENTER
 62
     7
 10
483.1516899988224
 20
51.45682963618526
 30
0.0
 40
38.0
 50
139.4305528109132
 51
160.5694828581041
  0
ARC
  5
4B8
  8
0
  6
CENTER
 62
     7
 10
483.1516899988224
 20
51.45682963618526
 30
0.0
 40
52.3849983215332
 50
208.537249343409
 51
241.4627089922107
  0
ARC
  5
4B9
  8
0
  6
CENTER
 62
     7
 10
483.1516899988224
 20
51.45682963618526
 30
0.0
 40
38.0
 50
199.4305171418959
 51
220.5694471890868
  0
ARC
  5
4BA
  8
0
  6
CENTER
 62
     7
 10
483.1516899988224
 20
51.45682963618526
 30
0.0
 40
38.0
 50
319.4305409717677
 51
340.5694727265059
  0
ARC
  5
4BB
  8
0
  6
CENTER
 62
     7
 10
483.1516899988224
 20
51.45682963618526
 30
0.0
 40
52.3849983215332
 50
298.5372655082655
 51
331.4627302797092
  0
ARC
  5
4BC
  8
0
  6
CENTER
 62
     7
 10
483.1516899988224
 20
51.45682963618526
 30
0.0
 40
19.0
 50
78.70582025899854
 51
103.14254322239
  0
ARC
  5
4BD
  8
0
  6
CENTER
 62
     7
 10
483.1516899988224
 20
51.45682963618526
 30
0.0
 40
19.0
 50
198.7058204105792
 51
223.1425433739707
  0
ARC
  5
4BE
  8
0
  6
CENTER
 62
     7
 10
483.1516899988224
 20
51.45682963618526
 30
0.0
 40
19.0
 50
318.7058169196943
 51
343.1425432981803
  0
LINE
  5
4BF
  8
0
  6
CENTER
 62
     7
 10
483.1516899988224
 20
145.8071027685095
 30
0.0
 11
483.1516899988224
 21
65.07132574270382
 31
0.0
  0
LINE
  5
4C0
  8
0
  6
CENTER
 62
     7
 10
483.1516899988224
 20
58.23103433232997
 30
0.0
 11
483.1516899988224
 21
-42.90395680180302
 31
0.0
  0
LINE
  5
4C1
  8
0
  6
CENTER
 62
     7
 10
242.9183144495059
 20
-7.434999032959173
 30
0.0
 11
242.9183144495059
 21
-31.56096623166094
 31
0.0
  0
LINE
  5
4C2
  8
0
  6
CONTINUOUS
 62
     7
 10
281.468194381098
 20
92.456825821488
 30
0.0
 11
306.8068222925235
 21
92.456825821488
 31
0.0
  0
LINE
  5
4C3
  8
0
  6
DASHED2
 62
     7
 10
244.2956636002959
 20
70.4568251117629
 30
0.0
 11
243.7183129838409
 21
71.45682569529606
 31
0.0
  0
LINE
  5
4C4
  8
0
  6
DASHED2
 62
     7
 10
244.2956660612881
 20
70.4568274387848
 30
0.0
 11
243.7183163985073
 21
69.45682850706398
 31
0.0
  0
LINE
  5
4C5
  8
0
  6
DASHED2
 62
     7
 10
238.9183144495059
 20
-16.54317036381474
 30
0.0
 11
246.9183144495059
 21
-16.54317036381474
 31
0.0
  0
LINE
  5
4C6
  8
0
  6
DASHED2
 62
     7
 10
239.5183144495059
 20
-11.54317036381474
 30
0.0
 11
246.318314449506
 21
-11.54317036381474
 31
0.0
  0
LINE
  5
4C7
  8
0
  6
DASHED2
 62
     7
 10
238.9183144495059
 20
-16.54317036381474
 30
0.0
 11
238.9183144495059
 21
-28.54317036381474
 31
0.0
  0
LINE
  5
4C8
  8
0
  6
DASHED2
 62
     7
 10
239.5183144495059
 20
-11.54317036381474
 30
0.0
 11
239.5183144495059
 21
-28.54317036381474
 31
0.0
  0
LINE
  5
4C9
  8
0
  6
DASHED2
 62
     7
 10
239.5183144495059
 20
-11.54317036381474
 30
0.0
 11
242.9183144495058
 21
-9.580179448570071
 31
0.0
  0
LINE
  5
4CA
  8
0
  6
DASHED2
 62
     7
 10
246.318314449506
 20
-11.54317036381474
 30
0.0
 11
242.9183144495061
 21
-9.580179448570071
 31
0.0
  0
LINE
  5
4CB
  8
0
  6
DASHED2
 62
     7
 10
246.9183144495059
 20
-16.54317036381474
 30
0.0
 11
246.9183144495059
 21
-28.54317036381474
 31
0.0
  0
LINE
  5
4CC
  8
0
  6
DASHED2
 62
     7
 10
246.318314449506
 20
-11.54317036381474
 30
0.0
 11
246.318314449506
 21
-28.54317036381474
 31
0.0
  0
LINE
  5
4CD
  8
0
  6
DASHED2
 62
     7
 10
443.1516823694278
 20
120.738865463822
 30
0.0
 11
443.1516823694278
 21
98.45682963618526
 31
0.0
  0
LINE
  5
4CE
  8
0
  6
DASHED2
 62
     7
 10
418.4137520715763
 20
98.45682963618526
 30
0.0
 11
443.1516823694278
 21
98.45682963618526
 31
0.0
  0
LINE
  5
4CF
  8
0
  6
DASHED2
 62
     7
 10
443.1516823694278
 20
115.4568296361853
 30
0.0
 11
453.5373024866153
 21
115.4568296361853
 31
0.0
  0
LINE
  5
4D0
  8
0
  6
DASHED2
 62
     7
 10
443.1516823694278
 20
103.4568296361853
 30
0.0
 11
453.8487114831974
 21
103.4568296361853
 31
0.0
  0
LINE
  5
4D1
  8
0
  6
DASHED2
 62
     7
 10
433.6516823694278
 20
111.8568311620642
 30
0.0
 11
433.6516823694278
 21
107.0568281103064
 31
0.0
  0
LINE
  5
4D2
  8
0
  6
DASHED2
 62
     7
 10
440.7747826501895
 20
105.5068250585485
 30
0.0
 11
442.4610314294864
 21
105.5068250585485
 31
0.0
  0
LINE
  5
4D3
  8
0
  6
DASHED2
 62
     7
 10
440.7747826501895
 20
113.4068265844275
 30
0.0
 11
442.4610314294864
 21
113.4068265844275
 31
0.0
  0
LINE
  5
4D4
  8
0
  6
DASHED2
 62
     7
 10
435.9516854211856
 20
112.7568326879431
 30
0.0
 11
435.9516854211856
 21
106.156834213822
 31
0.0
  0
LINE
  5
4D5
  8
0
  6
DASHED2
 62
     7
 10
440.1516823694278
 20
112.8494153905798
 30
0.0
 11
440.1516823694278
 21
106.0642133642126
 31
0.0
  0
LINE
  5
4D6
  8
0
  6
DASHED2
 62
     7
 10
440.9156136438419
 20
111.4568296361853
 30
0.0
 11
442.3877510950138
 21
111.4568296361853
 31
0.0
  0
LINE
  5
4D7
  8
0
  6
DASHED2
 62
     7
 10
440.9156136438419
 20
107.4568296361853
 30
0.0
 11
442.3877510950138
 21
107.4568296361853
 31
0.0
  0
LINE
  5
4D8
  8
0
  6
DASHED2
 62
     7
 10
435.9516969438901
 20
106.1568449774298
 30
0.0
 11
433.65168944366
 21
107.0568477106846
 31
0.0
  0
LINE
  5
4D9
  8
0
  6
DASHED2
 62
     7
 10
433.6516751542064
 20
111.8568377972448
 30
0.0
 11
435.9516755496176
 21
112.7568377503536
 31
0.0
  0
LINE
  5
4DA
  8
0
  6
DASHED2
 62
     7
 10
436.9516854211856
 20
112.0699048925329
 30
0.0
 11
436.9516854211856
 21
106.7778669286657
 31
0.0
  0
LINE
  5
4DB
  8
0
  6
DASHED2
 62
     7
 10
443.1516823694278
 20
111.9568296361853
 30
0.0
 11
448.6071877405216
 21
111.9568296361853
 31
0.0
  0
LINE
  5
4DC
  8
0
  6
DASHED2
 62
     7
 10
443.1516823694278
 20
106.9568296361853
 30
0.0
 11
448.6580223962833
 21
106.9568296361853
 31
0.0
  0
LINE
  5
4DD
  8
0
  6
DASHED2
 62
     7
 10
443.1516823694278
 20
106.4568296361853
 30
0.0
 11
448.708857052045
 21
106.4568296361853
 31
0.0
  0
LINE
  5
4DE
  8
0
  6
DASHED2
 62
     7
 10
443.1516823694278
 20
112.4568296361853
 30
0.0
 11
448.6071877405216
 21
112.4568296361853
 31
0.0
  0
ARC
  5
4DF
  8
0
  6
DASHED2
 62
     7
 10
440.1516823694278
 20
109.4568296361853
 30
0.0
 40
3.0
 50
0.0
 51
41.81031315512681
  0
ARC
  5
4E0
  8
0
  6
DASHED2
 62
     7
 10
443.1516823694278
 20
109.4568296361853
 30
0.0
 40
3.0
 50
138.1896986840186
 51
221.8102840131373
  0
ARC
  5
4E1
  8
0
  6
DASHED2
 62
     7
 10
440.1516823694278
 20
109.4568296361853
 30
0.0
 40
3.0
 50
318.1896868448732
 51
360.0
  0
ARC
  5
4E2
  8
0
  6
DASHED2
 62
     7
 10
435.9516854211856
 20
109.4568296361853
 30
0.0
 40
3.299999952316284
 50
72.36029448230075
 51
89.99998201391055
  0
ARC
  5
4E3
  8
0
  6
DASHED2
 62
     7
 10
435.9516854211856
 20
109.4568296361853
 30
0.0
 40
3.299999952316284
 50
270.0000179860895
 51
287.6397055176993
  0
ARC
  5
4E4
  8
0
  6
DASHED2
 62
     7
 10
438.356203548627
 20
115.252796738236
 30
0.0
 40
3.0
 50
242.1068914535913
 51
306.7619948916871
  0
ARC
  5
4E5
  8
0
  6
DASHED2
 62
     7
 10
438.356203548627
 20
103.6608320165564
 30
0.0
 40
3.0
 50
53.23800510831291
 51
117.8898300556072
  0
ARC
  5
4E6
  8
0
  6
DASHED2
 62
     7
 10
441.08703088017
 20
112.4568296361853
 30
0.0
 40
1.0
 50
200.7154669700724
 51
270.0000179860891
  0
ARC
  5
4E7
  8
0
  6
DASHED2
 62
     7
 10
441.08703088017
 20
112.4568296361853
 30
0.0
 40
1.0
 50
108.1948751325835
 51
159.2845330299276
  0
ARC
  5
4E8
  8
0
  6
DASHED2
 62
     7
 10
441.08703088017
 20
106.4568296361853
 30
0.0
 40
1.0
 50
89.99998201391097
 51
159.2845330299276
  0
ARC
  5
4E9
  8
0
  6
DASHED2
 62
     7
 10
441.08703088017
 20
106.4568296361853
 30
0.0
 40
1.0
 50
200.7154669700724
 51
251.8051248674166
  0
ARC
  5
4EA
  8
0
  6
DASHED2
 62
     7
 10
442.1487755701114
 20
112.4568296361853
 30
0.0
 40
1.0
 50
0.0
 51
71.80513670656242
  0
ARC
  5
4EB
  8
0
  6
DASHED2
 62
     7
 10
442.1487755701114
 20
106.4568296361853
 30
0.0
 40
1.0
 50
0.0
 51
89.99998201391097
  0
ARC
  5
4EC
  8
0
  6
DASHED2
 62
     7
 10
442.1487755701114
 20
112.4568296361853
 30
0.0
 40
1.0
 50
270.0000179860891
 51
360.0
  0
ARC
  5
4ED
  8
0
  6
DASHED2
 62
     7
 10
442.1487755701114
 20
106.4568296361853
 30
0.0
 40
1.0
 50
288.1948632934378
 51
360.0
  0
ARC
  5
4EE
  8
0
  6
DASHED2
 62
     7
 10
434.1295647546817
 20
109.4568296361853
 30
0.0
 40
1.200000047683716
 50
113.4679724171302
 51
246.532017110215
  0
LINE
  5
4EF
  8
0
  6
DASHED2
 62
     7
 10
415.0800527149499
 20
55.66564929405823
 30
0.0
 11
415.2196719664482
 21
47.66686773280711
 31
0.0
  0
LINE
  5
4F0
  8
0
  6
DASHED2
 62
     7
 10
420.0897626345943
 20
55.15300270915083
 30
0.0
 11
420.2084389983678
 21
48.35403838208735
 31
0.0
  0
LINE
  5
4F1
  8
0
  6
DASHED2
 62
     7
 10
415.0800527149499
 20
55.66564929405823
 30
0.0
 11
403.0818803730732
 21
55.45622041681082
 31
0.0
  0
LINE
  5
4F2
  8
0
  6
DASHED2
 62
     7
 10
420.0897626345943
 20
55.15300270915083
 30
0.0
 11
403.0923518169356
 21
54.856311799717
 31
0.0
  0
LINE
  5
4F3
  8
0
  6
DASHED2
 62
     7
 10
420.0897626345943
 20
55.15300270915083
 30
0.0
 11
422.1117927587013
 21
51.78777946090474
 31
0.0
  0
LINE
  5
4F4
  8
0
  6
DASHED2
 62
     7
 10
420.2084389983678
 20
48.35403838208735
 30
0.0
 11
422.1117927587013
 21
51.78777946090452
 31
0.0
  0
LINE
  5
4F5
  8
0
  6
DASHED2
 62
     7
 10
415.2196719664482
 20
47.66686773280711
 30
0.0
 11
403.2214996245715
 21
47.45743885555969
 31
0.0
  0
LINE
  5
4F6
  8
0
  6
DASHED2
 62
     7
 10
420.2084389983678
 20
48.35403838208735
 30
0.0
 11
403.2110281807092
 21
48.05734747265353
 31
0.0
  0
LINE
  5
4F7
  8
0
  6
DIVIDE
 62
     9
 10
203.2183175012638
 20
78.456825821488
 30
0.0
 11
204.5471138879825
 21
78.456825821488
 31
0.0
  0
LINE
  5
4F8
  8
0
  6
DIVIDE
 62
     9
 10
202.7183175012638
 20
77.956825821488
 30
0.0
 11
202.7183175012638
 21
55.40971812495479
 31
0.0
  0
LINE
  5
4F9
  8
0
  6
DIVIDE
 62
     9
 10
264.7183098718692
 20
77.956825821488
 30
0.0
 11
264.7183098718692
 21
55.40971812495479
 31
0.0
  0
LINE
  5
4FA
  8
0
  6
DIVIDE
 62
     9
 10
203.2183224048304
 20
78.45682100457896
 30
0.0
 11
202.7183218740356
 21
77.95682047378421
 31
0.0
  0
LINE
  5
4FB
  8
0
  6
DIVIDE
 62
     9
 10
264.2183102859395
 20
78.45683044547286
 30
0.0
 11
264.7183108167343
 21
77.95682991467811
 31
0.0
  0
LINE
  5
4FC
  8
0
  6
DIVIDE
 62
     9
 10
259.310533992963
 20
78.456825821488
 30
0.0
 11
264.2183098718692
 21
78.456825821488
 31
0.0
  0
LINE
  5
4FD
  8
0
  6
CONTINUOUS
 62
     4
 10
279.7183098718692
 20
139.4568334508825
 30
0.0
 11
279.7183098718692
 21
133.456825821488
 31
0.0
  0
LINE
  5
4FE
  8
0
  6
CONTINUOUS
 62
     4
 10
278.7183098718692
 20
139.4568334508825
 30
0.0
 11
278.7183098718692
 21
133.456825821488
 31
0.0
  0
LINE
  5
4FF
  8
0
  6
CONTINUOUS
 62
     4
 10
278.7183098718692
 20
92.456825821488
 30
0.0
 11
278.7183098718692
 21
82.456825821488
 31
0.0
  0
LINE
  5
500
  8
0
  6
CONTINUOUS
 62
     4
 10
279.7183098718692
 20
92.456825821488
 30
0.0
 11
279.7183098718692
 21
82.456825821488
 31
0.0
  0
LINE
  5
501
  8
0
  6
CONTINUOUS
 62
     4
 10
266.2183098718692
 20
128.7568288732458
 30
0.0
 11
287.7183098718692
 21
128.7568288732458
 31
0.0
  0
LINE
  5
502
  8
0
  6
CONTINUOUS
 62
     4
 10
266.2183098718692
 20
122.1568227697302
 30
0.0
 11
287.7183098718692
 21
122.1568227697302
 31
0.0
  0
LINE
  5
503
  8
0
  6
CONTINUOUS
 62
     4
 10
266.2183098718692
 20
97.15683039912472
 30
0.0
 11
287.7183098718692
 21
97.15683039912472
 31
0.0
  0
LINE
  5
504
  8
0
  6
CONTINUOUS
 62
     4
 10
266.2183098718692
 20
103.7568212438513
 30
0.0
 11
287.7183098718692
 21
103.7568212438513
 31
0.0
  0
LINE
  5
505
  8
0
  6
CONTINUOUS
 62
     4
 10
243.7183098718692
 20
29.15682849177608
 30
0.0
 11
254.7183098718692
 21
29.15682849177608
 31
0.0
  0
LINE
  5
506
  8
0
  6
CONTINUOUS
 62
     4
 10
243.7183098718692
 20
73.75682124385128
 30
0.0
 11
254.7183098718692
 21
73.75682124385128
 31
0.0
  0
LINE
  5
507
  8
0
  6
CONTINUOUS
 62
     4
 10
267.7183098718692
 20
16.45682772883663
 30
0.0
 11
267.7183098718692
 21
10.45682987460384
 31
0.0
  0
LINE
  5
508
  8
0
  6
CONTINUOUS
 62
     4
 10
267.7183098718692
 20
10.45682987460384
 30
0.0
 11
280.7183098718692
 21
10.45682987460384
 31
0.0
  0
LINE
  5
509
  8
0
  6
CONTINUOUS
 62
     4
 10
267.7183098718692
 20
16.45682772883663
 30
0.0
 11
280.7183098718692
 21
16.45682772883663
 31
0.0
  0
LINE
  5
50A
  8
0
  6
CONTINUOUS
 62
     4
 10
221.7183098718692
 20
4.071827976791951
 30
0.0
 11
221.7183098718692
 21
-5.928172500045207
 31
0.0
  0
LINE
  5
50B
  8
0
  6
CONTINUOUS
 62
     4
 10
189.7183175012638
 20
-5.028170974166301
 30
0.0
 11
221.7183098718692
 21
-5.028170974166301
 31
0.0
  0
LINE
  5
50C
  8
0
  6
CONTINUOUS
 62
     4
 10
189.7183175012638
 20
3.171826450913045
 30
0.0
 11
221.7183098718692
 21
3.171826450913045
 31
0.0
  0
LINE
  5
50D
  8
0
  6
CONTINUOUS
 62
     4
 10
244.2183098718692
 20
71.95682963618526
 30
0.0
 11
247.7183098718692
 21
71.95682963618526
 31
0.0
  0
LINE
  5
50E
  8
0
  6
CONTINUOUS
 62
     4
 10
244.2183098718692
 20
68.95682963618526
 30
0.0
 11
247.7183098718692
 21
68.95682963618526
 31
0.0
  0
LINE
  5
50F
  8
0
  6
CONTINUOUS
 62
     4
 10
251.7183098718692
 20
72.45683345088253
 30
0.0
 11
254.7183098718692
 21
72.45683345088253
 31
0.0
  0
LINE
  5
510
  8
0
  6
CONTINUOUS
 62
     4
 10
251.7183098718692
 20
68.45682963618526
 30
0.0
 11
254.7183098718692
 21
68.45682963618526
 31
0.0
  0
LINE
  5
511
  8
0
  6
CONTINUOUS
 62
     4
 10
247.9683098718692
 20
71.95682963618526
 30
0.0
 11
251.7183098718692
 21
71.95682963618526
 31
0.0
  0
LINE
  5
512
  8
0
  6
CONTINUOUS
 62
     4
 10
247.9683098718692
 20
68.95682963618526
 30
0.0
 11
251.7183098718692
 21
68.95682963618526
 31
0.0
  0
LINE
  5
513
  8
0
  6
CONTINUOUS
 62
     4
 10
470.1516899988224
 20
137.9568296361853
 30
0.0
 11
476.6516899988224
 21
137.9568296361853
 31
0.0
  0
LINE
  5
514
  8
0
  6
CONTINUOUS
 62
     4
 10
489.6516899988224
 20
137.9568296361853
 30
0.0
 11
496.1516899988224
 21
137.9568296361853
 31
0.0
  0
LINE
  5
515
  8
0
  6
CONTINUOUS
 62
     4
 10
470.1516899988224
 20
83.95682963618526
 30
0.0
 11
476.6516899988224
 21
83.95682963618526
 31
0.0
  0
LINE
  5
516
  8
0
  6
CONTINUOUS
 62
     4
 10
489.6516899988224
 20
83.95682963618526
 30
0.0
 11
496.1516899988224
 21
83.95682963618526
 31
0.0
  0
LINE
  5
517
  8
0
  6
CONTINUOUS
 62
     4
 10
489.6516899988224
 20
136.4568296361853
 30
0.0
 11
496.1516899988224
 21
136.4568296361853
 31
0.0
  0
LINE
  5
518
  8
0
  6
CONTINUOUS
 62
     4
 10
489.6516899988224
 20
134.9568296361853
 30
0.0
 11
496.1516899988224
 21
134.9568296361853
 31
0.0
  0
LINE
  5
519
  8
0
  6
CONTINUOUS
 62
     4
 10
489.6516899988224
 20
133.4568296361853
 30
0.0
 11
496.1516899988224
 21
133.4568296361853
 31
0.0
  0
LINE
  5
51A
  8
0
  6
CONTINUOUS
 62
     4
 10
489.6516899988224
 20
131.9568296361853
 30
0.0
 11
496.1516899988224
 21
131.9568296361853
 31
0.0
  0
LINE
  5
51B
  8
0
  6
CONTINUOUS
 62
     4
 10
489.6516899988224
 20
130.4568296361853
 30
0.0
 11
496.1516899988224
 21
130.4568296361853
 31
0.0
  0
LINE
  5
51C
  8
0
  6
CONTINUOUS
 62
     4
 10
489.6516899988224
 20
85.45682963618526
 30
0.0
 11
496.1516899988224
 21
85.45682963618526
 31
0.0
  0
LINE
  5
51D
  8
0
  6
CONTINUOUS
 62
     4
 10
489.6516899988224
 20
86.95682963618526
 30
0.0
 11
496.1516899988224
 21
86.95682963618526
 31
0.0
  0
LINE
  5
51E
  8
0
  6
CONTINUOUS
 62
     4
 10
489.6516899988224
 20
88.45682963618526
 30
0.0
 11
496.1516899988224
 21
88.45682963618526
 31
0.0
  0
LINE
  5
51F
  8
0
  6
CONTINUOUS
 62
     4
 10
489.6516899988224
 20
89.95682963618526
 30
0.0
 11
496.1516899988224
 21
89.95682963618526
 31
0.0
  0
LINE
  5
520
  8
0
  6
CONTINUOUS
 62
     4
 10
489.6516899988224
 20
91.45682963618526
 30
0.0
 11
496.1516899988224
 21
91.45682963618526
 31
0.0
  0
LINE
  5
521
  8
0
  6
CONTINUOUS
 62
     4
 10
470.1516899988224
 20
85.45682963618526
 30
0.0
 11
476.6516899988224
 21
85.45682963618526
 31
0.0
  0
LINE
  5
522
  8
0
  6
CONTINUOUS
 62
     4
 10
470.1516899988224
 20
86.95682963618526
 30
0.0
 11
476.6516899988224
 21
86.95682963618526
 31
0.0
  0
LINE
  5
523
  8
0
  6
CONTINUOUS
 62
     4
 10
470.1516899988224
 20
88.45682963618526
 30
0.0
 11
476.6516899988224
 21
88.45682963618526
 31
0.0
  0
LINE
  5
524
  8
0
  6
CONTINUOUS
 62
     4
 10
470.1516899988224
 20
89.95682963618526
 30
0.0
 11
476.6516899988224
 21
89.95682963618526
 31
0.0
  0
LINE
  5
525
  8
0
  6
CONTINUOUS
 62
     4
 10
470.1516899988224
 20
91.45682963618526
 30
0.0
 11
476.6516899988224
 21
91.45682963618526
 31
0.0
  0
LINE
  5
526
  8
0
  6
CONTINUOUS
 62
     4
 10
470.1516899988224
 20
136.4568296361853
 30
0.0
 11
476.6516899988224
 21
136.4568296361853
 31
0.0
  0
LINE
  5
527
  8
0
  6
CONTINUOUS
 62
     4
 10
470.1516899988224
 20
134.9568296361853
 30
0.0
 11
476.6516899988224
 21
134.9568296361853
 31
0.0
  0
LINE
  5
528
  8
0
  6
CONTINUOUS
 62
     4
 10
470.1516899988224
 20
133.4568296361853
 30
0.0
 11
476.6516899988224
 21
133.4568296361853
 31
0.0
  0
LINE
  5
529
  8
0
  6
CONTINUOUS
 62
     4
 10
470.1516899988224
 20
131.9568296361853
 30
0.0
 11
476.6516899988224
 21
131.9568296361853
 31
0.0
  0
LINE
  5
52A
  8
0
  6
CONTINUOUS
 62
     4
 10
470.1516899988224
 20
130.4568296361853
 30
0.0
 11
476.6516899988224
 21
130.4568296361853
 31
0.0
  0
CIRCLE
  5
52B
  8
0
  6
CONTINUOUS
 62
     4
 10
450.2427163049747
 20
32.4568315435339
 30
0.0
 40
3.0
  0
CIRCLE
  5
52C
  8
0
  6
CONTINUOUS
 62
     4
 10
450.2427163049747
 20
70.45682963618526
 30
0.0
 40
3.0
  0
CIRCLE
  5
52D
  8
0
  6
CONTINUOUS
 62
     4
 10
516.0606560632755
 20
70.45682963618526
 30
0.0
 40
3.0
  0
CIRCLE
  5
52E
  8
0
  6
CONTINUOUS
 62
     4
 10
516.0606560632755
 20
32.45682963618526
 30
0.0
 40
3.0
  0
ARC
  5
52F
  8
0
  6
CONTINUOUS
 62
     4
 10
483.1516899988224
 20
51.45682963618526
 30
0.0
 40
39.0
 50
112.6198814882679
 51
139.4102261679432
  0
ARC
  5
530
  8
0
  6
CONTINUOUS
 62
     4
 10
483.1516899988224
 20
51.45682963618526
 30
0.0
 40
39.0
 50
292.6198764793116
 51
319.3873605158349
  0
ARC
  5
531
  8
0
  6
CONTINUOUS
 62
     4
 10
483.1516899988224
 20
51.45682963618526
 30
0.0
 40
45.0
 50
289.4712275738274
 51
307.943440033181
  0
ARC
  5
532
  8
0
  6
CONTINUOUS
 62
     4
 10
483.1516899988224
 20
51.45682963618526
 30
0.0
 40
45.0
 50
109.4712394129729
 51
127.943472362894
  0
ARC
  5
533
  8
0
  6
CONTINUOUS
 62
     4
 10
483.1516899988224
 20
51.45682963618526
 30
0.0
 40
45.0
 50
322.0565608774353
 51
397.9434357074699
  0
ARC
  5
534
  8
0
  6
CONTINUOUS
 62
     4
 10
483.1516899988224
 20
51.45682963618526
 30
0.0
 40
39.0
 50
340.441271783332
 51
379.2463546376193
  0
ARC
  5
535
  8
0
  6
CONTINUOUS
 62
     4
 10
483.1516899988224
 20
51.45682963618526
 30
0.0
 40
39.0
 50
40.9770881329933
 51
67.38012352068844
  0
ARC
  5
536
  8
0
  6
CONTINUOUS
 62
     4
 10
483.1516899988224
 20
51.45682963618526
 30
0.0
 40
45.0
 50
52.05655996681898
 51
70.52876559598344
  0
ARC
  5
537
  8
0
  6
CONTINUOUS
 62
     4
 10
483.1516899988224
 20
51.45682963618526
 30
0.0
 40
45.0
 50
142.0565829618647
 51
217.9433997352913
  0
ARC
  5
538
  8
0
  6
CONTINUOUS
 62
     4
 10
483.1516899988224
 20
51.45682963618526
 30
0.0
 40
39.0
 50
162.611955306748
 51
198.1387334820841
  0
ARC
  5
539
  8
0
  6
CONTINUOUS
 62
     4
 10
483.1516899988224
 20
51.45682963618526
 30
0.0
 40
39.0
 50
221.0073032960197
 51
247.3801253419213
  0
ARC
  5
53A
  8
0
  6
CONTINUOUS
 62
     4
 10
483.1516899988224
 20
51.45682963618526
 30
0.0
 40
45.0
 50
232.056527637106
 51
250.5287605870271
  0
CIRCLE
  5
53B
  8
0
  6
CONTINUOUS
 62
     4
 10
483.1516899988224
 20
51.45682963618526
 30
0.0
 40
22.39999961853027
  0
CIRCLE
  5
53C
  8
0
  6
CONTINUOUS
 62
     4
 10
483.1516899988224
 20
70.45682963618526
 30
0.0
 40
2.0
  0
CIRCLE
  5
53D
  8
0
  6
CONTINUOUS
 62
     4
 10
466.6972069665958
 20
41.95682963618526
 30
0.0
 40
2.0
  0
CIRCLE
  5
53E
  8
0
  6
CONTINUOUS
 62
     4
 10
499.6061730310489
 20
41.95682963618526
 30
0.0
 40
2.0
  0
TEXT
  5
53F
  8
0
 62
     7
 10
342.3243889734317
 20
57.39798259028682
 30
0.0
 40
4.0
  1
MIN 23
 50
90.0
 41
0.6857142857142859
  7
FDASTYLE1
 72
     5
 11
342.3243889734317
 21
73.85512544742969
 31
0.0
  0
TEXT
  5
540
  8
0
 62
     7
 10
209.6150216028263
 20
-57.3663286279749
 30
0.0
 40
4.0
  1
MIN19.8
 41
0.6367346938775508
  7
FDASTYLE1
 72
     5
 11
227.4435930313977
 21
-57.3663286279749
 31
0.0
  0
TEXT
  5
541
  8
0
 62
     7
 10
173.9335030481388
 20
151.5393377233435
 30
0.0
 40
4.0
  1
MIN-3.2
 41
0.6693877551020405
  7
FDASTYLE1
 72
     5
 11
192.6763601909959
 21
151.5393377233435
 31
0.0
  0
TEXT
  5
542
  8
0
 62
     7
 10
613.2667866340053
 20
-143.1099009069087
 30
0.0
 40
3.0
  1
標　準
 41
0.6666666666666604
  7
FDASTYLE1
 72
     5
 11
620.4667866340052
 21
-143.1099009069087
 31
0.0
  0
LINE
  5
543
  8
LAYER0001
  6
CONTINUOUS
 62
     7
 10
279.7183098718692
 20
156.459381668656
 30
0.0
 11
273.0084710046817
 21
156.459381668656
 31
0.0
  0
LINE
  5
544
  8
LAYER0001
  6
CONTINUOUS
 62
     7
 10
201.7183175012638
 20
-65.79577580204716
 30
0.0
 11
188.3508858606388
 21
-65.79577580204716
 31
0.0
  0
LINE
  5
545
  8
LAYER0001
  6
CONTINUOUS
 62
     7
 10
205.9183144495059
 20
156.2819219518591
 30
0.0
 11
174.3896584436466
 21
156.2819219518591
 31
0.0
  0
LINE
  5
546
  8
LAYER0001
  6
CONTINUOUS
 62
     7
 10
280.7183098718692
 20
-51.76996174565068
 30
0.0
 11
294.3649849817325
 21
-51.76996174565068
 31
0.0
  0
INSERT
  5
547
  8
LAYER0001
  6
CONTINUOUS
  2
DC_GROUP_1
 10
0.0
 20
0.0
 30
0.0
  0
INSERT
  5
548
  8
LAYER0001
  6
CONTINUOUS
  2
DC_GROUP_4
 10
0.0
 20
0.0
 30
0.0
  0
INSERT
  5
549
  8
LAYER0001
  6
CONTINUOUS
  2
DC_GROUP_7
 10
0.0
 20
0.0
 30
0.0
  0
INSERT
  5
54A
  8
LAYER0001
  6
CONTINUOUS
  2
DC_GROUP_10
 10
0.0
 20
0.0
 30
0.0
  0
INSERT
  5
54B
  8
LAYER0001
  6
CONTINUOUS
  2
DC_GROUP_13
 10
0.0
 20
0.0
 30
0.0
  0
INSERT
  5
54C
  8
LAYER0001
  6
CONTINUOUS
  2
DC_GROUP_15
 10
0.0
 20
0.0
 30
0.0
  0
INSERT
  5
54D
  8
LAYER0001
  6
CONTINUOUS
  2
DC_GROUP_17
 10
0.0
 20
0.0
 30
0.0
  0
INSERT
  5
54E
  8
LAYER0001
  6
CONTINUOUS
  2
DC_GROUP_20
 10
0.0
 20
0.0
 30
0.0
  0
INSERT
  5
54F
  8
LAYER0001
  6
CONTINUOUS
  2
DC_GROUP_23
 10
0.0
 20
0.0
 30
0.0
  0
INSERT
  5
550
  8
LAYER0001
  6
CONTINUOUS
  2
DC_GROUP_26
 10
0.0
 20
0.0
 30
0.0
  0
INSERT
  5
551
  8
LAYER0001
  6
CONTINUOUS
  2
DC_GROUP_28
 10
0.0
 20
0.0
 30
0.0
  0
INSERT
  5
552
  8
LAYER0001
  6
CONTINUOUS
  2
DC_GROUP_31
 10
0.0
 20
0.0
 30
0.0
  0
INSERT
  5
553
  8
LAYER0001
  6
CONTINUOUS
  2
DC_GROUP_34
 10
0.0
 20
0.0
 30
0.0
  0
INSERT
  5
554
  8
LAYER0001
  6
CONTINUOUS
  2
DC_GROUP_37
 10
0.0
 20
0.0
 30
0.0
  0
INSERT
  5
555
  8
LAYER0001
  6
CONTINUOUS
  2
DC_GROUP_40
 10
0.0
 20
0.0
 30
0.0
  0
INSERT
  5
556
  8
LAYER0001
  6
CONTINUOUS
  2
DC_GROUP_42
 10
0.0
 20
0.0
 30
0.0
  0
INSERT
  5
557
  8
LAYER0001
  6
CONTINUOUS
  2
DC_GROUP_45
 10
0.0
 20
0.0
 30
0.0
  0
INSERT
  5
558
  8
LAYER0001
  6
CONTINUOUS
  2
DC_GROUP_48
 10
0.0
 20
0.0
 30
0.0
  0
INSERT
  5
559
  8
LAYER0001
  6
CONTINUOUS
  2
DC_GROUP_51
 10
0.0
 20
0.0
 30
0.0
  0
INSERT
  5
55A
  8
LAYER0001
  6
CONTINUOUS
  2
DC_GROUP_54
 10
0.0
 20
0.0
 30
0.0
  0
INSERT
  5
55B
  8
LAYER0001
  6
CONTINUOUS
  2
DC_GROUP_57
 10
0.0
 20
0.0
 30
0.0
  0
INSERT
  5
55C
  8
LAYER0001
  6
CONTINUOUS
  2
DC_GROUP_60
 10
0.0
 20
0.0
 30
0.0
  0
INSERT
  5
55D
  8
LAYER0001
  6
CONTINUOUS
  2
DC_GROUP_63
 10
0.0
 20
0.0
 30
0.0
  0
INSERT
  5
55E
  8
LAYER0001
  6
CONTINUOUS
  2
DC_GROUP_66
 10
0.0
 20
0.0
 30
0.0
  0
INSERT
  5
55F
  8
LAYER0001
  6
CONTINUOUS
  2
DC_GROUP_69
 10
0.0
 20
0.0
 30
0.0
  0
INSERT
  5
560
  8
LAYER0001
  6
CONTINUOUS
  2
DC_GROUP_72
 10
0.0
 20
0.0
 30
0.0
  0
INSERT
  5
561
  8
LAYER0001
  6
CONTINUOUS
  2
DC_GROUP_75
 10
0.0
 20
0.0
 30
0.0
  0
INSERT
  5
562
  8
LAYER0001
  6
CONTINUOUS
  2
DC_GROUP_78
 10
0.0
 20
0.0
 30
0.0
  0
INSERT
  5
563
  8
LAYER0001
  6
CONTINUOUS
  2
DC_GROUP_81
 10
0.0
 20
0.0
 30
0.0
  0
INSERT
  5
564
  8
LAYER0001
  6
CONTINUOUS
  2
DC_GROUP_84
 10
0.0
 20
0.0
 30
0.0
  0
INSERT
  5
565
  8
LAYER0001
  6
CONTINUOUS
  2
DC_GROUP_86
 10
0.0
 20
0.0
 30
0.0
  0
INSERT
  5
566
  8
LAYER0001
  6
CONTINUOUS
  2
DC_GROUP_89
 10
0.0
 20
0.0
 30
0.0
  0
INSERT
  5
567
  8
LAYER0001
  6
CONTINUOUS
  2
DC_GROUP_92
 10
0.0
 20
0.0
 30
0.0
  0
INSERT
  5
568
  8
LAYER0001
  6
CONTINUOUS
  2
DC_GROUP_95
 10
0.0
 20
0.0
 30
0.0
  0
INSERT
  5
569
  8
LAYER0001
  6
CONTINUOUS
  2
DC_GROUP_97
 10
0.0
 20
0.0
 30
0.0
  0
LINE
  5
56A
  8
0
  6
CONTINUOUS
 62
     6
 10
255.2687306812558
 20
-172.3863878258071
 30
0.0
 11
400.0806584766659
 21
-172.3863878258071
 31
0.0
  0
LINE
  5
56B
  8
0
  6
CONTINUOUS
 62
     6
 10
255.2687306812558
 20
-164.3863878258071
 30
0.0
 11
400.0806584766659
 21
-164.3863878258071
 31
0.0
  0
LINE
  5
56C
  8
0
  6
CONTINUOUS
 62
     6
 10
255.2687306812558
 20
-156.3863878258071
 30
0.0
 11
400.0806584766659
 21
-156.3863878258071
 31
0.0
  0
LINE
  5
56D
  8
0
  6
CONTINUOUS
 62
     6
 10
255.2687306812558
 20
-148.3863878258071
 30
0.0
 11
400.0806584766659
 21
-148.3863878258071
 31
0.0
  0
LINE
  5
56E
  8
0
  6
CONTINUOUS
 62
     6
 10
255.2687306812558
 20
-140.3863878258071
 30
0.0
 11
400.0806584766659
 21
-140.3863878258071
 31
0.0
  0
LINE
  5
56F
  8
0
  6
CONTINUOUS
 62
     6
 10
255.2687306812558
 20
-132.3863878258071
 30
0.0
 11
400.0806584766659
 21
-132.3863878258071
 31
0.0
  0
LINE
  5
570
  8
0
  6
CONTINUOUS
 62
     6
 10
255.2687306812558
 20
-124.3863878258071
 30
0.0
 11
400.0806584766659
 21
-124.3863878258071
 31
0.0
  0
LINE
  5
571
  8
0
  6
CONTINUOUS
 62
     6
 10
255.2687306812558
 20
-116.3863878258071
 30
0.0
 11
400.0806584766659
 21
-116.3863878258071
 31
0.0
  0
LINE
  5
572
  8
0
  6
CONTINUOUS
 62
     6
 10
255.2687306812558
 20
-108.3863878258071
 30
0.0
 11
400.0806584766659
 21
-108.3863878258071
 31
0.0
  0
LINE
  5
573
  8
0
  6
CONTINUOUS
 62
     6
 10
255.2687306812558
 20
-100.3863878258071
 30
0.0
 11
271.2687306812558
 21
-100.3863878258071
 31
0.0
  0
TEXT
  5
574
  8
0
 62
     6
 10
257.8401586225781
 20
-170.7197313316664
 30
0.0
 40
4.0
  1
アンバランス量
 41
0.6638419631282793
  7
FDASTYLE1
 72
     5
 11
280.1452485836883
 21
-170.7197313316664
 31
0.0
  0
TEXT
  5
575
  8
0
 62
     6
 10
257.8401586225781
 20
-162.7197313316664
 30
0.0
 40
4.0
  1
質 量
 41
0.60647527043494
  7
FDASTYLE1
 72
     5
 11
266.0882223004933
 21
-162.7197313316664
 31
0.0
  0
TEXT
  5
576
  8
0
 62
     6
 10
257.8401586225781
 20
-154.7197313316664
 30
0.0
 40
4.0
  1
慣性モーメント
 41
0.6638419631282793
  7
FDASTYLE1
 72
     5
 11
280.1452485836883
 21
-154.7197313316664
 31
0.0
  0
TEXT
  5
577
  8
0
 62
     6
 10
257.8401586225781
 20
-146.7197313316664
 30
0.0
 40
4.0
  1
最高使用回転速度
 41
0.6650247841349815
  7
FDASTYLE1
 72
     5
 11
283.3771103333614
 21
-146.7197313316664
 31
0.0
  0
TEXT
  5
578
  8
0
 62
     6
 10
257.8401586225781
 20
-138.7197313316664
 30
0.0
 40
4.0
  1
最大静的把握力
 41
0.6638419631282793
  7
FDASTYLE1
 72
     5
 11
280.1452485836883
 21
-138.7197313316664
 31
0.0
  0
TEXT
  5
579
  8
0
 62
     6
 10
257.8401586225781
 20
-130.7197313316664
 30
0.0
 40
4.0
  1
許容シリンダ力
 41
0.6638419631282793
  7
FDASTYLE1
 72
     5
 11
280.1452485836883
 21
-130.7197313316664
 31
0.0
  0
TEXT
  5
57A
  8
0
 62
     6
 10
257.8401586225781
 20
-122.7197313316664
 30
0.0
 40
4.0
  1
推奨シリンダ
 41
0.6622518130451897
  7
FDASTYLE1
 72
     5
 11
276.9130108382796
 21
-122.7197313316664
 31
0.0
  0
TEXT
  5
57B
  8
0
 62
     6
 10
257.8401586225781
 20
-114.7197313316664
 30
0.0
 40
4.0
  1
ピストンストローク
 41
0.6659390169707115
  7
FDASTYLE1
 72
     5
 11
286.6087241557128
 21
-114.7197313316664
 31
0.0
  0
TEXT
  5
57C
  8
0
 62
     6
 10
257.8401586225781
 20
-106.7197313316664
 30
0.0
 40
4.0
  1
爪ﾉｽﾄﾛｰｸ
 41
0.6268397317836794
  7
FDASTYLE1
 72
     5
 11
275.8931428979481
 21
-106.7197313316664
 31
0.0
  0
TEXT
  5
57D
  8
0
 62
     6
 10
257.8401586225781
 20
-98.71973133166642
 30
0.0
 40
4.0
  1
仕 様
 41
0.60647527043494
  7
FDASTYLE1
 72
     5
 11
266.0882223004933
 21
-98.71973133166642
 31
0.0
  0
TEXT
  5
57E
  8
0
 62
     6
 10
349.2487126997265
 20
-106.4444017418227
 30
0.0
 40
4.0
  1
(直径ﾆﾃ) 32 mm
 41
0.6191858398121763
  7
FDASTYLE1
 72
     5
 11
379.9603303544105
 21
-106.4444017418227
 31
0.0
  0
TEXT
  5
57F
  8
0
 62
     6
 10
377.2881642988476
 20
-114.2241258629164
 30
0.0
 40
4.0
  1
20 mm
 41
0.8332228179823205
  7
FDASTYLE1
 72
     5
 11
393.952620658494
 21
-114.2241258629164
 31
0.0
  0
TEXT
  5
580
  8
0
 62
     6
 10
365.0357991865429
 20
-122.5004320152602
 30
0.0
 40
4.0
  1
36TS-TA1型
 41
0.625832000338474
  7
FDASTYLE1
 72
     5
 11
388.0664167989988
 21
-122.5004320152602
 31
0.0
  0
TEXT
  5
581
  8
0
 62
     6
 10
369.3168660810742
 20
-130.445698738893
 30
0.0
 40
4.0
  1
12.5 kN
 41
0.6289730665868214
  7
FDASTYLE1
 72
     5
 11
386.9281119455052
 21
-130.445698738893
 31
0.0
  0
TEXT
  5
582
  8
0
 62
     6
 10
369.3060933759961
 20
-138.3909502037367
 30
0.0
 40
4.0
  1
13.2 kN
 41
0.6289730665868214
  7
FDASTYLE1
 72
     5
 11
386.9173392404271
 21
-138.3909502037367
 31
0.0
  0
TEXT
  5
583
  8
0
 62
     6
 10
365.6621267011914
 20
-146.3362169273696
 30
0.0
 40
4.0
  1
3500 min
 41
0.6933675281693734
  7
FDASTYLE1
 72
     5
 11
387.8498876026113
 21
-146.3362169273696
 31
0.0
  0
TEXT
  5
584
  8
0
 62
     6
 10
397.3764127305303
 20
-143.8362168677649
 30
0.0
 40
2.0
  1
-1
 41
0.5892859038098806
  7
FDASTYLE1
 72
     5
 11
399.7335563457698
 21
-143.8362168677649
 31
0.0
  0
TEXT
  5
585
  8
0
 62
     6
 10
357.2321263960156
 20
-154.4469957359633
 30
0.0
 40
4.0
  1
 0.04 kg・m
 41
0.6254768818636797
  7
FDASTYLE1
 72
     5
 11
382.7515831760537
 21
-154.4469957359633
 31
0.0
  0
TEXT
  5
586
  8
0
 62
     6
 10
396.9464124253544
 20
-151.9469956763587
 30
0.0
 40
2.0
  1
2
 41
0.4761906862258911
  7
FDASTYLE1
 72
     5
 11
397.8987937978062
 21
-151.9469956763587
 31
0.0
  0
TEXT
  5
587
  8
0
 62
     6
 10
377.7573720625195
 20
-162.3922624595961
 30
0.0
 40
4.0
  1
12 kg
 41
0.6358805716180853
  7
FDASTYLE1
 72
     5
 11
390.4749834948812
 21
-162.3922624595961
 31
0.0
  0
TEXT
  5
588
  8
0
 62
     6
 10
349.0179235151562
 20
-170.5030412681899
 30
0.0
 40
4.0
  1
外周ﾆﾃ   3 g以内
 41
0.6078924744357139
  7
FDASTYLE1
 72
     5
 11
380.1420182062648
 21
-170.5030412681899
 31
0.0
  0
TEXT
  5
589
  8
0
 62
     6
 10
296.5422113350186
 20
-130.3537034996352
 30
0.0
 40
3.0
  1
36TS-TA1型 引側使用圧 2.3 MPa
 41
0.6091621897424968
  7
FDASTYLE1
 72
     5
 11
340.7673863103238
 21
-130.3537034996352
 31
0.0
  0
INSERT
  5
58A
  8
0
  6
CONTINUOUS
  2
DC_GROUP_100
 10
0.0
 20
0.0
 30
0.0
  0
INSERT
  5
58B
  8
0
  6
CONTINUOUS
  2
DC_GROUP_102
 10
0.0
 20
0.0
 30
0.0
  0
INSERT
  5
58C
  8
0
  6
CONTINUOUS
  2
DC_GROUP_105
 10
0.0
 20
0.0
 30
0.0
  0
INSERT
  5
58D
  8
0
  6
CONTINUOUS
  2
DC_GROUP_106
 10
0.0
 20
0.0
 30
0.0
  0
INSERT
  5
58E
  8
0
  6
CONTINUOUS
  2
DC_GROUP_109
 10
0.0
 20
0.0
 30
0.0
  0
LINE
  5
58F
  8
0
  6
CENTER
 62
     5
 10
473.4671807214786
 20
125.4568296361853
 30
0.0
 11
492.7742485925724
 21
125.4568296361853
 31
0.0
  0
LINE
  5
590
  8
0
  6
CONTINUOUS
 62
     2
 10
446.1098899447002
 20
19.11505079781603
 30
0.0
 11
442.0395707415933
 21
16.76505666589048
 31
0.0
  0
LINE
  5
591
  8
0
  6
CONTINUOUS
 62
     2
 10
442.0395684167911
 20
16.76504620799312
 30
0.0
 11
442.0395684167911
 21
12.06504711398372
 31
0.0
  0
LINE
  5
592
  8
0
  6
CONTINUOUS
 62
     2
 10
442.0395599643975
 20
12.06504278520004
 30
0.0
 11
446.1098746852381
 21
9.715040949379159
 31
0.0
  0
LINE
  5
593
  8
0
  6
CONTINUOUS
 62
     2
 10
446.1099219706207
 20
9.715004602733075
 30
0.0
 11
450.1802411737276
 21
12.06499887472944
 31
0.0
  0
LINE
  5
594
  8
0
  6
CONTINUOUS
 62
     2
 10
450.1802086755802
 20
12.06503948458919
 30
0.0
 11
450.1802086755802
 21
16.76503857859859
 31
0.0
  0
LINE
  5
595
  8
0
  6
CONTINUOUS
 62
     2
 10
450.1801946554156
 20
16.76504028463785
 30
0.0
 11
446.1098810551416
 21
19.11504436159191
 31
0.0
  0
LINE
  5
596
  8
0
  6
CONTINUOUS
 62
     2
 10
483.1516855515795
 20
-19.04316814891456
 30
0.0
 11
480.1205958582716
 21
-20.79316679290889
 31
0.0
  0
LINE
  5
597
  8
0
  6
CONTINUOUS
 62
     2
 10
486.1827532282362
 20
-20.79316214150447
 30
0.0
 11
483.1516652038583
 21
-19.04316068119067
 31
0.0
  0
LINE
  5
598
  8
0
  6
CONTINUOUS
 62
     2
 10
480.120592586713
 20
-20.79317036381474
 30
0.0
 11
480.120592586713
 21
-24.29317036381474
 31
0.0
  0
LINE
  5
599
  8
0
  6
CONTINUOUS
 62
     2
 10
480.1205934335249
 20
-24.29316349016074
 30
0.0
 11
483.1516820837515
 21
-26.04316390739325
 31
0.0
  0
LINE
  5
59A
  8
0
  6
CONTINUOUS
 62
     2
 10
483.1516579334732
 20
-26.04317966273595
 30
0.0
 11
486.1827470009323
 21
-24.29317997566034
 31
0.0
  0
LINE
  5
59B
  8
0
  6
CONTINUOUS
 62
     2
 10
486.1827721521427
 20
-24.29317036381474
 30
0.0
 11
486.1827721521427
 21
-20.79317036381474
 31
0.0
  0
LINE
  5
59C
  8
0
  6
CONTINUOUS
 62
     2
 10
483.1516826534792
 20
5.95684094849014
 30
0.0
 11
480.1205929601713
 21
4.206842304495808
 31
0.0
  0
LINE
  5
59D
  8
0
  6
CONTINUOUS
 62
     2
 10
486.1827850933621
 20
4.206825846447487
 30
0.0
 11
483.1516904617368
 21
5.956831121461732
 31
0.0
  0
LINE
  5
59E
  8
0
  6
CONTINUOUS
 62
     2
 10
480.120592586713
 20
4.206832020371053
 30
0.0
 11
480.120592586713
 21
0.7068315435338946
 31
0.0
  0
LINE
  5
59F
  8
0
  6
CONTINUOUS
 62
     2
 10
480.1205835748442
 20
0.7068437174337987
 30
0.0
 11
483.1516788323197
 21
-1.04316051449689
 31
0.0
  0
LINE
  5
5A0
  8
0
  6
CONTINUOUS
 62
     2
 10
483.1516699842496
 20
-1.043165874641204
 30
0.0
 11
486.1827590517087
 21
0.7068338124344109
 31
0.0
  0
LINE
  5
5A1
  8
0
  6
CONTINUOUS
 62
     2
 10
486.1827721521427
 20
0.7068315435338946
 30
0.0
 11
486.1827721521427
 21
4.206832020371053
 31
0.0
  0
LINE
  5
5A2
  8
0
  6
CONTINUOUS
 62
     2
 10
483.1516747081378
 20
103.9568236978832
 30
0.0
 11
480.12058501483
 21
102.2068250538889
 31
0.0
  0
LINE
  5
5A3
  8
0
  6
CONTINUOUS
 62
     2
 10
486.1827730523792
 20
102.2068125470468
 30
0.0
 11
483.1516850280014
 21
103.9568140073606
 31
0.0
  0
LINE
  5
5A4
  8
0
  6
CONTINUOUS
 62
     2
 10
480.120592586713
 20
102.2068296361853
 30
0.0
 11
480.120592586713
 21
98.70682963618526
 31
0.0
  0
LINE
  5
5A5
  8
0
  6
CONTINUOUS
 62
     2
 10
480.120587544046
 20
98.70681089526204
 30
0.0
 11
483.1516761942726
 21
96.95681047802952
 31
0.0
  0
LINE
  5
5A6
  8
0
  6
CONTINUOUS
 62
     2
 10
483.1516636425078
 20
96.9568308328445
 30
0.0
 11
486.1827394954673
 21
98.70682289052695
 31
0.0
  0
LINE
  5
5A7
  8
0
  6
CONTINUOUS
 62
     2
 10
486.1827721521427
 20
98.70682963618526
 30
0.0
 11
486.1827721521427
 21
102.2068296361853
 31
0.0
  0
LINE
  5
5A8
  8
0
  6
CONTINUOUS
 62
     2
 10
483.1516944928118
 20
128.9568392839325
 30
0.0
 11
480.1206047995039
 21
127.2068406399382
 31
0.0
  0
LINE
  5
5A9
  8
0
  6
CONTINUOUS
 62
     2
 10
486.1827467115943
 20
127.2067989015615
 30
0.0
 11
483.1516586872165
 21
128.9568003618753
 31
0.0
  0
LINE
  5
5AA
  8
0
  6
CONTINUOUS
 62
     2
 10
480.120592586713
 20
127.2068296361853
 30
0.0
 11
480.120592586713
 21
123.7068296361853
 31
0.0
  0
LINE
  5
5AB
  8
0
  6
CONTINUOUS
 62
     2
 10
480.1205875962387
 20
123.7068123808093
 30
0.0
 11
483.1516795500898
 21
121.9568100562277
 31
0.0
  0
LINE
  5
5AC
  8
0
  6
CONTINUOUS
 62
     2
 10
483.1516816537476
 20
121.9568342971114
 30
0.0
 11
486.1827707212067
 21
123.706833984187
 31
0.0
  0
LINE
  5
5AD
  8
0
  6
CONTINUOUS
 62
     2
 10
486.1827721521427
 20
123.7068296361853
 30
0.0
 11
486.1827721521427
 21
127.2068296361853
 31
0.0
  0
CIRCLE
  5
5AE
  8
0
  6
CONTINUOUS
 62
     2
 10
446.1098885461856
 20
14.41504368075619
 30
0.0
 40
8.0
  0
CIRCLE
  5
5AF
  8
0
  6
CONTINUOUS
 62
     2
 10
483.1516899988224
 20
-22.54317036381474
 30
0.0
 40
6.5
  0
CIRCLE
  5
5B0
  8
0
  6
CONTINUOUS
 62
     2
 10
483.1516899988224
 20
2.456829636185262
 30
0.0
 40
6.5
  0
CIRCLE
  5
5B1
  8
0
  6
CONTINUOUS
 62
     2
 10
483.1516899988224
 20
100.4568296361853
 30
0.0
 40
6.5
  0
CIRCLE
  5
5B2
  8
0
  6
CONTINUOUS
 62
     2
 10
483.1516899988224
 20
125.4568296361853
 30
0.0
 40
6.5
  0
TEXT
  5
5B3
  8
0
 62
     5
 10
419.6516899988224
 20
80.24253722914943
 30
0.0
 40
5.0
  1
NIKKO
 50
-90.00000000000001
 41
0.635880610320819
  7
FDASTYLE1
 72
     5
 11
419.6516899988224
 21
64.34552197112896
 31
0.0
  0
TEXT
  5
5B4
  8
0
 62
     5
 10
420.1516899988224
 20
45.88541325816402
 30
0.0
 40
4.0
  1
GO2-6
 50
-90.00000000000001
 41
0.7528241726104283
  7
FDASTYLE1
 72
     5
 11
420.1516899988224
 21
30.82892980595545
 31
0.0
  0
TEXT
  5
5B5
  8
0
 62
     5
 10
413.6516899988224
 20
45.52827009448299
 30
0.0
 40
3.0
  1
0001
 50
-90.00000000000001
 41
0.6190477764350817
  7
FDASTYLE1
 72
     5
 11
413.6516899988224
 21
38.09969677726201
 31
0.0
  0
TEXT
  5
5B6
  8
0
 62
     5
 10
544.6517052576114
 20
24.34041687735805
 30
0.0
 40
3.0
  1
F MAX  12KN
 50
90.0
 41
0.7537931293627206
  7
FDASTYLE1
 72
     5
 11
544.6517052576114
 21
49.21559014632783
 31
0.0
  0
TEXT
  5
5B7
  8
0
 62
     5
 10
548.6516899988224
 20
24.34041878470669
 30
0.0
 40
3.0
  1
ΣS MAX 13KN
 50
90.0
 41
0.646366484547994
  7
FDASTYLE1
 72
     5
 11
548.6516899988224
 21
46.05833266551929
 31
0.0
  0
TEXT
  5
5B8
  8
0
 62
     5
 10
552.6517052576114
 20
24.34041497000942
 30
0.0
 40
3.0
  1
N MAX 3500 AT ΣS MAX
 50
90.0
 41
0.6445640416448272
  7
FDASTYLE1
 72
     5
 11
552.6517052576114
 21
63.40099589368595
 31
0.0
  0
VIEWPORT
  5
48
 67
     1
  8
0
 10
356.5723937454768
 20
0.0
 30
0.0
 40
1662.0
 41
1140.0
 68
     1
 69
     1
1001
ACAD
1000
MVIEW
1002
{
1070
    16
1010
0.0
1020
0.0
1030
0.0
1020
0.0
1030
0.0
1010
0.0
1020
0.0
1030
1.0
1020
0.0
1030
1.0
1040
0.0
1040
1140.0
1040
356.5723937454768
1040
0.0
1040
50.0
1040
0.0
1040
0.0
1070
     0
1070
   100
1070
     0
1070
     1
1070
     0
1070
     0
1070
     0
1070
     0
1040
0.0
1040
0.0
1040
0.0
1040
0.5
1040
0.5
1040
0.0
1040
0.0
1070
     0
1002
{
1002
}
1002
}
  0
ENDSEC
  0
EOF
