  0
SECTION
  2
HEADER
  9
$ACADVER
  1
AC1009
  9
$DWGCODEPAGE
  3
ansi_932
  9
$INSBASE
 10
0.0
 20
0.0
 30
0.0
  9
$EXTMIN
 10
-831.0
 20
-570.0
 30
0.0
  9
$EXTMAX
 10
831.0
 20
570.0
 30
0.0
  9
$LIMMIN
 10
-297.25
 20
-210.25
  9
$LIMMAX
 10
297.25
 20
210.25
  9
$ORTHOMODE
 70
     0
  9
$REGENMODE
 70
     1
  9
$FILLMODE
 70
     1
  9
$QTEXTMODE
 70
     0
  9
$MIRRTEXT
 70
     1
  9
$DRAGMODE
 70
     2
  9
$LTSCALE
 40
0.5
  9
$OSMODE
 70
    37
  9
$ATTMODE
 70
     1
  9
$TEXTSIZE
 40
0.2
  9
$TRACEWID
 40
0.05
  9
$TEXTSTYLE
  7
STANDARD
  9
$CLAYER
  8
0
  9
$CELTYPE
  6
BYLAYER
  9
$CECOLOR
 62
   256
  9
$DIMSCALE
 40
1.0
  9
$DIMASZ
 40
1.25
  9
$DIMEXO
 40
0.0625
  9
$DIMDLI
 40
0.38
  9
$DIMRND
 40
0.0
  9
$DIMDLE
 40
0.0
  9
$DIMEXE
 40
0.18
  9
$DIMTP
 40
0.0
  9
$DIMTM
 40
0.0
  9
$DIMTXT
 40
0.18
  9
$DIMCEN
 40
0.09
  9
$DIMTSZ
 40
0.0
  9
$DIMTOL
 70
     0
  9
$DIMLIM
 70
     0
  9
$DIMTIH
 70
     1
  9
$DIMTOH
 70
     1
  9
$DIMSE1
 70
     0
  9
$DIMSE2
 70
     0
  9
$DIMTAD
 70
     3
  9
$DIMZIN
 70
     0
  9
$DIMBLK
  1

  9
$DIMASO
 70
     1
  9
$DIMSHO
 70
     1
  9
$DIMPOST
  1

  9
$DIMAPOST
  1

  9
$DIMALT
 70
     0
  9
$DIMALTD
 70
     2
  9
$DIMALTF
 40
25.4
  9
$DIMLFAC
 40
1.0
  9
$DIMTOFL
 70
     0
  9
$DIMTVP
 40
0.0
  9
$DIMTIX
 70
     0
  9
$DIMSOXD
 70
     0
  9
$DIMSAH
 70
     0
  9
$DIMBLK1
  1

  9
$DIMBLK2
  1

  9
$DIMSTYLE
  2
STANDARD
  9
$DIMCLRD
 70
     0
  9
$DIMCLRE
 70
     0
  9
$DIMCLRT
 70
     0
  9
$DIMTFAC
 40
1.0
  9
$DIMGAP
 40
0.09
  9
$LUNITS
 70
     2
  9
$LUPREC
 70
     4
  9
$SKETCHINC
 40
0.1
  9
$FILLETRAD
 40
0.5
  9
$AUNITS
 70
     0
  9
$AUPREC
 70
     0
  9
$MENU
  1
.
  9
$ELEVATION
 40
0.0
  9
$PELEVATION
 40
0.0
  9
$THICKNESS
 40
0.0
  9
$LIMCHECK
 70
     0
  9
$CHAMFERA
 40
0.5
  9
$CHAMFERB
 40
0.5
  9
$SKPOLY
 70
     0
  9
$TDCREATE
 40
2456329.652866424
  9
$TDUPDATE
 40
2456329.652866435
  9
$TDINDWG
 40
0.0000000116
  9
$TDUSRTIMER
 40
0.0000000116
  9
$USRTIMER
 70
     1
  9
$ANGBASE
 50
0.0
  9
$ANGDIR
 70
     0
  9
$PDMODE
 70
     0
  9
$PDSIZE
 40
1.0
  9
$PLINEWID
 40
0.0
  9
$COORDS
 70
     1
  9
$SPLFRAME
 70
     0
  9
$SPLINETYPE
 70
     6
  9
$SPLINESEGS
 70
     8
  9
$ATTDIA
 70
     0
  9
$ATTREQ
 70
     1
  9
$HANDLING
 70
     1
  9
$HANDSEED
  5
628
  9
$SURFTAB1
 70
     6
  9
$SURFTAB2
 70
     6
  9
$SURFTYPE
 70
     6
  9
$SURFU
 70
     6
  9
$SURFV
 70
     6
  9
$UCSNAME
  2

  9
$UCSORG
 10
0.0
 20
0.0
 30
0.0
  9
$UCSXDIR
 10
1.0
 20
0.0
 30
0.0
  9
$UCSYDIR
 10
0.0
 20
1.0
 30
0.0
  9
$PUCSNAME
  2

  9
$PUCSORG
 10
0.0
 20
0.0
 30
0.0
  9
$PUCSXDIR
 10
1.0
 20
0.0
 30
0.0
  9
$PUCSYDIR
 10
0.0
 20
1.0
 30
0.0
  9
$USERI1
 70
     0
  9
$USERI2
 70
     0
  9
$USERI3
 70
     0
  9
$USERI4
 70
     0
  9
$USERI5
 70
     0
  9
$USERR1
 40
0.0
  9
$USERR2
 40
0.0
  9
$USERR3
 40
0.0
  9
$USERR4
 40
0.0
  9
$USERR5
 40
0.0
  9
$WORLDVIEW
 70
     1
  9
$SHADEDGE
 70
     3
  9
$SHADEDIF
 70
    70
  9
$TILEMODE
 70
     1
  9
$MAXACTVP
 70
    64
  9
$PLIMCHECK
 70
     0
  9
$PEXTMIN
 10
1.000000000000000E+20
 20
1.000000000000000E+20
 30
1.000000000000000E+20
  9
$PEXTMAX
 10
-1.000000000000000E+20
 20
-1.000000000000000E+20
 30
-1.000000000000000E+20
  9
$PLIMMIN
 10
0.0
 20
0.0
  9
$PLIMMAX
 10
12.0
 20
9.0
  9
$UNITMODE
 70
     0
  9
$VISRETAIN
 70
     0
  9
$PLINEGEN
 70
     1
  9
$PSLTSCALE
 70
     0
  0
ENDSEC
  0
SECTION
  2
TABLES
  0
TABLE
  2
VPORT
 70
     1
  0
VPORT
  2
*ACTIVE
 70
     0
 10
0.0
 20
0.0
 11
1.0
 21
1.0
 12
0.0
 22
0.0
 13
0.0
 23
0.0
 14
0.5
 24
0.5
 15
0.5
 25
0.5
 16
0.0
 26
0.0
 36
1.0
 17
-0.0000000000000036
 27
0.0
 37
0.0
 40
387.6
 41
1.457894736842105
 42
50.0
 43
0.0
 44
0.0
 50
0.0
 51
0.0
 71
     0
 72
  1000
 73
     1
 74
     1
 75
     0
 76
     0
 77
     0
 78
     0
  0
ENDTAB
  0
TABLE
  2
LTYPE
 70
    28
  0
LTYPE
  2
CONTINUOUS
 70
     0
  3
Solid line
 72
    65
 73
     0
 40
0.0
  0
LTYPE
  2
HIDDENX2
 70
     0
  3
CADPAC LINETYPE
 72
    65
 73
     2
 40
19.81154299175501
 49
14.85865724381625
 49
-4.952885747938751
  0
LTYPE
  2
HIDDEN
 70
     0
  3
CADPAC LINETYPE
 72
    65
 73
     2
 40
14.85865724381625
 49
9.905771495877502
 49
-4.952885747938751
  0
LTYPE
  2
HIDDEN2
 70
     0
  3
CADPAC LINETYPE
 72
    65
 73
     2
 40
12.38221436984688
 49
7.429328621908127
 49
-4.952885747938751
  0
LTYPE
  2
DASHED
 70
     0
  3
CADPAC LINETYPE
 72
    65
 73
     2
 40
13.8680800942285
 49
9.905771495877502
 49
-3.962308598351001
  0
LTYPE
  2
DASHED2
 70
     0
  3
CADPAC LINETYPE
 72
    65
 73
     2
 40
8.915194346289582
 49
5.943462897526388
 49
-2.971731448763194
  0
LTYPE
  2
DASHEDX2
 70
     0
  3
CADPAC LINETYPE
 72
    65
 73
     2
 40
23.77385159010601
 49
19.81154299175501
 49
-3.962308598351001
  0
LTYPE
  2
DOTX2
 70
     0
  3
CADPAC LINETYPE
 72
    65
 73
     2
 40
8.667550058892743
 49
0.0
 49
-8.667550058892743
  0
LTYPE
  2
DOT
 70
     0
  3
CADPAC LINETYPE
 72
    65
 73
     2
 40
6.934040047114195
 49
0.0
 49
-6.934040047114195
  0
LTYPE
  2
DOT2
 70
     0
  3
CADPAC LINETYPE
 72
    65
 73
     2
 40
5.200530035335646
 49
0.0
 49
-5.200530035335646
  0
LTYPE
  2
CENTERX2
 70
     0
  3
CADPAC LINETYPE
 72
    65
 73
     4
 40
29.71731448763251
 49
12.38221436984688
 49
-6.191107184923439
 49
4.952885747938751
 49
-6.191107184923439
  0
LTYPE
  2
CENTER
 70
     0
  3
CADPAC LINETYPE
 72
    65
 73
     4
 40
22.78327444051826
 49
9.905771495877502
 49
-4.952885747938751
 49
2.971731448763251
 49
-4.952885747938751
  0
LTYPE
  2
CENTER2
 70
     0
  3
CADPAC LINETYPE
 72
    65
 73
     4
 40
15.849234393404
 49
7.429328621908127
 49
-3.714664310954063
 49
0.9905771495877502
 49
-3.714664310954063
  0
LTYPE
  2
DASHDOTX2
 70
     0
  3
CADPAC LINETYPE
 72
    65
 73
     4
 40
47.54770318021156
 49
23.77385159010589
 49
-7.924617196701888
 49
7.924617196701888
 49
-7.924617196701888
  0
LTYPE
  2
DASHDOT
 70
     0
  3
CADPAC LINETYPE
 72
    65
 73
     4
 40
23.77385159010601
 49
11.886925795053
 49
-3.962308598351001
 49
3.962308598351001
 49
-3.962308598351001
  0
LTYPE
  2
DASHDOT2
 70
     0
  3
CADPAC LINETYPE
 72
    65
 73
     4
 40
15.25488810365135
 49
8.915194346289752
 49
-2.971731448763251
 49
0.3962308598351001
 49
-2.971731448763251
  0
LTYPE
  2
DIVIDEX2
 70
     0
  3
CADPAC LINETYPE
 72
    65
 73
     6
 40
63.39693757361533
 49
23.77385159010589
 49
-7.924617196701888
 49
7.924617196701888
 49
-7.924617196701888
 49
7.924617196701888
 49
-7.924617196701888
  0
LTYPE
  2
DIVIDE
 70
     0
  3
CADPAC LINETYPE
 72
    65
 73
     6
 40
31.69846878680801
 49
11.886925795053
 49
-3.962308598351001
 49
3.962308598351001
 49
-3.962308598351001
 49
3.962308598351001
 49
-3.962308598351001
  0
LTYPE
  2
DIVIDE2
 70
     0
  3
CADPAC LINETYPE
 72
    65
 73
     6
 40
23.77385159010601
 49
8.915194346289752
 49
-2.971731448763251
 49
2.971731448763251
 49
-2.971731448763251
 49
2.971731448763251
 49
-2.971731448763251
  0
LTYPE
  2
BORDERX2
 70
     0
  3
CADPAC LINETYPE
 72
    65
 73
     6
 40
43.33775029446407
 49
12.38221436984688
 49
-6.191107184923439
 49
12.38221436984688
 49
-6.191107184923439
 49
0.0
 49
-6.191107184923439
  0
LTYPE
  2
BORDER
 70
     0
  3
CADPAC LINETYPE
 72
    65
 73
     6
 40
34.67020023557126
 49
9.905771495877502
 49
-4.952885747938751
 49
9.905771495877502
 49
-4.952885747938751
 49
0.0
 49
-4.952885747938751
  0
LTYPE
  2
BORDER2
 70
     0
  3
CADPAC LINETYPE
 72
    65
 73
     6
 40
25.75500588928122
 49
7.924617196701888
 49
-4.952885747938694
 49
2.971731448763194
 49
-4.952885747938694
 49
0.0
 49
-4.952885747938751
  0
LTYPE
  2
PHANTOMX2
 70
     0
  3
CADPAC LINETYPE
 72
    65
 73
     6
 40
37.14664310954063
 49
12.38221436984688
 49
-4.952885747938751
 49
4.952885747938751
 49
-4.952885747938751
 49
4.952885747938751
 49
-4.952885747938751
  0
LTYPE
  2
PHANTOM
 70
     0
  3
CADPAC LINETYPE
 72
    65
 73
     6
 40
30.70789163722026
 49
9.905771495877502
 49
-4.952885747938751
 49
2.971731448763251
 49
-4.952885747938751
 49
2.971731448763251
 49
-4.952885747938751
  0
LTYPE
  2
PHANTOM2
 70
     0
  3
CADPAC LINETYPE
 72
    65
 73
     6
 40
26.25029446407538
 49
7.429328621908127
 49
-4.952885747938751
 49
1.981154299175501
 49
-4.952885747938751
 49
1.981154299175501
 49
-4.952885747938751
  0
LTYPE
  2
ACAD_ISO06W100
 70
     0
  3
CADPAC LINETYPE
 72
    65
 73
     8
 40
52.50058892815025
 49
23.77385159010589
 49
-4.952885747938694
 49
2.971731448763194
 49
-4.952885747938694
 49
2.971731448763194
 49
-4.952885747938694
 49
2.971731448763194
 49
-4.952885747938694
  0
LTYPE
  2
ACAD_ISO13W100
 70
     0
  3
CADPAC LINETYPE
 72
    65
 73
     8
 40
39.62308598351001
 49
9.905771495877502
 49
-4.952885747938751
 49
9.905771495877502
 49
-4.952885747938751
 49
0.0
 49
-4.952885747938751
 49
0.0
 49
-4.952885747938751
  0
LTYPE
  2
ACAD_ISO14W100
 70
     0
  3
CADPAC LINETYPE
 72
    65
 73
     8
 40
29.71731448763251
 49
9.905771495877502
 49
-4.952885747938751
 49
0.0
 49
-4.952885747938751
 49
0.0
 49
-4.952885747938751
 49
0.0
 49
-4.952885747938751
  0
ENDTAB
  0
TABLE
  2
LAYER
 70
     3
  0
LAYER
  2
0
 70
     0
 62
     7
  6
CONTINUOUS
  0
LAYER
  2
LAYER0014
 70
     0
 62
     7
  6
CONTINUOUS
  0
LAYER
  2
LAYER0002
 70
     0
 62
     7
  6
CONTINUOUS
  0
ENDTAB
  0
TABLE
  2
STYLE
 70
     5
  0
STYLE
  2
STANDARD
 70
     0
 40
0.0
 41
1.0
 50
0.0
 71
     0
 42
0.2
  3
txt
  4

  0
STYLE
  2
FDASTYLE1
 70
     0
 40
0.0
 41
0.55873015873016
 50
0.0
 71
     0
 42
0.2
  3
txt.shx
  4
bigfont
  0
STYLE
  2
FDASTYLE0
 70
     4
 40
0.0
 41
0.8
 50
0.0
 71
     0
 42
0.2
  3
txt.shx
  4
bigfont
  0
STYLE
  2
FDASTYLE2
 70
     0
 40
0.0
 41
0.8123476848090984
 50
0.0
 71
     0
 42
0.2
  3
MSMINCHO.TTC
  4

  0
STYLE
  2
FDASTYLE3
 70
     0
 40
0.0
 41
0.6684336356141793
 50
0.0
 71
     0
 42
0.2
  3
MSGOTHIC.TTC
  4

  0
ENDTAB
  0
TABLE
  2
VIEW
 70
     0
  0
ENDTAB
  0
TABLE
  2
UCS
 70
     0
  0
ENDTAB
  0
TABLE
  2
APPID
 70
     2
  0
APPID
  2
ACAD
 70
     0
  0
APPID
  2
DAFUSIONOUT
 70
     0
  0
ENDTAB
  0
TABLE
  2
DIMSTYLE
 70
     1
  0
DIMSTYLE
  2
STANDARD
 70
     0
  3

  4

  5

  6

  7

 40
1.0
 41
0.18
 42
0.0625
 43
0.38
 44
0.18
 45
0.0
 46
0.0
 47
0.0
 48
0.0
140
0.18
141
0.09
142
0.0
143
25.4
144
1.0
145
0.0
146
1.0
147
0.09
 71
     0
 72
     0
 73
     1
 74
     1
 75
     0
 76
     0
 77
     0
 78
     0
170
     0
171
     2
172
     0
173
     0
174
     0
175
     0
176
     0
177
     0
178
     0
  0
ENDTAB
  0
ENDSEC
  0
SECTION
  2
BLOCKS
  0
BLOCK
  8
0
  2
$MODEL_SPACE
 70
     0
 10
0.0
 20
0.0
 30
0.0
  3
$MODEL_SPACE
  1

  0
ENDBLK
  5
21
  8
0
  0
BLOCK
 67
     1
  8
0
  2
$PAPER_SPACE
 70
     0
 10
0.0
 20
0.0
 30
0.0
  3
$PAPER_SPACE
  1

  0
ENDBLK
  5
1D
 67
     1
  8
0
  0
BLOCK
  8
0
  2
DC_GROUP_1
 70
     0
 10
0.0
 20
0.0
 30
0.0
  3
DC_GROUP_1
  1

  0
LINE
  5
1A8
  8
LAYER0014
  6
CONTINUOUS
 62
     7
 10
-80.10191518467852
 20
14.56282203924803
 30
0.0
 11
-77.60191518467852
 21
14.56282203924803
 31
0.0
  0
LINE
  5
1A9
  8
LAYER0014
  6
CONTINUOUS
 62
     7
 10
-62.78307836117217
 20
14.56282203924803
 30
0.0
 11
-77.60191518467852
 21
14.56282203924803
 31
0.0
  0
LINE
  5
1AA
  8
LAYER0014
  6
CONTINUOUS
 62
     7
 10
-85.10191518467852
 20
14.56282203924803
 30
0.0
 11
-80.10191518467852
 21
14.56282203924803
 31
0.0
  0
INSERT
  5
1AB
  8
LAYER0014
  6
CONTINUOUS
  2
DC_GROUP_2
 10
0.0
 20
0.0
 30
0.0
  0
INSERT
  5
1AC
  8
LAYER0014
  6
CONTINUOUS
  2
DC_GROUP_3
 10
0.0
 20
0.0
 30
0.0
  0
TEXT
  5
1AE
  8
LAYER0014
 62
     7
 10
-73.38307836117217
 20
15.56282203924803
 30
0.0
 40
4.0
  1
2.5
 50
-0.1000000000000078
 41
0.55873015873016
  7
FDASTYLE1
 72
     5
 11
-66.67832666834401
 21
15.55112002810905
 31
0.0
  0
ENDBLK
  5
4E
  8
0
  0
BLOCK
  8
0
  2
DC_GROUP_2
 70
     0
 10
0.0
 20
0.0
 30
0.0
  3
DC_GROUP_2
  1

  0
LINE
  5
1AF
  8
LAYER0014
  6
CONTINUOUS
 62
     7
 10
-75.60191677704785
 20
14.02692250435042
 30
0.0
 11
-77.60191518467852
 21
14.56282203924803
 31
0.0
  0
LINE
  5
1B0
  8
LAYER0014
  6
CONTINUOUS
 62
     7
 10
-77.60191518467852
 20
14.56282203924803
 30
0.0
 11
-75.60191677704785
 21
15.09872157414564
 31
0.0
  0
LINE
  5
1B1
  8
LAYER0014
  6
CONTINUOUS
 62
     7
 10
-77.60191518467852
 20
14.56282203924803
 30
0.0
 11
-75.60191677704785
 21
14.56282203924803
 31
0.0
  0
ENDBLK
  5
51
  8
0
  0
BLOCK
  8
0
  2
DC_GROUP_3
 70
     0
 10
0.0
 20
0.0
 30
0.0
  3
DC_GROUP_3
  1

  0
LINE
  5
1B2
  8
LAYER0014
  6
CONTINUOUS
 62
     7
 10
-82.10191359230917
 20
15.09872157414564
 30
0.0
 11
-80.10191518467852
 21
14.56282203924803
 31
0.0
  0
LINE
  5
1B3
  8
LAYER0014
  6
CONTINUOUS
 62
     7
 10
-80.10191518467852
 20
14.56282203924803
 30
0.0
 11
-82.10191359230917
 21
14.02692250435042
 31
0.0
  0
LINE
  5
1B4
  8
LAYER0014
  6
CONTINUOUS
 62
     7
 10
-80.10191518467852
 20
14.56282203924803
 30
0.0
 11
-82.10191359230917
 21
14.56282203924803
 31
0.0
  0
ENDBLK
  5
54
  8
0
  0
BLOCK
  8
0
  2
DC_GROUP_4
 70
     0
 10
0.0
 20
0.0
 30
0.0
  3
DC_GROUP_4
  1

  0
LINE
  5
1B5
  8
LAYER0014
  6
CONTINUOUS
 62
     7
 10
-154.9636467520613
 20
68.49063080084471
 30
0.0
 11
-201.6019304434676
 21
68.49063080084471
 31
0.0
  0
LINE
  5
1B6
  8
LAYER0014
  6
CONTINUOUS
 62
     7
 10
-154.9636467520613
 20
-1.509367291806662
 30
0.0
 11
-201.6019304434676
 21
-1.509367291806662
 31
0.0
  0
LINE
  5
1B7
  8
LAYER0014
  6
CONTINUOUS
 62
     7
 10
-200.6019304434676
 20
68.49063080084471
 30
0.0
 11
-200.6019304434676
 21
-1.509367291806662
 31
0.0
  0
INSERT
  5
1B8
  8
LAYER0014
  6
BORDER
  2
DC_GROUP_5
 10
0.0
 20
0.0
 30
0.0
  0
INSERT
  5
1B9
  8
LAYER0014
  6
BORDER
  2
DC_GROUP_6
 10
0.0
 20
0.0
 30
0.0
  0
TEXT
  5
1BA
  8
LAYER0014
 62
     7
 10
-202.2019304434676
 20
25.49063266050961
 30
0.0
 40
4.0
  1
φ70
 50
90.0
 41
0.6093750000000009
  7
FDASTYLE1
 72
     5
 11
-202.2019304434676
 21
33.29063266050962
 31
0.0
  0
TEXT
  5
1BB
  8
LAYER0014
 62
     7
 10
-204.4019304434676
 20
36.09063266050963
 30
0.0
 40
2.2
  1
+0.5
 50
90.0
 41
0.657142857142855
  7
FDASTYLE1
 72
     5
 11
-204.4019304434676
 21
41.87348980336675
 31
0.0
  0
TEXT
  5
1BC
  8
LAYER0014
 62
     7
 10
-202.0019304434676
 20
36.09063266050963
 30
0.0
 40
2.2
  1
+0.2
 50
90.0
 41
0.657142857142855
  7
FDASTYLE1
 72
     5
 11
-202.0019304434676
 21
41.87348980336675
 31
0.0
  0
ENDBLK
  5
57
  8
0
  0
BLOCK
  8
0
  2
DC_GROUP_5
 70
     0
 10
0.0
 20
0.0
 30
0.0
  3
DC_GROUP_5
  1

  0
LINE
  5
1BD
  8
LAYER0014
  6
CONTINUOUS
 62
     7
 10
-201.1378299783652
 20
66.49063239321406
 30
0.0
 11
-200.6019304434676
 21
68.49063080084471
 31
0.0
  0
LINE
  5
1BE
  8
LAYER0014
  6
CONTINUOUS
 62
     7
 10
-200.6019304434676
 20
68.49063080084471
 30
0.0
 11
-200.06603090857
 21
66.49063239321406
 31
0.0
  0
LINE
  5
1BF
  8
LAYER0014
  6
CONTINUOUS
 62
     7
 10
-200.6019304434676
 20
68.49063080084471
 30
0.0
 11
-200.6019304434676
 21
66.49063239321406
 31
0.0
  0
ENDBLK
  5
5A
  8
0
  0
BLOCK
  8
0
  2
DC_GROUP_6
 70
     0
 10
0.0
 20
0.0
 30
0.0
  3
DC_GROUP_6
  1

  0
LINE
  5
1C0
  8
LAYER0014
  6
CONTINUOUS
 62
     7
 10
-200.06603090857
 20
0.4906311158239998
 30
0.0
 11
-200.6019304434676
 21
-1.509367291806662
 31
0.0
  0
LINE
  5
1C1
  8
LAYER0014
  6
CONTINUOUS
 62
     7
 10
-200.6019304434676
 20
-1.509367291806662
 30
0.0
 11
-201.1378299783652
 21
0.490631115824
 31
0.0
  0
LINE
  5
1C2
  8
LAYER0014
  6
CONTINUOUS
 62
     7
 10
-200.6019304434676
 20
-1.509367291806662
 30
0.0
 11
-200.6019304434676
 21
0.4906311158239999
 31
0.0
  0
ENDBLK
  5
5D
  8
0
  0
BLOCK
  8
0
  2
DC_GROUP_7
 70
     0
 10
0.0
 20
0.0
 30
0.0
  3
DC_GROUP_7
  1

  0
LINE
  5
1C3
  8
LAYER0014
  6
CONTINUOUS
 62
     7
 10
-220.6019304434676
 20
-15.50936729180666
 30
0.0
 11
-220.6019304434676
 21
82.49063080084471
 31
0.0
  0
LINE
  5
1C4
  8
LAYER0014
  6
CONTINUOUS
 62
     7
 10
-173.1419151846785
 20
-15.50936729180666
 30
0.0
 11
-221.6019304434676
 21
-15.50936729180666
 31
0.0
  0
LINE
  5
1C5
  8
LAYER0014
  6
CONTINUOUS
 62
     7
 10
-173.1419151846785
 20
82.49063080084471
 30
0.0
 11
-221.6019304434676
 21
82.49063080084471
 31
0.0
  0
INSERT
  5
1C6
  8
LAYER0014
  6
BORDER
  2
DC_GROUP_8
 10
0.0
 20
0.0
 30
0.0
  0
INSERT
  5
1C7
  8
LAYER0014
  6
BORDER
  2
DC_GROUP_9
 10
0.0
 20
0.0
 30
0.0
  0
TEXT
  5
1C8
  8
LAYER0014
 62
     7
 10
-221.6019304434676
 20
25.49063175451903
 30
0.0
 40
4.0
  1
φ98H7
 50
90.0
 41
0.6213017751479295
  7
FDASTYLE1
 72
     5
 11
-221.6019304434676
 21
38.41370867759596
 31
0.0
  0
ENDBLK
  5
60
  8
0
  0
BLOCK
  8
0
  2
DC_GROUP_8
 70
     0
 10
0.0
 20
0.0
 30
0.0
  3
DC_GROUP_8
  1

  0
LINE
  5
1C9
  8
LAYER0014
  6
CONTINUOUS
 62
     7
 10
-220.06603090857
 20
-13.509368884176
 30
0.0
 11
-220.6019304434676
 21
-15.50936729180666
 31
0.0
  0
LINE
  5
1CA
  8
LAYER0014
  6
CONTINUOUS
 62
     7
 10
-220.6019304434676
 20
-15.50936729180666
 30
0.0
 11
-221.1378299783652
 21
-13.509368884176
 31
0.0
  0
LINE
  5
1CB
  8
LAYER0014
  6
CONTINUOUS
 62
     7
 10
-220.6019304434676
 20
-15.50936729180666
 30
0.0
 11
-220.6019304434676
 21
-13.509368884176
 31
0.0
  0
ENDBLK
  5
63
  8
0
  0
BLOCK
  8
0
  2
DC_GROUP_9
 70
     0
 10
0.0
 20
0.0
 30
0.0
  3
DC_GROUP_9
  1

  0
LINE
  5
1CC
  8
LAYER0014
  6
CONTINUOUS
 62
     7
 10
-221.1378299783652
 20
80.49063239321404
 30
0.0
 11
-220.6019304434676
 21
82.49063080084471
 31
0.0
  0
LINE
  5
1CD
  8
LAYER0014
  6
CONTINUOUS
 62
     7
 10
-220.6019304434676
 20
82.49063080084471
 30
0.0
 11
-220.06603090857
 21
80.49063239321404
 31
0.0
  0
LINE
  5
1CE
  8
LAYER0014
  6
CONTINUOUS
 62
     7
 10
-220.6019304434676
 20
82.49063080084471
 30
0.0
 11
-220.6019304434676
 21
80.49063239321404
 31
0.0
  0
ENDBLK
  5
66
  8
0
  0
BLOCK
  8
0
  2
DC_GROUP_10
 70
     0
 10
0.0
 20
0.0
 30
0.0
  3
DC_GROUP_10
  1

  0
LINE
  5
1CF
  8
LAYER0014
  6
CONTINUOUS
 62
     7
 10
-240.6019304434676
 20
-79.00936919915529
 30
0.0
 11
-240.6019304434676
 21
145.9906384302392
 31
0.0
  0
LINE
  5
1D0
  8
LAYER0014
  6
CONTINUOUS
 62
     7
 10
-191.1419151846785
 20
-79.00936919915529
 30
0.0
 11
-241.6019304434676
 21
-79.00936919915529
 31
0.0
  0
LINE
  5
1D1
  8
LAYER0014
  6
CONTINUOUS
 62
     7
 10
-191.1419151846785
 20
145.9906384302392
 30
0.0
 11
-241.6019304434676
 21
145.9906384302392
 31
0.0
  0
INSERT
  5
1D2
  8
LAYER0014
  6
BORDER
  2
DC_GROUP_11
 10
0.0
 20
0.0
 30
0.0
  0
INSERT
  5
1D3
  8
LAYER0014
  6
BORDER
  2
DC_GROUP_12
 10
0.0
 20
0.0
 30
0.0
  0
TEXT
  5
1D4
  8
LAYER0014
 62
     7
 10
-241.6019304434676
 20
27.09063461554197
 30
0.0
 40
4.0
  1
φ225
 50
90.0
 41
0.6167800453514754
  7
FDASTYLE1
 72
     5
 11
-241.6019304434676
 21
37.45253937744676
 31
0.0
  0
ENDBLK
  5
69
  8
0
  0
BLOCK
  8
0
  2
DC_GROUP_11
 70
     0
 10
0.0
 20
0.0
 30
0.0
  3
DC_GROUP_11
  1

  0
LINE
  5
1D5
  8
LAYER0014
  6
CONTINUOUS
 62
     7
 10
-240.06603090857
 20
-77.00937079152463
 30
0.0
 11
-240.6019304434676
 21
-79.00936919915529
 31
0.0
  0
LINE
  5
1D6
  8
LAYER0014
  6
CONTINUOUS
 62
     7
 10
-240.6019304434676
 20
-79.00936919915529
 30
0.0
 11
-241.1378299783652
 21
-77.00937079152463
 31
0.0
  0
LINE
  5
1D7
  8
LAYER0014
  6
CONTINUOUS
 62
     7
 10
-240.6019304434676
 20
-79.00936919915529
 30
0.0
 11
-240.6019304434676
 21
-77.00937079152463
 31
0.0
  0
ENDBLK
  5
6C
  8
0
  0
BLOCK
  8
0
  2
DC_GROUP_12
 70
     0
 10
0.0
 20
0.0
 30
0.0
  3
DC_GROUP_12
  1

  0
LINE
  5
1D8
  8
LAYER0014
  6
CONTINUOUS
 62
     7
 10
-241.1378299783652
 20
143.9906400226085
 30
0.0
 11
-240.6019304434676
 21
145.9906384302392
 31
0.0
  0
LINE
  5
1D9
  8
LAYER0014
  6
CONTINUOUS
 62
     7
 10
-240.6019304434676
 20
145.9906384302392
 30
0.0
 11
-240.06603090857
 21
143.9906400226085
 31
0.0
  0
LINE
  5
1DA
  8
LAYER0014
  6
CONTINUOUS
 62
     7
 10
-240.6019304434676
 20
145.9906384302392
 30
0.0
 11
-240.6019304434676
 21
143.9906400226085
 31
0.0
  0
ENDBLK
  5
6F
  8
0
  0
BLOCK
  8
0
  2
DC_GROUP_13
 70
     0
 10
0.0
 20
0.0
 30
0.0
  3
DC_GROUP_13
  1

  0
LINE
  5
1DB
  8
LAYER0014
  6
CONTINUOUS
 62
     7
 10
-250.6019304434676
 20
-91.50936919915529
 30
0.0
 11
-250.6019304434676
 21
158.4906384302392
 31
0.0
  0
LINE
  5
1DC
  8
LAYER0014
  6
CONTINUOUS
 62
     7
 10
-191.1419151846785
 20
-91.50936919915529
 30
0.0
 11
-251.6019304434676
 21
-91.50936919915529
 31
0.0
  0
LINE
  5
1DD
  8
LAYER0014
  6
CONTINUOUS
 62
     7
 10
-191.1419151846785
 20
158.4906384302392
 30
0.0
 11
-251.6019304434676
 21
158.4906384302392
 31
0.0
  0
INSERT
  5
1DE
  8
LAYER0014
  6
BORDER
  2
DC_GROUP_14
 10
0.0
 20
0.0
 30
0.0
  0
INSERT
  5
1DF
  8
LAYER0014
  6
BORDER
  2
DC_GROUP_15
 10
0.0
 20
0.0
 30
0.0
  0
TEXT
  5
1E0
  8
LAYER0014
 62
     7
 10
-251.6019304434676
 20
27.09063461554197
 30
0.0
 40
4.0
  1
φ250
 50
90.0
 41
0.6167800453514754
  7
FDASTYLE1
 72
     5
 11
-251.6019304434676
 21
37.45253937744676
 31
0.0
  0
ENDBLK
  5
72
  8
0
  0
BLOCK
  8
0
  2
DC_GROUP_14
 70
     0
 10
0.0
 20
0.0
 30
0.0
  3
DC_GROUP_14
  1

  0
LINE
  5
1E1
  8
LAYER0014
  6
CONTINUOUS
 62
     7
 10
-250.06603090857
 20
-89.50937079152463
 30
0.0
 11
-250.6019304434676
 21
-91.50936919915529
 31
0.0
  0
LINE
  5
1E2
  8
LAYER0014
  6
CONTINUOUS
 62
     7
 10
-250.6019304434676
 20
-91.50936919915529
 30
0.0
 11
-251.1378299783652
 21
-89.50937079152463
 31
0.0
  0
LINE
  5
1E3
  8
LAYER0014
  6
CONTINUOUS
 62
     7
 10
-250.6019304434676
 20
-91.50936919915529
 30
0.0
 11
-250.6019304434676
 21
-89.50937079152463
 31
0.0
  0
ENDBLK
  5
75
  8
0
  0
BLOCK
  8
0
  2
DC_GROUP_15
 70
     0
 10
0.0
 20
0.0
 30
0.0
  3
DC_GROUP_15
  1

  0
LINE
  5
1E4
  8
LAYER0014
  6
CONTINUOUS
 62
     7
 10
-251.1378299783652
 20
156.4906400226086
 30
0.0
 11
-250.6019304434676
 21
158.4906384302392
 31
0.0
  0
LINE
  5
1E5
  8
LAYER0014
  6
CONTINUOUS
 62
     7
 10
-250.6019304434676
 20
158.4906384302392
 30
0.0
 11
-250.06603090857
 21
156.4906400226086
 31
0.0
  0
LINE
  5
1E6
  8
LAYER0014
  6
CONTINUOUS
 62
     7
 10
-250.6019304434676
 20
158.4906384302392
 30
0.0
 11
-250.6019304434676
 21
156.4906400226086
 31
0.0
  0
ENDBLK
  5
78
  8
0
  0
BLOCK
  8
0
  2
DC_GROUP_16
 70
     0
 10
0.0
 20
0.0
 30
0.0
  3
DC_GROUP_16
  1

  0
LINE
  5
1E7
  8
LAYER0014
  6
CONTINUOUS
 62
     7
 10
-153.4236467520613
 20
14.40000694525389
 30
0.0
 11
-124.4236467520613
 21
14.40000694525389
 31
0.0
  0
INSERT
  5
1E8
  8
LAYER0014
  6
CONTINUOUS
  2
DC_GROUP_17
 10
0.0
 20
0.0
 30
0.0
  0
INSERT
  5
1E9
  8
LAYER0014
  6
CONTINUOUS
  2
DC_GROUP_18
 10
0.0
 20
0.0
 30
0.0
  0
TEXT
  5
1EA
  8
LAYER0014
 62
     7
 10
-142.1236467520613
 20
15.40000694525389
 30
0.0
 40
4.0
  1
29
 41
0.6285714285714263
  7
FDASTYLE1
 72
     5
 11
-137.0950753234899
 21
15.40000694525389
 31
0.0
  0
ENDBLK
  5
7B
  8
0
  0
BLOCK
  8
0
  2
DC_GROUP_17
 70
     0
 10
0.0
 20
0.0
 30
0.0
  3
DC_GROUP_17
  1

  0
LINE
  5
1EB
  8
LAYER0014
  6
CONTINUOUS
 62
     7
 10
-151.4236483444306
 20
13.86410741035628
 30
0.0
 11
-153.4236467520613
 21
14.40000694525389
 31
0.0
  0
LINE
  5
1EC
  8
LAYER0014
  6
CONTINUOUS
 62
     7
 10
-153.4236467520613
 20
14.40000694525389
 30
0.0
 11
-151.4236483444306
 21
14.9359064801515
 31
0.0
  0
LINE
  5
1ED
  8
LAYER0014
  6
CONTINUOUS
 62
     7
 10
-153.4236467520613
 20
14.40000694525389
 30
0.0
 11
-151.4236483444306
 21
14.40000694525389
 31
0.0
  0
ENDBLK
  5
7E
  8
0
  0
BLOCK
  8
0
  2
DC_GROUP_18
 70
     0
 10
0.0
 20
0.0
 30
0.0
  3
DC_GROUP_18
  1

  0
LINE
  5
1EE
  8
LAYER0014
  6
CONTINUOUS
 62
     7
 10
-126.423645159692
 20
14.9359064801515
 30
0.0
 11
-124.4236467520613
 21
14.40000694525389
 31
0.0
  0
LINE
  5
1EF
  8
LAYER0014
  6
CONTINUOUS
 62
     7
 10
-124.4236467520613
 20
14.40000694525389
 30
0.0
 11
-126.423645159692
 21
13.86410741035628
 31
0.0
  0
LINE
  5
1F0
  8
LAYER0014
  6
CONTINUOUS
 62
     7
 10
-124.4236467520613
 20
14.40000694525389
 30
0.0
 11
-126.423645159692
 21
14.40000694525389
 31
0.0
  0
ENDBLK
  5
81
  8
0
  0
BLOCK
  8
0
  2
DC_GROUP_19
 70
     0
 10
0.0
 20
0.0
 30
0.0
  3
DC_GROUP_19
  1

  0
LINE
  5
1F1
  8
LAYER0014
  6
CONTINUOUS
 62
     7
 10
-124.4236467520613
 20
14.40000694525389
 30
0.0
 11
-106.4236467520613
 21
14.40000694525389
 31
0.0
  0
INSERT
  5
1F2
  8
LAYER0014
  6
CONTINUOUS
  2
DC_GROUP_20
 10
0.0
 20
0.0
 30
0.0
  0
INSERT
  5
1F3
  8
LAYER0014
  6
CONTINUOUS
  2
DC_GROUP_21
 10
0.0
 20
0.0
 30
0.0
  0
TEXT
  5
1F4
  8
LAYER0014
 62
     7
 10
-118.6236467520613
 20
15.40000694525389
 30
0.0
 40
4.0
  1
18
 41
0.5904761904761902
  7
FDASTYLE1
 72
     5
 11
-113.8998372282518
 21
15.40000694525389
 31
0.0
  0
ENDBLK
  5
84
  8
0
  0
BLOCK
  8
0
  2
DC_GROUP_20
 70
     0
 10
0.0
 20
0.0
 30
0.0
  3
DC_GROUP_20
  1

  0
LINE
  5
1F5
  8
LAYER0014
  6
CONTINUOUS
 62
     7
 10
-122.4236483444306
 20
13.86410741035628
 30
0.0
 11
-124.4236467520613
 21
14.40000694525389
 31
0.0
  0
LINE
  5
1F6
  8
LAYER0014
  6
CONTINUOUS
 62
     7
 10
-124.4236467520613
 20
14.40000694525389
 30
0.0
 11
-122.4236483444306
 21
14.9359064801515
 31
0.0
  0
LINE
  5
1F7
  8
LAYER0014
  6
CONTINUOUS
 62
     7
 10
-124.4236467520613
 20
14.40000694525389
 30
0.0
 11
-122.4236483444306
 21
14.40000694525389
 31
0.0
  0
ENDBLK
  5
87
  8
0
  0
BLOCK
  8
0
  2
DC_GROUP_21
 70
     0
 10
0.0
 20
0.0
 30
0.0
  3
DC_GROUP_21
  1

  0
LINE
  5
1F8
  8
LAYER0014
  6
CONTINUOUS
 62
     7
 10
-108.423645159692
 20
14.9359064801515
 30
0.0
 11
-106.4236467520613
 21
14.40000694525389
 31
0.0
  0
LINE
  5
1F9
  8
LAYER0014
  6
CONTINUOUS
 62
     7
 10
-106.4236467520613
 20
14.40000694525389
 30
0.0
 11
-108.423645159692
 21
13.86410741035628
 31
0.0
  0
LINE
  5
1FA
  8
LAYER0014
  6
CONTINUOUS
 62
     7
 10
-106.4236467520613
 20
14.40000694525389
 30
0.0
 11
-108.423645159692
 21
14.40000694525389
 31
0.0
  0
ENDBLK
  5
8A
  8
0
  0
BLOCK
  8
0
  2
DC_GROUP_22
 70
     0
 10
0.0
 20
0.0
 30
0.0
  3
DC_GROUP_22
  1

  0
LINE
  5
1FB
  8
LAYER0014
  6
CONTINUOUS
 62
     7
 10
-106.4236467520613
 20
14.40000694525389
 30
0.0
 11
-96.42364675206133
 21
14.40000694525389
 31
0.0
  0
INSERT
  5
1FC
  8
LAYER0014
  6
CONTINUOUS
  2
DC_GROUP_23
 10
0.0
 20
0.0
 30
0.0
  0
INSERT
  5
1FD
  8
LAYER0014
  6
CONTINUOUS
  2
DC_GROUP_24
 10
0.0
 20
0.0
 30
0.0
  0
TEXT
  5
1FE
  8
LAYER0014
 62
     7
 10
-104.6236467520613
 20
15.40000694525389
 30
0.0
 40
4.0
  1
10
 41
0.5904761904761902
  7
FDASTYLE1
 72
     5
 11
-99.89983722825178
 21
15.40000694525389
 31
0.0
  0
ENDBLK
  5
8D
  8
0
  0
BLOCK
  8
0
  2
DC_GROUP_23
 70
     0
 10
0.0
 20
0.0
 30
0.0
  3
DC_GROUP_23
  1

  0
LINE
  5
1FF
  8
LAYER0014
  6
CONTINUOUS
 62
     7
 10
-104.4236483444306
 20
13.86410741035628
 30
0.0
 11
-106.4236467520613
 21
14.40000694525389
 31
0.0
  0
LINE
  5
200
  8
LAYER0014
  6
CONTINUOUS
 62
     7
 10
-106.4236467520613
 20
14.40000694525389
 30
0.0
 11
-104.4236483444306
 21
14.9359064801515
 31
0.0
  0
LINE
  5
201
  8
LAYER0014
  6
CONTINUOUS
 62
     7
 10
-106.4236467520613
 20
14.40000694525389
 30
0.0
 11
-104.4236483444306
 21
14.40000694525389
 31
0.0
  0
ENDBLK
  5
90
  8
0
  0
BLOCK
  8
0
  2
DC_GROUP_24
 70
     0
 10
0.0
 20
0.0
 30
0.0
  3
DC_GROUP_24
  1

  0
LINE
  5
202
  8
LAYER0014
  6
CONTINUOUS
 62
     7
 10
-98.42364515969199
 20
14.9359064801515
 30
0.0
 11
-96.42364675206133
 21
14.40000694525389
 31
0.0
  0
LINE
  5
203
  8
LAYER0014
  6
CONTINUOUS
 62
     7
 10
-96.42364675206133
 20
14.40000694525389
 30
0.0
 11
-98.42364515969199
 21
13.86410741035628
 31
0.0
  0
LINE
  5
204
  8
LAYER0014
  6
CONTINUOUS
 62
     7
 10
-96.42364675206133
 20
14.40000694525389
 30
0.0
 11
-98.42364515969199
 21
14.40000694525389
 31
0.0
  0
ENDBLK
  5
93
  8
0
  0
BLOCK
  8
0
  2
DC_GROUP_25
 70
     0
 10
0.0
 20
0.0
 30
0.0
  3
DC_GROUP_25
  1

  0
LINE
  5
205
  8
LAYER0014
  6
CONTINUOUS
 62
     7
 10
-187.6019151846785
 20
-25.84983231231722
 30
0.0
 11
-124.4236467520613
 21
-25.84983231231722
 31
0.0
  0
LINE
  5
206
  8
LAYER0014
  6
CONTINUOUS
 62
     7
 10
-124.4236467520613
 20
-13.04936729180666
 30
0.0
 11
-124.4236467520613
 21
-26.84983231231722
 31
0.0
  0
INSERT
  5
207
  8
LAYER0014
  6
CONTINUOUS
  2
DC_GROUP_26
 10
0.0
 20
0.0
 30
0.0
  0
INSERT
  5
208
  8
LAYER0014
  6
CONTINUOUS
  2
DC_GROUP_27
 10
0.0
 20
0.0
 30
0.0
  0
TEXT
  5
209
  8
LAYER0014
 62
     7
 10
-166.0340063976041
 20
-24.84983231231722
 30
0.0
 40
4.0
  1
MAX 79.5
 41
0.6952380952380963
  7
FDASTYLE1
 72
     5
 11
-143.786387349985
 21
-24.84983231231722
 31
0.0
  0
ENDBLK
  5
96
  8
0
  0
BLOCK
  8
0
  2
DC_GROUP_26
 70
     0
 10
0.0
 20
0.0
 30
0.0
  3
DC_GROUP_26
  1

  0
LINE
  5
20A
  8
LAYER0014
  6
CONTINUOUS
 62
     7
 10
-185.6019167770478
 20
-26.38573184721482
 30
0.0
 11
-187.6019151846785
 21
-25.84983231231722
 31
0.0
  0
LINE
  5
20B
  8
LAYER0014
  6
CONTINUOUS
 62
     7
 10
-187.6019151846785
 20
-25.84983231231722
 30
0.0
 11
-185.6019167770478
 21
-25.31393277741961
 31
0.0
  0
LINE
  5
20C
  8
LAYER0014
  6
CONTINUOUS
 62
     7
 10
-187.6019151846785
 20
-25.84983231231722
 30
0.0
 11
-185.6019167770478
 21
-25.84983231231722
 31
0.0
  0
ENDBLK
  5
99
  8
0
  0
BLOCK
  8
0
  2
DC_GROUP_27
 70
     0
 10
0.0
 20
0.0
 30
0.0
  3
DC_GROUP_27
  1

  0
LINE
  5
20D
  8
LAYER0014
  6
CONTINUOUS
 62
     7
 10
-126.423645159692
 20
-25.31393277741961
 30
0.0
 11
-124.4236467520613
 21
-25.84983231231722
 31
0.0
  0
LINE
  5
20E
  8
LAYER0014
  6
CONTINUOUS
 62
     7
 10
-124.4236467520613
 20
-25.84983231231722
 30
0.0
 11
-126.423645159692
 21
-26.38573184721482
 31
0.0
  0
LINE
  5
20F
  8
LAYER0014
  6
CONTINUOUS
 62
     7
 10
-124.4236467520613
 20
-25.84983231231722
 30
0.0
 11
-126.423645159692
 21
-25.84983231231722
 31
0.0
  0
ENDBLK
  5
9C
  8
0
  0
BLOCK
  8
0
  2
DC_GROUP_28
 70
     0
 10
0.0
 20
0.0
 30
0.0
  3
DC_GROUP_28
  1

  0
LINE
  5
210
  8
LAYER0014
  6
CONTINUOUS
 62
     7
 10
-188.6019151846785
 20
-113.5093691991553
 30
0.0
 11
-187.6019151846785
 21
-113.5093691991553
 31
0.0
  0
LINE
  5
211
  8
LAYER0014
  6
CONTINUOUS
 62
     7
 10
-188.6019151846785
 20
-94.04936919915531
 30
0.0
 11
-188.6019151846785
 21
-114.5093691991553
 31
0.0
  0
LINE
  5
212
  8
LAYER0014
  6
CONTINUOUS
 62
     7
 10
-187.6019151846785
 20
-81.54936919915531
 30
0.0
 11
-187.6019151846785
 21
-114.5093691991553
 31
0.0
  0
LINE
  5
213
  8
LAYER0014
  6
CONTINUOUS
 62
     7
 10
-197.4869035879988
 20
-113.5093691991553
 30
0.0
 11
-188.6019151846785
 21
-113.5093691991553
 31
0.0
  0
LINE
  5
214
  8
LAYER0014
  6
CONTINUOUS
 62
     7
 10
-182.6019151846785
 20
-113.5093691991553
 30
0.0
 11
-187.6019151846785
 21
-113.5093691991553
 31
0.0
  0
INSERT
  5
215
  8
LAYER0014
  6
CONTINUOUS
  2
DC_GROUP_29
 10
0.0
 20
0.0
 30
0.0
  0
INSERT
  5
216
  8
LAYER0014
  6
CONTINUOUS
  2
DC_GROUP_30
 10
0.0
 20
0.0
 30
0.0
  0
TEXT
  5
217
  8
LAYER0014
 62
     7
 10
-196.4869035879988
 20
-112.5093691991553
 30
0.0
 40
4.0
  1
1
 41
0.1904761904761898
  7
FDASTYLE1
 72
     5
 11
-195.724998826094
 21
-112.5093691991553
 31
0.0
  0
ENDBLK
  5
9F
  8
0
  0
BLOCK
  8
0
  2
DC_GROUP_29
 70
     0
 10
0.0
 20
0.0
 30
0.0
  3
DC_GROUP_29
  1

  0
LINE
  5
218
  8
LAYER0014
  6
CONTINUOUS
 62
     7
 10
-190.6019135923092
 20
-112.9734696642577
 30
0.0
 11
-188.6019151846785
 21
-113.5093691991553
 31
0.0
  0
LINE
  5
219
  8
LAYER0014
  6
CONTINUOUS
 62
     7
 10
-188.6019151846785
 20
-113.5093691991553
 30
0.0
 11
-190.6019135923092
 21
-114.0452687340529
 31
0.0
  0
LINE
  5
21A
  8
LAYER0014
  6
CONTINUOUS
 62
     7
 10
-188.6019151846785
 20
-113.5093691991553
 30
0.0
 11
-190.6019135923092
 21
-113.5093691991553
 31
0.0
  0
ENDBLK
  5
A2
  8
0
  0
BLOCK
  8
0
  2
DC_GROUP_30
 70
     0
 10
0.0
 20
0.0
 30
0.0
  3
DC_GROUP_30
  1

  0
LINE
  5
21B
  8
LAYER0014
  6
CONTINUOUS
 62
     7
 10
-185.6019167770478
 20
-114.0452687340529
 30
0.0
 11
-187.6019151846785
 21
-113.5093691991553
 31
0.0
  0
LINE
  5
21C
  8
LAYER0014
  6
CONTINUOUS
 62
     7
 10
-187.6019151846785
 20
-113.5093691991553
 30
0.0
 11
-185.6019167770478
 21
-112.9734696642577
 31
0.0
  0
LINE
  5
21D
  8
LAYER0014
  6
CONTINUOUS
 62
     7
 10
-187.6019151846785
 20
-113.5093691991553
 30
0.0
 11
-185.6019167770478
 21
-113.5093691991553
 31
0.0
  0
ENDBLK
  5
A5
  8
0
  0
BLOCK
  8
0
  2
DC_GROUP_31
 70
     0
 10
0.0
 20
0.0
 30
0.0
  3
DC_GROUP_31
  1

  0
LINE
  5
21E
  8
LAYER0014
  6
CONTINUOUS
 62
     7
 10
-187.6019151846785
 20
-113.5093691991553
 30
0.0
 11
-77.60191518467852
 21
-113.5093691991553
 31
0.0
  0
LINE
  5
21F
  8
LAYER0014
  6
CONTINUOUS
 62
     7
 10
-187.6019151846785
 20
-81.54936919915531
 30
0.0
 11
-187.6019151846785
 21
-114.5093691991553
 31
0.0
  0
LINE
  5
220
  8
LAYER0014
  6
CONTINUOUS
 62
     7
 10
-77.60191518467852
 20
-92.04936919915531
 30
0.0
 11
-77.60191518467852
 21
-114.5093691991553
 31
0.0
  0
INSERT
  5
221
  8
LAYER0014
  6
CONTINUOUS
  2
DC_GROUP_32
 10
0.0
 20
0.0
 30
0.0
  0
INSERT
  5
222
  8
LAYER0014
  6
CONTINUOUS
  2
DC_GROUP_33
 10
0.0
 20
0.0
 30
0.0
  0
TEXT
  5
223
  8
LAYER0014
 62
     7
 10
-137.4019151846785
 20
-112.5093691991553
 30
0.0
 40
4.0
  1
110
 41
0.6476190476190477
  7
FDASTYLE1
 72
     5
 11
-129.6304866132499
 21
-112.5093691991553
 31
0.0
  0
ENDBLK
  5
A8
  8
0
  0
BLOCK
  8
0
  2
DC_GROUP_32
 70
     0
 10
0.0
 20
0.0
 30
0.0
  3
DC_GROUP_32
  1

  0
LINE
  5
224
  8
LAYER0014
  6
CONTINUOUS
 62
     7
 10
-185.6019167770478
 20
-114.0452687340529
 30
0.0
 11
-187.6019151846785
 21
-113.5093691991553
 31
0.0
  0
LINE
  5
225
  8
LAYER0014
  6
CONTINUOUS
 62
     7
 10
-187.6019151846785
 20
-113.5093691991553
 30
0.0
 11
-185.6019167770478
 21
-112.9734696642577
 31
0.0
  0
LINE
  5
226
  8
LAYER0014
  6
CONTINUOUS
 62
     7
 10
-187.6019151846785
 20
-113.5093691991553
 30
0.0
 11
-185.6019167770478
 21
-113.5093691991553
 31
0.0
  0
ENDBLK
  5
AB
  8
0
  0
BLOCK
  8
0
  2
DC_GROUP_33
 70
     0
 10
0.0
 20
0.0
 30
0.0
  3
DC_GROUP_33
  1

  0
LINE
  5
227
  8
LAYER0014
  6
CONTINUOUS
 62
     7
 10
-79.60191359230917
 20
-112.9734696642577
 30
0.0
 11
-77.60191518467852
 21
-113.5093691991553
 31
0.0
  0
LINE
  5
228
  8
LAYER0014
  6
CONTINUOUS
 62
     7
 10
-77.60191518467852
 20
-113.5093691991553
 30
0.0
 11
-79.60191359230917
 21
-114.0452687340529
 31
0.0
  0
LINE
  5
229
  8
LAYER0014
  6
CONTINUOUS
 62
     7
 10
-77.60191518467852
 20
-113.5093691991553
 30
0.0
 11
-79.60191359230917
 21
-113.5093691991553
 31
0.0
  0
ENDBLK
  5
AE
  8
0
  0
BLOCK
  8
0
  2
DC_GROUP_34
 70
     0
 10
0.0
 20
0.0
 30
0.0
  3
DC_GROUP_34
  1

  0
LINE
  5
22A
  8
LAYER0014
  6
CONTINUOUS
 62
     7
 10
-188.6019151846785
 20
-123.5093691991553
 30
0.0
 11
-77.60191518467852
 21
-123.5093691991553
 31
0.0
  0
LINE
  5
22B
  8
LAYER0014
  6
CONTINUOUS
 62
     7
 10
-188.6019151846785
 20
-94.04936919915531
 30
0.0
 11
-188.6019151846785
 21
-124.5093691991553
 31
0.0
  0
LINE
  5
22C
  8
LAYER0014
  6
CONTINUOUS
 62
     7
 10
-77.60191518467852
 20
-92.04936919915531
 30
0.0
 11
-77.60191518467852
 21
-124.5093691991553
 31
0.0
  0
INSERT
  5
22D
  8
LAYER0014
  6
CONTINUOUS
  2
DC_GROUP_35
 10
0.0
 20
0.0
 30
0.0
  0
INSERT
  5
22E
  8
LAYER0014
  6
CONTINUOUS
  2
DC_GROUP_36
 10
0.0
 20
0.0
 30
0.0
  0
TEXT
  5
22F
  8
LAYER0014
 62
     7
 10
-137.9019151846785
 20
-122.5093691991553
 30
0.0
 40
4.0
  1
111
 41
0.5714285714285717
  7
FDASTYLE1
 72
     5
 11
-131.0447723275356
 21
-122.5093691991553
 31
0.0
  0
ENDBLK
  5
B1
  8
0
  0
BLOCK
  8
0
  2
DC_GROUP_35
 70
     0
 10
0.0
 20
0.0
 30
0.0
  3
DC_GROUP_35
  1

  0
LINE
  5
230
  8
LAYER0014
  6
CONTINUOUS
 62
     7
 10
-186.6019167770478
 20
-124.0452687340529
 30
0.0
 11
-188.6019151846785
 21
-123.5093691991553
 31
0.0
  0
LINE
  5
231
  8
LAYER0014
  6
CONTINUOUS
 62
     7
 10
-188.6019151846785
 20
-123.5093691991553
 30
0.0
 11
-186.6019167770478
 21
-122.9734696642577
 31
0.0
  0
LINE
  5
232
  8
LAYER0014
  6
CONTINUOUS
 62
     7
 10
-188.6019151846785
 20
-123.5093691991553
 30
0.0
 11
-186.6019167770478
 21
-123.5093691991553
 31
0.0
  0
ENDBLK
  5
B4
  8
0
  0
BLOCK
  8
0
  2
DC_GROUP_36
 70
     0
 10
0.0
 20
0.0
 30
0.0
  3
DC_GROUP_36
  1

  0
LINE
  5
233
  8
LAYER0014
  6
CONTINUOUS
 62
     7
 10
-79.60191359230917
 20
-122.9734696642577
 30
0.0
 11
-77.60191518467852
 21
-123.5093691991553
 31
0.0
  0
LINE
  5
234
  8
LAYER0014
  6
CONTINUOUS
 62
     7
 10
-77.60191518467852
 20
-123.5093691991553
 30
0.0
 11
-79.60191359230917
 21
-124.0452687340529
 31
0.0
  0
LINE
  5
235
  8
LAYER0014
  6
CONTINUOUS
 62
     7
 10
-77.60191518467852
 20
-123.5093691991553
 30
0.0
 11
-79.60191359230917
 21
-123.5093691991553
 31
0.0
  0
ENDBLK
  5
B7
  8
0
  0
BLOCK
  8
0
  2
DC_GROUP_37
 70
     0
 10
0.0
 20
0.0
 30
0.0
  3
DC_GROUP_37
  1

  0
LINE
  5
236
  8
LAYER0014
  6
CONTINUOUS
 62
     7
 10
87.89808863001875
 20
41.37021515143064
 30
0.0
 11
87.89808863001875
 21
47.46168106329588
 31
0.0
  0
LINE
  5
237
  8
LAYER0014
  6
CONTINUOUS
 62
     7
 10
166.8980848153215
 20
41.00400612127928
 30
0.0
 11
166.8980848153215
 21
47.46168106329588
 31
0.0
  0
LINE
  5
238
  8
LAYER0014
  6
CONTINUOUS
 62
     7
 10
87.89808863001875
 20
46.46168106329588
 30
0.0
 11
166.8980848153215
 21
46.46168106329588
 31
0.0
  0
INSERT
  5
239
  8
LAYER0014
  6
CONTINUOUS
  2
DC_GROUP_38
 10
0.0
 20
0.0
 30
0.0
  0
INSERT
  5
23A
  8
LAYER0014
  6
CONTINUOUS
  2
DC_GROUP_39
 10
0.0
 20
0.0
 30
0.0
  0
TEXT
  5
23B
  8
LAYER0014
 62
     7
 10
106.1302234799956
 20
47.46168106329588
 30
0.0
 40
4.0
  1
2-φ6.2 PCD79
 41
0.6320881483472188
  7
FDASTYLE1
 72
     5
 11
136.9761251193399
 21
47.46168106329588
 31
0.0
  0
ENDBLK
  5
BA
  8
0
  0
BLOCK
  8
0
  2
DC_GROUP_38
 70
     0
 10
0.0
 20
0.0
 30
0.0
  3
DC_GROUP_38
  1

  0
LINE
  5
23C
  8
LAYER0014
  6
CONTINUOUS
 62
     7
 10
89.8980870376494
 20
45.92578152839827
 30
0.0
 11
87.89808863001875
 21
46.46168106329588
 31
0.0
  0
LINE
  5
23D
  8
LAYER0014
  6
CONTINUOUS
 62
     7
 10
87.89808863001875
 20
46.46168106329588
 30
0.0
 11
89.8980870376494
 21
46.99758059819349
 31
0.0
  0
LINE
  5
23E
  8
LAYER0014
  6
CONTINUOUS
 62
     7
 10
87.89808863001875
 20
46.46168106329588
 30
0.0
 11
89.8980870376494
 21
46.46168106329588
 31
0.0
  0
ENDBLK
  5
BD
  8
0
  0
BLOCK
  8
0
  2
DC_GROUP_39
 70
     0
 10
0.0
 20
0.0
 30
0.0
  3
DC_GROUP_39
  1

  0
LINE
  5
23F
  8
LAYER0014
  6
CONTINUOUS
 62
     7
 10
164.8980864076909
 20
46.99758059819349
 30
0.0
 11
166.8980848153215
 21
46.46168106329588
 31
0.0
  0
LINE
  5
240
  8
LAYER0014
  6
CONTINUOUS
 62
     7
 10
166.8980848153215
 20
46.46168106329588
 30
0.0
 11
164.8980864076909
 21
45.92578152839827
 31
0.0
  0
LINE
  5
241
  8
LAYER0014
  6
CONTINUOUS
 62
     7
 10
166.8980848153215
 20
46.46168106329588
 30
0.0
 11
164.8980864076909
 21
46.46168106329588
 31
0.0
  0
ENDBLK
  5
C0
  8
0
  0
BLOCK
  8
0
  2
DC_GROUP_40
 70
     0
 10
0.0
 20
0.0
 30
0.0
  3
DC_GROUP_40
  1

  0
LINE
  5
242
  8
LAYER0014
  6
CONTINUOUS
 62
     7
 10
-48.99385335606524
 20
105.4906308008447
 30
0.0
 11
-43.60191518467852
 21
105.4906308008447
 31
0.0
  0
LINE
  5
243
  8
LAYER0014
  6
CONTINUOUS
 62
     7
 10
-48.49101522129961
 20
135.4906308008447
 30
0.0
 11
-43.60191518467852
 21
135.4906308008447
 31
0.0
  0
LINE
  5
244
  8
LAYER0014
  6
CONTINUOUS
 62
     7
 10
-44.60191518467852
 20
105.4906308008447
 30
0.0
 11
-44.60191518467852
 21
135.4906308008447
 31
0.0
  0
INSERT
  5
245
  8
LAYER0014
  6
CONTINUOUS
  2
DC_GROUP_41
 10
0.0
 20
0.0
 30
0.0
  0
INSERT
  5
246
  8
LAYER0014
  6
CONTINUOUS
  2
DC_GROUP_42
 10
0.0
 20
0.0
 30
0.0
  0
TEXT
  5
247
  8
LAYER0014
 62
     7
 10
-45.60191518467852
 20
117.2906308008447
 30
0.0
 40
4.0
  1
30
 50
90.0
 41
0.6476190476190489
  7
FDASTYLE1
 72
     5
 11
-45.60191518467852
 21
122.4715831817971
 31
0.0
  0
ENDBLK
  5
C3
  8
0
  0
BLOCK
  8
0
  2
DC_GROUP_41
 70
     0
 10
0.0
 20
0.0
 30
0.0
  3
DC_GROUP_41
  1

  0
LINE
  5
248
  8
LAYER0014
  6
CONTINUOUS
 62
     7
 10
-44.06601564978091
 20
107.4906292084754
 30
0.0
 11
-44.60191518467852
 21
105.4906308008447
 31
0.0
  0
LINE
  5
249
  8
LAYER0014
  6
CONTINUOUS
 62
     7
 10
-44.60191518467852
 20
105.4906308008447
 30
0.0
 11
-45.13781471957613
 21
107.4906292084754
 31
0.0
  0
LINE
  5
24A
  8
LAYER0014
  6
CONTINUOUS
 62
     7
 10
-44.60191518467852
 20
105.4906308008447
 30
0.0
 11
-44.60191518467852
 21
107.4906292084754
 31
0.0
  0
ENDBLK
  5
C6
  8
0
  0
BLOCK
  8
0
  2
DC_GROUP_42
 70
     0
 10
0.0
 20
0.0
 30
0.0
  3
DC_GROUP_42
  1

  0
LINE
  5
24B
  8
LAYER0014
  6
CONTINUOUS
 62
     7
 10
-45.13781471957613
 20
133.490632393214
 30
0.0
 11
-44.60191518467852
 21
135.4906308008447
 31
0.0
  0
LINE
  5
24C
  8
LAYER0014
  6
CONTINUOUS
 62
     7
 10
-44.60191518467852
 20
135.4906308008447
 30
0.0
 11
-44.06601564978091
 21
133.490632393214
 31
0.0
  0
LINE
  5
24D
  8
LAYER0014
  6
CONTINUOUS
 62
     7
 10
-44.60191518467852
 20
135.4906308008447
 30
0.0
 11
-44.60191518467852
 21
133.490632393214
 31
0.0
  0
ENDBLK
  5
C9
  8
0
  0
BLOCK
  8
0
  2
DC_GROUP_43
 70
     0
 10
0.0
 20
0.0
 30
0.0
  3
DC_GROUP_43
  1

  0
LINE
  5
24E
  8
LAYER0014
  6
CONTINUOUS
 62
     7
 10
-93.88364675206132
 20
-11.50936729180666
 30
0.0
 11
-53.60191518467852
 21
-11.50936729180666
 31
0.0
  0
LINE
  5
24F
  8
LAYER0014
  6
CONTINUOUS
 62
     7
 10
-54.60191518467852
 20
-11.50936729180666
 30
0.0
 11
-54.60191518467852
 21
62.15729492437986
 31
0.0
  0
INSERT
  5
250
  8
LAYER0014
  6
CONTINUOUS
  2
DC_GROUP_44
 10
0.0
 20
0.0
 30
0.0
  0
TEXT
  5
251
  8
LAYER0014
 62
     7
 10
-56.20191518467851
 20
19.09063270819333
 30
0.0
 40
4.0
  1
M90×P1.25
 50
90.0
 41
0.6294896030245748
  7
FDASTYLE1
 72
     5
 11
-56.20191518467851
 21
42.25585009949768
 31
0.0
  0
ENDBLK
  5
CC
  8
0
  0
BLOCK
  8
0
  2
DC_GROUP_44
 70
     0
 10
0.0
 20
0.0
 30
0.0
  3
DC_GROUP_44
  1

  0
LINE
  5
252
  8
LAYER0014
  6
CONTINUOUS
 62
     7
 10
-54.06601564978091
 20
-9.509368884175999
 30
0.0
 11
-54.60191518467852
 21
-11.50936729180666
 31
0.0
  0
LINE
  5
253
  8
LAYER0014
  6
CONTINUOUS
 62
     7
 10
-54.60191518467852
 20
-11.50936729180666
 30
0.0
 11
-55.13781471957613
 21
-9.509368884175999
 31
0.0
  0
LINE
  5
254
  8
LAYER0014
  6
CONTINUOUS
 62
     7
 10
-54.60191518467852
 20
-11.50936729180666
 30
0.0
 11
-54.60191518467852
 21
-9.509368884175999
 31
0.0
  0
ENDBLK
  5
CF
  8
0
  0
BLOCK
  8
0
  2
DC_GROUP_45
 70
     0
 10
0.0
 20
0.0
 30
0.0
  3
DC_GROUP_45
  1

  0
LINE
  5
255
  8
LAYER0014
  6
CONTINUOUS
 62
     7
 10
-75.06191518467851
 20
-19.00936729180666
 30
0.0
 11
-43.60191518467852
 21
-19.00936729180666
 31
0.0
  0
LINE
  5
256
  8
LAYER0014
  6
CONTINUOUS
 62
     7
 10
-44.60191518467852
 20
-19.00936729180666
 30
0.0
 11
-44.60191518467852
 21
62.15729492437986
 31
0.0
  0
INSERT
  5
257
  8
LAYER0014
  6
CONTINUOUS
  2
DC_GROUP_46
 10
0.0
 20
0.0
 30
0.0
  0
TEXT
  5
258
  8
LAYER0014
 62
     7
 10
-46.20191518467851
 20
23.89063270819334
 30
0.0
 40
4.0
  1
φ105H7
 50
90.0
 41
0.6243496357960456
  7
FDASTYLE1
 72
     5
 11
-46.20191518467851
 21
39.37450367593527
 31
0.0
  0
ENDBLK
  5
D2
  8
0
  0
BLOCK
  8
0
  2
DC_GROUP_46
 70
     0
 10
0.0
 20
0.0
 30
0.0
  3
DC_GROUP_46
  1

  0
LINE
  5
259
  8
LAYER0014
  6
CONTINUOUS
 62
     7
 10
-44.06601564978091
 20
-17.009368884176
 30
0.0
 11
-44.60191518467852
 21
-19.00936729180666
 31
0.0
  0
LINE
  5
25A
  8
LAYER0014
  6
CONTINUOUS
 62
     7
 10
-44.60191518467852
 20
-19.00936729180666
 30
0.0
 11
-45.13781471957613
 21
-17.009368884176
 31
0.0
  0
LINE
  5
25B
  8
LAYER0014
  6
CONTINUOUS
 62
     7
 10
-44.60191518467852
 20
-19.00936729180666
 30
0.0
 11
-44.60191518467852
 21
-17.009368884176
 31
0.0
  0
ENDBLK
  5
D5
  8
0
  0
BLOCK
  8
0
  2
DC_GROUP_47
 70
     0
 10
0.0
 20
0.0
 30
0.0
  3
DC_GROUP_47
  1

  0
LINE
  5
25C
  8
LAYER0014
  6
CONTINUOUS
 62
     7
 10
-48.99385335606524
 20
105.4906308008447
 30
0.0
 11
-43.60191518467852
 21
105.4906308008447
 31
0.0
  0
LINE
  5
25D
  8
LAYER0014
  6
CONTINUOUS
 62
     7
 10
-76.06191518467851
 20
86.49063080084471
 30
0.0
 11
-43.60191518467852
 21
86.49063080084471
 31
0.0
  0
LINE
  5
25E
  8
LAYER0014
  6
CONTINUOUS
 62
     7
 10
-44.60191518467852
 20
105.4906308008447
 30
0.0
 11
-44.60191518467852
 21
86.49063080084471
 31
0.0
  0
LINE
  5
25F
  8
LAYER0014
  6
CONTINUOUS
 62
     7
 10
-44.60191518467852
 20
81.49063080084471
 30
0.0
 11
-44.60191518467852
 21
86.49063080084471
 31
0.0
  0
LINE
  5
260
  8
LAYER0014
  6
CONTINUOUS
 62
     7
 10
-44.60191518467852
 20
91.49063080084471
 30
0.0
 11
-44.60191518467852
 21
86.49063080084471
 31
0.0
  0
LINE
  5
261
  8
LAYER0014
  6
CONTINUOUS
 62
     7
 10
-44.60191518467852
 20
110.4906308008447
 30
0.0
 11
-44.60191518467852
 21
105.4906308008447
 31
0.0
  0
INSERT
  5
262
  8
LAYER0014
  6
CONTINUOUS
  2
DC_GROUP_48
 10
0.0
 20
0.0
 30
0.0
  0
INSERT
  5
263
  8
LAYER0014
  6
CONTINUOUS
  2
DC_GROUP_49
 10
0.0
 20
0.0
 30
0.0
  0
INSERT
  5
264
  8
LAYER0014
  6
CONTINUOUS
  2
DC_GROUP_50
 10
0.0
 20
0.0
 30
0.0
  0
TEXT
  5
265
  8
LAYER0014
 62
     7
 10
-45.60191518467852
 20
87.99063080084471
 30
0.0
 40
4.0
  1
MIN13
 50
90.0
 41
0.6628571428571434
  7
FDASTYLE1
 72
     5
 11
-45.60191518467852
 21
101.2477736579876
 31
0.0
  0
ENDBLK
  5
D8
  8
0
  0
BLOCK
  8
0
  2
DC_GROUP_48
 70
     0
 10
0.0
 20
0.0
 30
0.0
  3
DC_GROUP_48
  1

  0
LINE
  5
266
  8
LAYER0014
  6
CONTINUOUS
 62
     7
 10
-45.13781471957613
 20
84.49063239321406
 30
0.0
 11
-44.60191518467852
 21
86.49063080084471
 31
0.0
  0
LINE
  5
267
  8
LAYER0014
  6
CONTINUOUS
 62
     7
 10
-44.60191518467852
 20
86.49063080084471
 30
0.0
 11
-44.06601564978091
 21
84.49063239321406
 31
0.0
  0
LINE
  5
268
  8
LAYER0014
  6
CONTINUOUS
 62
     7
 10
-44.60191518467852
 20
86.49063080084471
 30
0.0
 11
-44.60191518467852
 21
84.49063239321406
 31
0.0
  0
ENDBLK
  5
DB
  8
0
  0
BLOCK
  8
0
  2
DC_GROUP_49
 70
     0
 10
0.0
 20
0.0
 30
0.0
  3
DC_GROUP_49
  1

  0
LINE
  5
269
  8
LAYER0014
  6
CONTINUOUS
 62
     7
 10
-44.06601564978091
 20
88.49062920847537
 30
0.0
 11
-44.60191518467852
 21
86.49063080084471
 31
0.0
  0
LINE
  5
26A
  8
LAYER0014
  6
CONTINUOUS
 62
     7
 10
-44.60191518467852
 20
86.49063080084471
 30
0.0
 11
-45.13781471957613
 21
88.49062920847537
 31
0.0
  0
LINE
  5
26B
  8
LAYER0014
  6
CONTINUOUS
 62
     7
 10
-44.60191518467852
 20
86.49063080084471
 30
0.0
 11
-44.60191518467852
 21
88.49062920847537
 31
0.0
  0
ENDBLK
  5
DE
  8
0
  0
BLOCK
  8
0
  2
DC_GROUP_50
 70
     0
 10
0.0
 20
0.0
 30
0.0
  3
DC_GROUP_50
  1

  0
LINE
  5
26C
  8
LAYER0014
  6
CONTINUOUS
 62
     7
 10
-44.06601564978091
 20
107.4906292084754
 30
0.0
 11
-44.60191518467852
 21
105.4906308008447
 31
0.0
  0
LINE
  5
26D
  8
LAYER0014
  6
CONTINUOUS
 62
     7
 10
-44.60191518467852
 20
105.4906308008447
 30
0.0
 11
-45.13781471957613
 21
107.4906292084754
 31
0.0
  0
LINE
  5
26E
  8
LAYER0014
  6
CONTINUOUS
 62
     7
 10
-44.60191518467852
 20
105.4906308008447
 30
0.0
 11
-44.60191518467852
 21
107.4906292084754
 31
0.0
  0
ENDBLK
  5
E1
  8
0
  0
BLOCK
  8
0
  2
DC_GROUP_51
 70
     0
 10
0.0
 20
0.0
 30
0.0
  3
DC_GROUP_51
  1

  0
LINE
  5
26F
  8
LAYER0014
  6
CONTINUOUS
 62
     7
 10
-76.06191518467851
 20
86.49063080084471
 30
0.0
 11
-33.60191518467852
 21
86.49063080084471
 31
0.0
  0
LINE
  5
270
  8
LAYER0014
  6
CONTINUOUS
 62
     7
 10
-76.06191518467851
 20
158.4906384302392
 30
0.0
 11
-33.60191518467852
 21
158.4906384302392
 31
0.0
  0
LINE
  5
271
  8
LAYER0014
  6
CONTINUOUS
 62
     7
 10
-34.60191518467852
 20
86.49063080084471
 30
0.0
 11
-34.60191518467852
 21
158.4906384302392
 31
0.0
  0
INSERT
  5
272
  8
LAYER0014
  6
CONTINUOUS
  2
DC_GROUP_52
 10
0.0
 20
0.0
 30
0.0
  0
INSERT
  5
273
  8
LAYER0014
  6
CONTINUOUS
  2
DC_GROUP_53
 10
0.0
 20
0.0
 30
0.0
  0
TEXT
  5
274
  8
LAYER0014
 62
     7
 10
-35.60191518467852
 20
119.290634615542
 30
0.0
 40
4.0
  1
72
 50
90.0
 41
0.6476190476190489
  7
FDASTYLE1
 72
     5
 11
-35.60191518467852
 21
124.4715869964944
 31
0.0
  0
ENDBLK
  5
E4
  8
0
  0
BLOCK
  8
0
  2
DC_GROUP_52
 70
     0
 10
0.0
 20
0.0
 30
0.0
  3
DC_GROUP_52
  1

  0
LINE
  5
275
  8
LAYER0014
  6
CONTINUOUS
 62
     7
 10
-34.06601564978091
 20
88.49062920847537
 30
0.0
 11
-34.60191518467852
 21
86.49063080084471
 31
0.0
  0
LINE
  5
276
  8
LAYER0014
  6
CONTINUOUS
 62
     7
 10
-34.60191518467852
 20
86.49063080084471
 30
0.0
 11
-35.13781471957613
 21
88.49062920847537
 31
0.0
  0
LINE
  5
277
  8
LAYER0014
  6
CONTINUOUS
 62
     7
 10
-34.60191518467852
 20
86.49063080084471
 30
0.0
 11
-34.60191518467852
 21
88.49062920847537
 31
0.0
  0
ENDBLK
  5
E7
  8
0
  0
BLOCK
  8
0
  2
DC_GROUP_53
 70
     0
 10
0.0
 20
0.0
 30
0.0
  3
DC_GROUP_53
  1

  0
LINE
  5
278
  8
LAYER0014
  6
CONTINUOUS
 62
     7
 10
-35.13781471957613
 20
156.4906400226086
 30
0.0
 11
-34.60191518467852
 21
158.4906384302392
 31
0.0
  0
LINE
  5
279
  8
LAYER0014
  6
CONTINUOUS
 62
     7
 10
-34.60191518467852
 20
158.4906384302392
 30
0.0
 11
-34.06601564978091
 21
156.4906400226086
 31
0.0
  0
LINE
  5
27A
  8
LAYER0014
  6
CONTINUOUS
 62
     7
 10
-34.60191518467852
 20
158.4906384302392
 30
0.0
 11
-34.60191518467852
 21
156.4906400226086
 31
0.0
  0
ENDBLK
  5
EA
  8
0
  0
BLOCK
  8
0
  2
DC_GROUP_54
 70
     0
 10
0.0
 20
0.0
 30
0.0
  3
DC_GROUP_54
  1

  0
LINE
  5
27B
  8
LAYER0014
  6
CONTINUOUS
 62
     7
 10
-41.45122792881914
 20
33.49063270819334
 30
0.0
 11
-33.60191518467852
 21
33.49063270819334
 31
0.0
  0
LINE
  5
27C
  8
LAYER0014
  6
CONTINUOUS
 62
     7
 10
-76.06191518467851
 20
86.49063080084471
 30
0.0
 11
-33.60191518467852
 21
86.49063080084471
 31
0.0
  0
LINE
  5
27D
  8
LAYER0014
  6
CONTINUOUS
 62
     7
 10
-34.60191518467852
 20
33.49063270819334
 30
0.0
 11
-34.60191518467852
 21
86.49063080084471
 31
0.0
  0
INSERT
  5
27E
  8
LAYER0014
  6
CONTINUOUS
  2
DC_GROUP_55
 10
0.0
 20
0.0
 30
0.0
  0
INSERT
  5
27F
  8
LAYER0014
  6
CONTINUOUS
  2
DC_GROUP_56
 10
0.0
 20
0.0
 30
0.0
  0
TEXT
  5
280
  8
LAYER0014
 62
     7
 10
-35.60191518467852
 20
47.19063175451903
 30
0.0
 40
4.0
  1
MAX 54.9
 50
90.0
 41
0.6904761904761902
  7
FDASTYLE1
 72
     5
 11
-35.60191518467852
 21
69.28586984975712
 31
0.0
  0
ENDBLK
  5
ED
  8
0
  0
BLOCK
  8
0
  2
DC_GROUP_55
 70
     0
 10
0.0
 20
0.0
 30
0.0
  3
DC_GROUP_55
  1

  0
LINE
  5
281
  8
LAYER0014
  6
CONTINUOUS
 62
     7
 10
-34.06601564978091
 20
35.490631115824
 30
0.0
 11
-34.60191518467852
 21
33.49063270819334
 31
0.0
  0
LINE
  5
282
  8
LAYER0014
  6
CONTINUOUS
 62
     7
 10
-34.60191518467852
 20
33.49063270819334
 30
0.0
 11
-35.13781471957613
 21
35.490631115824
 31
0.0
  0
LINE
  5
283
  8
LAYER0014
  6
CONTINUOUS
 62
     7
 10
-34.60191518467852
 20
33.49063270819334
 30
0.0
 11
-34.60191518467852
 21
35.490631115824
 31
0.0
  0
ENDBLK
  5
F0
  8
0
  0
BLOCK
  8
0
  2
DC_GROUP_56
 70
     0
 10
0.0
 20
0.0
 30
0.0
  3
DC_GROUP_56
  1

  0
LINE
  5
284
  8
LAYER0014
  6
CONTINUOUS
 62
     7
 10
-35.13781471957613
 20
84.49063239321406
 30
0.0
 11
-34.60191518467852
 21
86.49063080084471
 31
0.0
  0
LINE
  5
285
  8
LAYER0014
  6
CONTINUOUS
 62
     7
 10
-34.60191518467852
 20
86.49063080084471
 30
0.0
 11
-34.06601564978091
 21
84.49063239321406
 31
0.0
  0
LINE
  5
286
  8
LAYER0014
  6
CONTINUOUS
 62
     7
 10
-34.60191518467852
 20
86.49063080084471
 30
0.0
 11
-34.60191518467852
 21
84.49063239321406
 31
0.0
  0
ENDBLK
  5
F3
  8
0
  0
BLOCK
  8
0
  2
DC_GROUP_57
 70
     0
 10
0.0
 20
0.0
 30
0.0
  3
DC_GROUP_57
  1

  0
LINE
  5
287
  8
LAYER0014
  6
CONTINUOUS
 62
     7
 10
-153.4236467520613
 20
84.27379486334471
 30
0.0
 11
-153.4236467520613
 21
175.7159344507471
 31
0.0
  0
LINE
  5
288
  8
LAYER0014
  6
CONTINUOUS
 62
     7
 10
-187.6019151846785
 20
148.3740527368799
 30
0.0
 11
-187.6019151846785
 21
175.7159344507471
 31
0.0
  0
LINE
  5
289
  8
LAYER0014
  6
CONTINUOUS
 62
     7
 10
-153.4236467520613
 20
173.4299389673486
 30
0.0
 11
-187.6019151846785
 21
173.4299389673486
 31
0.0
  0
INSERT
  5
28A
  8
LAYER0014
  6
CONTINUOUS
  2
DC_GROUP_58
 10
0.0
 20
0.0
 30
0.0
  0
INSERT
  5
28B
  8
LAYER0014
  6
CONTINUOUS
  2
DC_GROUP_59
 10
0.0
 20
0.0
 30
0.0
  0
TEXT
  5
28C
  8
LAYER0014
 62
     7
 10
-181.8240913572605
 20
174.4299389673486
 30
0.0
 40
4.0
  1
MAX50.5
 41
0.6802721088435371
  7
FDASTYLE1
 72
     5
 11
-162.7764723096415
 21
174.4299389673486
 31
0.0
  0
ENDBLK
  5
F6
  8
0
  0
BLOCK
  8
0
  2
DC_GROUP_58
 70
     0
 10
0.0
 20
0.0
 30
0.0
  3
DC_GROUP_58
  1

  0
LINE
  5
28D
  8
LAYER0014
  6
CONTINUOUS
 62
     7
 10
-155.423645159692
 20
173.9658385022462
 30
0.0
 11
-153.4236467520613
 21
173.4299389673486
 31
0.0
  0
LINE
  5
28E
  8
LAYER0014
  6
CONTINUOUS
 62
     7
 10
-153.4236467520613
 20
173.4299389673486
 30
0.0
 11
-155.423645159692
 21
172.894039432451
 31
0.0
  0
LINE
  5
28F
  8
LAYER0014
  6
CONTINUOUS
 62
     7
 10
-153.4236467520613
 20
173.4299389673486
 30
0.0
 11
-155.423645159692
 21
173.4299389673486
 31
0.0
  0
ENDBLK
  5
F9
  8
0
  0
BLOCK
  8
0
  2
DC_GROUP_59
 70
     0
 10
0.0
 20
0.0
 30
0.0
  3
DC_GROUP_59
  1

  0
LINE
  5
290
  8
LAYER0014
  6
CONTINUOUS
 62
     7
 10
-185.6019167770478
 20
172.894039432451
 30
0.0
 11
-187.6019151846785
 21
173.4299389673486
 31
0.0
  0
LINE
  5
291
  8
LAYER0014
  6
CONTINUOUS
 62
     7
 10
-187.6019151846785
 20
173.4299389673486
 30
0.0
 11
-185.6019167770478
 21
173.9658385022462
 31
0.0
  0
LINE
  5
292
  8
LAYER0014
  6
CONTINUOUS
 62
     7
 10
-187.6019151846785
 20
173.4299389673486
 30
0.0
 11
-185.6019167770478
 21
173.4299389673486
 31
0.0
  0
ENDBLK
  5
FC
  8
0
  0
BLOCK
  8
0
  2
DC_GROUP_60
 70
     0
 10
0.0
 20
0.0
 30
0.0
  3
DC_GROUP_60
  1

  0
LINE
  5
293
  8
LAYER0014
  6
CONTINUOUS
 62
     7
 10
-77.60191518467852
 20
159.0306384302392
 30
0.0
 11
-77.60191518467852
 21
174.4299389673486
 31
0.0
  0
LINE
  5
294
  8
LAYER0014
  6
CONTINUOUS
 62
     7
 10
-78.60191518467852
 20
161.0306384302392
 30
0.0
 11
-78.60191518467852
 21
174.4299389673486
 31
0.0
  0
LINE
  5
295
  8
LAYER0014
  6
CONTINUOUS
 62
     7
 10
-77.60191518467852
 20
173.4299389673486
 30
0.0
 11
-78.60191518467852
 21
173.4299389673486
 31
0.0
  0
LINE
  5
296
  8
LAYER0014
  6
CONTINUOUS
 62
     7
 10
-77.60191518467852
 20
173.4299389673486
 30
0.0
 11
-71.25191518467852
 21
173.4299389673486
 31
0.0
  0
LINE
  5
297
  8
LAYER0014
  6
CONTINUOUS
 62
     7
 10
-84.95191518467851
 20
173.4299389673486
 30
0.0
 11
-78.60191518467852
 21
173.4299389673486
 31
0.0
  0
INSERT
  5
298
  8
LAYER0014
  6
CONTINUOUS
  2
DC_GROUP_61
 10
0.0
 20
0.0
 30
0.0
  0
INSERT
  5
299
  8
LAYER0014
  6
CONTINUOUS
  2
DC_GROUP_62
 10
0.0
 20
0.0
 30
0.0
  0
TEXT
  5
29A
  8
LAYER0014
 62
     7
 10
-73.58018056553789
 20
175.0299389673486
 30
0.0
 40
4.0
  1
1
 41
0.1904761904761898
  7
FDASTYLE1
 72
     5
 11
-72.81827580363313
 21
175.0299389673486
 31
0.0
  0
ENDBLK
  5
FF
  8
0
  0
BLOCK
  8
0
  2
DC_GROUP_61
 70
     0
 10
0.0
 20
0.0
 30
0.0
  3
DC_GROUP_61
  1

  0
LINE
  5
29B
  8
LAYER0014
  6
CONTINUOUS
 62
     7
 10
-75.60191677704785
 20
172.894039432451
 30
0.0
 11
-77.60191518467852
 21
173.4299389673486
 31
0.0
  0
LINE
  5
29C
  8
LAYER0014
  6
CONTINUOUS
 62
     7
 10
-77.60191518467852
 20
173.4299389673486
 30
0.0
 11
-75.60191677704785
 21
173.9658385022462
 31
0.0
  0
LINE
  5
29D
  8
LAYER0014
  6
CONTINUOUS
 62
     7
 10
-77.60191518467852
 20
173.4299389673486
 30
0.0
 11
-75.60191677704785
 21
173.4299389673486
 31
0.0
  0
ENDBLK
  5
102
  8
0
  0
BLOCK
  8
0
  2
DC_GROUP_62
 70
     0
 10
0.0
 20
0.0
 30
0.0
  3
DC_GROUP_62
  1

  0
LINE
  5
29E
  8
LAYER0014
  6
CONTINUOUS
 62
     7
 10
-80.60191359230917
 20
173.9658385022462
 30
0.0
 11
-78.60191518467852
 21
173.4299389673486
 31
0.0
  0
LINE
  5
29F
  8
LAYER0014
  6
CONTINUOUS
 62
     7
 10
-78.60191518467852
 20
173.4299389673486
 30
0.0
 11
-80.60191359230917
 21
172.894039432451
 31
0.0
  0
LINE
  5
2A0
  8
LAYER0014
  6
CONTINUOUS
 62
     7
 10
-78.60191518467852
 20
173.4299389673486
 30
0.0
 11
-80.60191359230917
 21
173.4299389673486
 31
0.0
  0
ENDBLK
  5
105
  8
0
  0
BLOCK
  8
0
  2
DC_GROUP_63
 70
     0
 10
0.0
 20
0.0
 30
0.0
  3
DC_GROUP_63
  1

  0
LINE
  5
2A1
  8
LAYER0014
  6
CONTINUOUS
 62
     7
 10
-78.45774968248574
 20
152.3333755061396
 30
0.0
 11
-53.84300336608882
 21
176.4299328891846
 31
0.0
  0
LINE
  5
2A2
  8
LAYER0014
  6
CONTINUOUS
 62
     7
 10
-53.84300405186602
 20
176.4299389673486
 30
0.0
 11
-7.213334862412893
 21
176.4299389673486
 31
0.0
  0
INSERT
  5
2A3
  8
LAYER0014
  6
CENTER
  2
DC_GROUP_64
 10
0.0
 20
0.0
 30
0.0
  0
TEXT
  5
2A4
  8
LAYER0014
 62
     7
 10
-53.32480031651446
 20
178.0299389673486
 30
0.0
 40
4.0
  1
ｾﾚｰｼｮﾝP1.5山60ﾟ
 41
0.6332076968855387
  7
FDASTYLE1
 72
     5
 11
-17.35860313341587
 21
178.0299389673486
 31
0.0
  0
ENDBLK
  5
108
  8
0
  0
BLOCK
  8
0
  2
DC_GROUP_64
 70
     0
 10
0.0
 20
0.0
 30
0.0
  3
DC_GROUP_64
  1

  0
LINE
  5
2A5
  8
LAYER0014
  6
CONTINUOUS
 62
     7
 10
-76.65368792078318
 20
153.3495167866667
 30
0.0
 11
-78.45774968248574
 21
152.3333755061396
 31
0.0
  0
LINE
  5
2A6
  8
LAYER0014
  6
CONTINUOUS
 62
     7
 10
-78.45774968248574
 20
152.3333755061396
 30
0.0
 11
-77.40345962865534
 21
154.1154121007197
 31
0.0
  0
LINE
  5
2A7
  8
LAYER0014
  6
CONTINUOUS
 62
     7
 10
-78.45774968248574
 20
152.3333755061396
 30
0.0
 11
-77.02857377471925
 21
153.7324644436932
 31
0.0
  0
ENDBLK
  5
10B
  8
0
  0
BLOCK
  8
0
  2
DC_GROUP_65
 70
     0
 10
0.0
 20
0.0
 30
0.0
  3
DC_GROUP_65
  1

  0
LINE
  5
2A8
  8
LAYER0014
  6
CONTINUOUS
 62
     7
 10
-62.39336072685629
 20
140.932849520848
 30
0.0
 11
-38.81502861657552
 21
166.8430987817081
 31
0.0
  0
LINE
  5
2A9
  8
LAYER0014
  6
CONTINUOUS
 62
     7
 10
-38.81502706211992
 20
166.8430859400049
 30
0.0
 11
-27.26435262364336
 21
166.8430859400049
 31
0.0
  0
INSERT
  5
2AA
  8
LAYER0014
  6
CONTINUOUS
  2
DC_GROUP_66
 10
0.0
 20
0.0
 30
0.0
  0
TEXT
  5
2AB
  8
LAYER0014
 62
     7
 10
-37.77863485020586
 20
168.4430859400049
 30
0.0
 40
4.0
  1
M12
 41
0.7238095238095242
  7
FDASTYLE1
 72
     5
 11
-29.09292056449157
 21
168.4430859400049
 31
0.0
  0
ENDBLK
  5
10E
  8
0
  0
BLOCK
  8
0
  2
DC_GROUP_66
 70
     0
 10
0.0
 20
0.0
 30
0.0
  3
DC_GROUP_66
  1

  0
LINE
  5
2AC
  8
LAYER0014
  6
CONTINUOUS
 62
     7
 10
-60.65092584730931
 20
142.0513765131762
 30
0.0
 11
-62.39336072685629
 21
140.932849520848
 31
0.0
  0
LINE
  5
2AD
  8
LAYER0014
  6
CONTINUOUS
 62
     7
 10
-62.39336072685629
 20
140.932849520848
 30
0.0
 11
-61.44363405953926
 21
142.7727411479325
 31
0.0
  0
LINE
  5
2AE
  8
LAYER0014
  6
CONTINUOUS
 62
     7
 10
-62.39336072685629
 20
140.932849520848
 30
0.0
 11
-61.04727995342428
 21
142.4120588305543
 31
0.0
  0
ENDBLK
  5
111
  8
0
  0
BLOCK
  8
0
  2
DC_GROUP_67
 70
     0
 10
0.0
 20
0.0
 30
0.0
  3
DC_GROUP_67
  1

  0
LINE
  5
2AF
  8
LAYER0014
  6
CONTINUOUS
 62
     7
 10
129.9471241658061
 20
-30.18516667844705
 30
0.0
 11
165.8900335144257
 21
-108.1837158676128
 31
0.0
  0
LINE
  5
2B0
  8
LAYER0014
  6
CONTINUOUS
 62
     7
 10
165.8900336865431
 20
-108.1837180303321
 30
0.0
 11
212.5197028759962
 21
-108.1837180303321
 31
0.0
  0
INSERT
  5
2B1
  8
LAYER0014
  6
CONTINUOUS
  2
DC_GROUP_68
 10
0.0
 20
0.0
 30
0.0
  0
TEXT
  5
2B2
  8
LAYER0014
 62
     7
 10
166.3790702466017
 20
-106.5837180303321
 30
0.0
 40
4.0
  1
3-M8×15 PCD120
 41
0.633207696885539
  7
FDASTYLE1
 72
     5
 11
202.3452674297003
 21
-106.5837180303321
 31
0.0
  0
ENDBLK
  5
114
  8
0
  0
BLOCK
  8
0
  2
DC_GROUP_68
 70
     0
 10
0.0
 20
0.0
 30
0.0
  3
DC_GROUP_68
  1

  0
LINE
  5
2B3
  8
LAYER0014
  6
CONTINUOUS
 62
     7
 10
130.2974476363806
 20
-32.2258664133403
 30
0.0
 11
129.9471241658061
 21
-30.18516667844705
 31
0.0
  0
LINE
  5
2B4
  8
LAYER0014
  6
CONTINUOUS
 62
     7
 10
129.9471241658061
 20
-30.18516667844705
 30
0.0
 11
131.2708654004875
 21
-31.77730080773169
 31
0.0
  0
LINE
  5
2B5
  8
LAYER0014
  6
CONTINUOUS
 62
     7
 10
129.9471241658061
 20
-30.18516667844705
 30
0.0
 11
130.784156518434
 21
-32.00158361053599
 31
0.0
  0
ENDBLK
  5
117
  8
0
  0
BLOCK
  8
0
  2
DC_GROUP_69
 70
     0
 10
0.0
 20
0.0
 30
0.0
  3
DC_GROUP_69
  1

  0
LINE
  5
2B6
  8
LAYER0014
  6
CONTINUOUS
 62
     7
 10
11.94520481559259
 20
-21.61909865033971
 30
0.0
 11
-7.132184532063164
 21
-32.63343472333191
 31
0.0
  0
LINE
  5
2B7
  8
LAYER0014
  6
CONTINUOUS
 62
     7
 10
21.94520152359038
 20
-38.93959221587826
 30
0.0
 11
2.867802297838736
 21
-49.95393333548595
 31
0.0
  0
LINE
  5
2B8
  8
LAYER0014
  6
CONTINUOUS
 62
     7
 10
-5.152471066412957
 20
-31.4904576545156
 30
0.0
 11
4.847525883040177
 21
-48.81096339248752
 31
0.0
  0
INSERT
  5
2B9
  8
LAYER0014
  6
CONTINUOUS
  2
DC_GROUP_70
 10
0.0
 20
0.0
 30
0.0
  0
INSERT
  5
2BA
  8
LAYER0014
  6
BORDER
  2
DC_GROUP_71
 10
0.0
 20
0.0
 30
0.0
  0
TEXT
  5
2BB
  8
LAYER0014
 62
     7
 10
-2.486447151077126
 20
-34.10814800306363
 30
0.0
 40
4.0
  1
20H8
 50
-59.99999999999999
 41
0.7238095238095236
  7
FDASTYLE1
 72
     5
 11
3.304029039399063
 21
-44.13754696498627
 31
0.0
  0
ENDBLK
  5
11A
  8
0
  0
BLOCK
  8
0
  2
DC_GROUP_70
 70
     0
 10
0.0
 20
0.0
 30
0.0
  3
DC_GROUP_70
  1

  0
LINE
  5
2BC
  8
LAYER0014
  6
CONTINUOUS
 62
     7
 10
-4.616574620994456
 20
-33.49045688996957
 30
0.0
 11
-5.152471066412957
 21
-31.4904576545156
 31
0.0
  0
LINE
  5
2BD
  8
LAYER0014
  6
CONTINUOUS
 62
     7
 10
-5.152471066412957
 20
-31.4904576545156
 30
0.0
 11
-3.688369359330459
 21
-32.95455742343395
 31
0.0
  0
LINE
  5
2BE
  8
LAYER0014
  6
CONTINUOUS
 62
     7
 10
-5.152471066412957
 20
-31.4904576545156
 30
0.0
 11
-4.152471990162457
 21
-33.22250715670176
 31
0.0
  0
ENDBLK
  5
11D
  8
0
  0
BLOCK
  8
0
  2
DC_GROUP_71
 70
     0
 10
0.0
 20
0.0
 30
0.0
  3
DC_GROUP_71
  1

  0
LINE
  5
2BF
  8
LAYER0014
  6
CONTINUOUS
 62
     7
 10
4.311629437621672
 20
-46.81096415703355
 30
0.0
 11
4.847525883040177
 21
-48.81096339248752
 31
0.0
  0
LINE
  5
2C0
  8
LAYER0014
  6
CONTINUOUS
 62
     7
 10
4.847525883040177
 20
-48.81096339248752
 30
0.0
 11
3.383424175957678
 21
-47.34686362356916
 31
0.0
  0
LINE
  5
2C1
  8
LAYER0014
  6
CONTINUOUS
 62
     7
 10
4.847525883040177
 20
-48.81096339248752
 30
0.0
 11
3.847526806789674
 21
-47.07891389030136
 31
0.0
  0
ENDBLK
  5
120
  8
0
  0
BLOCK
  8
0
  2
DC_GROUP_72
 70
     0
 10
0.0
 20
0.0
 30
0.0
  3
DC_GROUP_72
  1

  0
LINE
  5
2C2
  8
LAYER0014
  6
CONTINUOUS
 62
     7
 10
5.695206069637077
 20
-10.79379872818691
 30
0.0
 11
-29.39166080288358
 21
-31.05121112564201
 31
0.0
  0
LINE
  5
2C3
  8
LAYER0014
  6
CONTINUOUS
 62
     7
 10
28.19522343091625
 20
-49.76496363866093
 30
0.0
 11
-6.891665660659854
 21
-70.02238264032002
 31
0.0
  0
LINE
  5
2C4
  8
LAYER0014
  6
CONTINUOUS
 62
     7
 10
-27.41191954230443
 20
-29.90818313259144
 30
0.0
 11
-4.91191992973468
 21
-68.87932725524041
 31
0.0
  0
INSERT
  5
2C5
  8
LAYER0014
  6
CONTINUOUS
  2
DC_GROUP_73
 10
0.0
 20
0.0
 30
0.0
  0
INSERT
  5
2C6
  8
LAYER0014
  6
CONTINUOUS
  2
DC_GROUP_74
 10
0.0
 20
0.0
 30
0.0
  0
TEXT
  5
2C7
  8
LAYER0014
 62
     7
 10
-16.89589432321624
 20
-46.12247391742687
 30
0.0
 40
4.0
  1
45
 50
-59.99999999999999
 41
0.6476190476190473
  7
FDASTYLE1
 72
     5
 11
-14.30541813274005
 21
-50.60931029512911
 31
0.0
  0
ENDBLK
  5
123
  8
0
  0
BLOCK
  8
0
  2
DC_GROUP_73
 70
     0
 10
0.0
 20
0.0
 30
0.0
  3
DC_GROUP_73
  1

  0
LINE
  5
2C8
  8
LAYER0014
  6
CONTINUOUS
 62
     7
 10
-26.87602298566219
 20
-31.90818233824319
 30
0.0
 11
-27.41191954230443
 21
-29.90818313259144
 31
0.0
  0
LINE
  5
2C9
  8
LAYER0014
  6
CONTINUOUS
 62
     7
 10
-27.41191954230443
 20
-29.90818313259144
 30
0.0
 11
-25.94781775380057
 21
-31.37228282008832
 31
0.0
  0
LINE
  5
2CA
  8
LAYER0014
  6
CONTINUOUS
 62
     7
 10
-27.41191954230443
 20
-29.90818313259144
 30
0.0
 11
-26.41192036973138
 21
-31.64023257916576
 31
0.0
  0
ENDBLK
  5
126
  8
0
  0
BLOCK
  8
0
  2
DC_GROUP_74
 70
     0
 10
0.0
 20
0.0
 30
0.0
  3
DC_GROUP_74
  1

  0
LINE
  5
2CB
  8
LAYER0014
  6
CONTINUOUS
 62
     7
 10
-5.447816486376922
 20
-66.87932804958867
 30
0.0
 11
-4.91191992973468
 21
-68.87932725524041
 31
0.0
  0
LINE
  5
2CC
  8
LAYER0014
  6
CONTINUOUS
 62
     7
 10
-4.91191992973468
 20
-68.87932725524041
 30
0.0
 11
-6.37602171823854
 21
-67.41522756774353
 31
0.0
  0
LINE
  5
2CD
  8
LAYER0014
  6
CONTINUOUS
 62
     7
 10
-4.91191992973468
 20
-68.87932725524041
 30
0.0
 11
-5.911919102307728
 21
-67.14727780866609
 31
0.0
  0
ENDBLK
  5
129
  8
0
  0
BLOCK
  8
0
  2
DC_GROUP_75
 70
     0
 10
0.0
 20
0.0
 30
0.0
  3
DC_GROUP_75
  1

  0
LINE
  5
2CE
  8
LAYER0014
  6
CONTINUOUS
 62
     7
 10
265.0829572705275
 20
33.49135750067381
 30
0.0
 11
265.3853187207228
 21
33.49135750067381
 31
0.0
  0
LINE
  5
2CF
  8
LAYER0014
  6
CONTINUOUS
 62
     7
 10
189.6370599080163
 20
69.42438983741798
 30
0.0
 11
246.7759212448038
 21
102.4134479799221
 31
0.0
  0
ARC
  5
2D0
  8
LAYER0014
  6
CONTINUOUS
 62
     7
 10
127.3980826977735
 20
33.49063270819334
 30
0.0
 40
135.7012481689453
 50
0.0
 51
29.99999741973146
  0
INSERT
  5
2D1
  8
LAYER0014
  6
CONTINUOUS
  2
DC_GROUP_76
 10
0.0
 20
0.0
 30
0.0
  0
INSERT
  5
2D2
  8
LAYER0014
  6
CONTINUOUS
  2
DC_GROUP_77
 10
0.0
 20
0.0
 30
0.0
  0
TEXT
  5
2D3
  8
LAYER0014
 62
     7
 10
258.7785717757072
 20
73.66324982965038
 30
0.0
 40
4.0
  1
30ﾟ
 50
-75.00000000000003
 41
0.4500000000000031
  7
FDASTYLE1
 72
     5
 11
260.1761946192608
 21
68.44725036768938
 31
0.0
  0
ENDBLK
  5
12C
  8
0
  0
BLOCK
  8
0
  2
DC_GROUP_76
 70
     0
 10
0.0
 20
0.0
 30
0.0
  3
DC_GROUP_76
  1

  0
LINE
  5
2D4
  8
LAYER0014
  6
CONTINUOUS
 62
     7
 10
263.6204777462303
 20
35.49452588698406
 30
0.0
 11
263.0993308667188
 21
33.49063270819334
 31
0.0
  0
LINE
  5
2D5
  8
LAYER0014
  6
CONTINUOUS
 62
     7
 10
263.0993308667188
 20
33.49063270819334
 30
0.0
 11
262.5487077777929
 21
35.48662773723786
 31
0.0
  0
LINE
  5
2D6
  8
LAYER0014
  6
CONTINUOUS
 62
     7
 10
263.0993308667188
 20
33.49063270819334
 30
0.0
 11
263.0845927620117
 21
35.49057681211097
 31
0.0
  0
ENDBLK
  5
12F
  8
0
  0
BLOCK
  8
0
  2
DC_GROUP_77
 70
     0
 10
0.0
 20
0.0
 30
0.0
  3
DC_GROUP_77
  1

  0
LINE
  5
2D7
  8
LAYER0014
  6
CONTINUOUS
 62
     7
 10
245.4399578342924
 20
99.33735753130391
 30
0.0
 11
244.9188139929339
 21
101.3412515002161
 31
0.0
  0
LINE
  5
2D8
  8
LAYER0014
  6
CONTINUOUS
 62
     7
 10
244.9188139929339
 20
101.3412515002161
 30
0.0
 11
246.3720869526707
 21
99.86640247522185
 31
0.0
  0
LINE
  5
2D9
  8
LAYER0014
  6
CONTINUOUS
 62
     7
 10
244.9188139929339
 20
101.3412515002161
 30
0.0
 11
245.9060223934816
 21
99.60188000326288
 31
0.0
  0
ENDBLK
  5
132
  8
0
  0
BLOCK
  8
0
  2
DC_GROUP_78
 70
     0
 10
0.0
 20
0.0
 30
0.0
  3
DC_GROUP_78
  1

  0
LINE
  5
2DA
  8
LAYER0014
  6
CONTINUOUS
 62
     7
 10
50.8608152385664
 20
110.0278734467504
 30
0.0
 11
29.53095986961549
 21
131.3576640887932
 31
0.0
  0
ARC
  5
2DB
  8
LAYER0014
  6
CONTINUOUS
 62
     7
 10
127.3981436382148
 20
33.49062866519174
 30
0.0
 40
136.1189880371094
 50
135.0000413227577
 51
165.0000216670162
  0
INSERT
  5
2DC
  8
LAYER0014
  6
CONTINUOUS
  2
DC_GROUP_79
 10
0.0
 20
0.0
 30
0.0
  0
INSERT
  5
2DD
  8
LAYER0014
  6
CONTINUOUS
  2
DC_GROUP_80
 10
0.0
 20
0.0
 30
0.0
  0
TEXT
  5
2DE
  8
LAYER0014
 62
     7
 10
5.7299613356655
 20
98.19314543247077
 30
0.0
 40
4.0
  1
30ﾟ
 50
59.99999999999999
 41
0.4500000000000003
  7
FDASTYLE1
 72
     5
 11
8.429961335665503
 21
102.8696826129067
 31
0.0
  0
ENDBLK
  5
135
  8
0
  0
BLOCK
  8
0
  2
DC_GROUP_79
 70
     0
 10
0.0
 20
0.0
 30
0.0
  3
DC_GROUP_79
  1

  0
LINE
  5
2DF
  8
LAYER0014
  6
CONTINUOUS
 62
     7
 10
29.36191882854791
 20
128.6927978653471
 30
0.0
 11
31.14741473122398
 21
129.7412187367321
 31
0.0
  0
LINE
  5
2E0
  8
LAYER0014
  6
CONTINUOUS
 62
     7
 10
31.14741473122398
 20
129.7412187367321
 30
0.0
 11
30.12534300585067
 21
127.9405101733546
 31
0.0
  0
LINE
  5
2E1
  8
LAYER0014
  6
CONTINUOUS
 62
     7
 10
31.14741473122398
 20
129.7412187367321
 30
0.0
 11
29.74363091719929
 21
128.3166540193509
 31
0.0
  0
ENDBLK
  5
138
  8
0
  0
BLOCK
  8
0
  2
DC_GROUP_80
 70
     0
 10
0.0
 20
0.0
 30
0.0
  3
DC_GROUP_80
  1

  0
LINE
  5
2E2
  8
LAYER0014
  6
CONTINUOUS
 62
     7
 10
-3.034294142752167
 20
70.50626096134255
 30
0.0
 11
-4.082715677827054
 21
68.72076544837707
 31
0.0
  0
LINE
  5
2E3
  8
LAYER0014
  6
CONTINUOUS
 62
     7
 10
-4.082715677827054
 20
68.72076544837707
 30
0.0
 11
-4.067506796946816
 21
70.79126071086164
 31
0.0
  0
LINE
  5
2E4
  8
LAYER0014
  6
CONTINUOUS
 62
     7
 10
-4.082715677827054
 20
68.72076544837707
 30
0.0
 11
-3.550900469849491
 21
70.6487608361021
 31
0.0
  0
ENDBLK
  5
13B
  8
0
  0
BLOCK
  8
0
  2
DC_GROUP_81
 70
     0
 10
0.0
 20
0.0
 30
0.0
  3
DC_GROUP_81
  1

  0
LINE
  5
2E5
  8
LAYER0014
  6
CONTINUOUS
 62
     7
 10
23.12432570151847
 20
61.43068841091193
 30
0.0
 11
-6.290841938620446
 21
69.31243425680898
 31
0.0
  0
LINE
  5
2E6
  8
LAYER0014
  6
CONTINUOUS
 62
     7
 10
-10.24387441797706
 20
33.49086995572296
 30
0.0
 11
-11.0068529414351
 21
33.49092987624012
 31
0.0
  0
ARC
  5
2E7
  8
LAYER0014
  6
CONTINUOUS
 62
     7
 10
127.3980139385077
 20
33.49066490481577
 30
0.0
 40
136.1188659667969
 50
165.0000216670162
 51
179.9999640278213
  0
INSERT
  5
2E8
  8
LAYER0014
  6
BORDER
  2
DC_GROUP_82
 10
0.0
 20
0.0
 30
0.0
  0
INSERT
  5
2E9
  8
LAYER0014
  6
CONTINUOUS
  2
DC_GROUP_83
 10
0.0
 20
0.0
 30
0.0
  0
TEXT
  5
2EA
  8
LAYER0014
 62
     7
 10
-9.777107302253931
 20
46.71153419446702
 30
0.0
 40
4.0
  1
15ﾟ
 50
82.40000000000003
 41
0.4499999999999999
  7
FDASTYLE1
 72
     5
 11
-9.062922794865473
 21
52.06409811182535
 31
0.0
  0
ENDBLK
  5
13E
  8
0
  0
BLOCK
  8
0
  2
DC_GROUP_82
 70
     0
 10
0.0
 20
0.0
 30
0.0
  3
DC_GROUP_82
  1

  0
LINE
  5
2EB
  8
LAYER0014
  6
CONTINUOUS
 62
     7
 10
-5.10480244691496
 20
66.92006337800528
 30
0.0
 11
-4.082727466654688
 21
68.72077009392396
 31
0.0
  0
LINE
  5
2EC
  8
LAYER0014
  6
CONTINUOUS
 62
     7
 10
-4.082727466654688
 20
68.72077009392396
 30
0.0
 11
-4.067513960286693
 21
66.65027486542121
 31
0.0
  0
LINE
  5
2ED
  8
LAYER0014
  6
CONTINUOUS
 62
     7
 10
-4.082727466654688
 20
68.72077009392396
 30
0.0
 11
-4.586158203600824
 21
66.78516912171325
 31
0.0
  0
ENDBLK
  5
141
  8
0
  0
BLOCK
  8
0
  2
DC_GROUP_83
 70
     0
 10
0.0
 20
0.0
 30
0.0
  3
DC_GROUP_83
  1

  0
LINE
  5
2EE
  8
LAYER0014
  6
CONTINUOUS
 62
     7
 10
-8.170272813275197
 20
35.48675749648994
 30
0.0
 11
-8.720852028262328
 21
33.49075036472593
 31
0.0
  0
LINE
  5
2EF
  8
LAYER0014
  6
CONTINUOUS
 62
     7
 10
-8.720852028262328
 20
33.49075036472593
 30
0.0
 11
-9.242042955062349
 21
35.49463208774503
 31
0.0
  0
LINE
  5
2F0
  8
LAYER0014
  6
CONTINUOUS
 62
     7
 10
-8.720852028262328
 20
33.49075036472593
 30
0.0
 11
-8.706157884168773
 21
35.49069479211749
 31
0.0
  0
ENDBLK
  5
144
  8
0
  0
BLOCK
  8
0
  2
DC_GROUP_84
 70
     0
 10
0.0
 20
0.0
 30
0.0
  3
DC_GROUP_84
  1

  0
LINE
  5
2F1
  8
LAYER0014
  6
CONTINUOUS
 62
     7
 10
158.2851651346922
 20
-59.21940137958492
 30
0.0
 11
180.591703056787
 21
-92.59273482855517
 31
0.0
  0
LINE
  5
2F2
  8
LAYER0014
  6
CONTINUOUS
 62
     7
 10
180.591693748078
 20
-92.59273200680534
 30
0.0
 11
208.1434820781562
 21
-92.59273200680534
 31
0.0
  0
INSERT
  5
2F3
  8
LAYER0014
  6
CONTINUOUS
  2
DC_GROUP_85
 10
0.0
 20
0.0
 30
0.0
  0
TEXT
  5
2F4
  8
LAYER0014
 62
     7
 10
181.6291998515937
 20
-90.99273200680534
 30
0.0
 40
4.0
  1
PCD171.4
 41
0.7000000000000002
  7
FDASTYLE1
 72
     5
 11
204.0291998515937
 21
-90.99273200680534
 31
0.0
  0
ENDBLK
  5
147
  8
0
  0
BLOCK
  8
0
  2
DC_GROUP_85
 70
     0
 10
0.0
 20
0.0
 30
0.0
  3
DC_GROUP_85
  1

  0
LINE
  5
2F5
  8
LAYER0014
  6
CONTINUOUS
 62
     7
 10
158.9510125072286
 20
-61.17996997530276
 30
0.0
 11
158.2851651346922
 21
-59.21940137958492
 31
0.0
  0
LINE
  5
2F6
  8
LAYER0014
  6
CONTINUOUS
 62
     7
 10
158.2851651346922
 20
-59.21940137958492
 30
0.0
 11
159.8420921802165
 21
-60.58437761269073
 31
0.0
  0
LINE
  5
2F7
  8
LAYER0014
  6
CONTINUOUS
 62
     7
 10
158.2851651346922
 20
-59.21940137958492
 30
0.0
 11
159.3965523437226
 21
-60.88217379399674
 31
0.0
  0
ENDBLK
  5
14A
  8
0
  0
BLOCK
  8
0
  2
DC_GROUP_86
 70
     0
 10
0.0
 20
0.0
 30
0.0
  3
DC_GROUP_86
  1

  0
LINE
  5
2F8
  8
LAYER0014
  6
CONTINUOUS
 62
     7
 10
-213.1419609610457
 20
-44.20936424004885
 30
0.0
 11
-221.6018999258895
 21
-44.20936424004885
 31
0.0
  0
LINE
  5
2F9
  8
LAYER0014
  6
CONTINUOUS
 62
     7
 10
-213.1419609610457
 20
-60.20937186944338
 30
0.0
 11
-221.6018999258895
 21
-60.20937186944338
 31
0.0
  0
LINE
  5
2FA
  8
LAYER0014
  6
CONTINUOUS
 62
     7
 10
-220.6018999258895
 20
-44.20936424004885
 30
0.0
 11
-220.6018999258895
 21
-60.20937186944338
 31
0.0
  0
INSERT
  5
2FB
  8
LAYER0014
  6
CONTINUOUS
  2
DC_GROUP_87
 10
0.0
 20
0.0
 30
0.0
  0
INSERT
  5
2FC
  8
LAYER0014
  6
CONTINUOUS
  2
DC_GROUP_88
 10
0.0
 20
0.0
 30
0.0
  0
TEXT
  5
2FD
  8
LAYER0014
 62
     7
 10
-221.6018999258895
 20
-57.00936805474613
 30
0.0
 40
4.0
  1
M16
 50
90.0
 41
0.723809523809526
  7
FDASTYLE1
 72
     5
 11
-221.6018999258895
 21
-48.32365376903182
 31
0.0
  0
ENDBLK
  5
14D
  8
0
  0
BLOCK
  8
0
  2
DC_GROUP_87
 70
     0
 10
0.0
 20
0.0
 30
0.0
  3
DC_GROUP_87
  1

  0
LINE
  5
2FE
  8
LAYER0014
  6
CONTINUOUS
 62
     7
 10
-221.1377994607871
 20
-46.20936264767951
 30
0.0
 11
-220.6018999258895
 21
-44.20936424004885
 31
0.0
  0
LINE
  5
2FF
  8
LAYER0014
  6
CONTINUOUS
 62
     7
 10
-220.6018999258895
 20
-44.20936424004885
 30
0.0
 11
-220.0660003909919
 21
-46.20936264767951
 31
0.0
  0
LINE
  5
300
  8
LAYER0014
  6
CONTINUOUS
 62
     7
 10
-220.6018999258895
 20
-44.20936424004885
 30
0.0
 11
-220.6018999258895
 21
-46.20936264767951
 31
0.0
  0
ENDBLK
  5
150
  8
0
  0
BLOCK
  8
0
  2
DC_GROUP_88
 70
     0
 10
0.0
 20
0.0
 30
0.0
  3
DC_GROUP_88
  1

  0
LINE
  5
301
  8
LAYER0014
  6
CONTINUOUS
 62
     7
 10
-220.0660003909919
 20
-58.20937346181272
 30
0.0
 11
-220.6018999258895
 21
-60.20937186944338
 31
0.0
  0
LINE
  5
302
  8
LAYER0014
  6
CONTINUOUS
 62
     7
 10
-220.6018999258895
 20
-60.20937186944338
 30
0.0
 11
-221.1377994607871
 21
-58.20937346181272
 31
0.0
  0
LINE
  5
303
  8
LAYER0014
  6
CONTINUOUS
 62
     7
 10
-220.6018999258895
 20
-60.20937186944338
 30
0.0
 11
-220.6018999258895
 21
-58.20937346181272
 31
0.0
  0
ENDBLK
  5
153
  8
0
  0
BLOCK
  8
0
  2
DC_GROUP_89
 70
     0
 10
0.0
 20
0.0
 30
0.0
  3
DC_GROUP_89
  1

  0
LINE
  5
304
  8
LAYER0014
  6
CONTINUOUS
 62
     7
 10
-210.6018999258895
 20
-62.74937186944338
 30
0.0
 11
-210.6018999258895
 21
-73.79443961846681
 31
0.0
  0
LINE
  5
305
  8
LAYER0014
  6
CONTINUOUS
 62
     7
 10
-187.6019457022566
 20
-76.46937492120119
 30
0.0
 11
-187.6019457022566
 21
-69.22243339288087
 31
0.0
  0
LINE
  5
306
  8
LAYER0014
  6
CONTINUOUS
 62
     7
 10
-210.6018999258895
 20
-71.50843650567384
 30
0.0
 11
-187.6019457022566
 21
-71.50843650567384
 31
0.0
  0
INSERT
  5
307
  8
LAYER0014
  6
CONTINUOUS
  2
DC_GROUP_90
 10
0.0
 20
0.0
 30
0.0
  0
INSERT
  5
308
  8
LAYER0014
  6
CONTINUOUS
  2
DC_GROUP_91
 10
0.0
 20
0.0
 30
0.0
  0
TEXT
  5
309
  8
LAYER0014
 62
     7
 10
-202.3019179401956
 20
-70.50285145490297
 30
0.0
 40
4.0
  1
23
 50
-0.1000000000000078
 41
0.6476190476190452
  7
FDASTYLE1
 72
     5
 11
-197.120973450283
 21
-70.51189391805582
 31
0.0
  0
ENDBLK
  5
156
  8
0
  0
BLOCK
  8
0
  2
DC_GROUP_90
 70
     0
 10
0.0
 20
0.0
 30
0.0
  3
DC_GROUP_90
  1

  0
LINE
  5
30A
  8
LAYER0014
  6
CONTINUOUS
 62
     7
 10
-208.6019015182588
 20
-72.04433604057145
 30
0.0
 11
-210.6018999258895
 21
-71.50843650567384
 31
0.0
  0
LINE
  5
30B
  8
LAYER0014
  6
CONTINUOUS
 62
     7
 10
-210.6018999258895
 20
-71.50843650567384
 30
0.0
 11
-208.6019015182588
 21
-70.97253697077623
 31
0.0
  0
LINE
  5
30C
  8
LAYER0014
  6
CONTINUOUS
 62
     7
 10
-210.6018999258895
 20
-71.50843650567384
 30
0.0
 11
-208.6019015182588
 21
-71.50843650567384
 31
0.0
  0
ENDBLK
  5
159
  8
0
  0
BLOCK
  8
0
  2
DC_GROUP_91
 70
     0
 10
0.0
 20
0.0
 30
0.0
  3
DC_GROUP_91
  1

  0
LINE
  5
30D
  8
LAYER0014
  6
CONTINUOUS
 62
     7
 10
-189.6019441098873
 20
-70.97253697077623
 30
0.0
 11
-187.6019457022566
 21
-71.50843650567384
 31
0.0
  0
LINE
  5
30E
  8
LAYER0014
  6
CONTINUOUS
 62
     7
 10
-187.6019457022566
 20
-71.50843650567384
 30
0.0
 11
-189.6019441098873
 21
-72.04433604057145
 31
0.0
  0
LINE
  5
30F
  8
LAYER0014
  6
CONTINUOUS
 62
     7
 10
-187.6019457022566
 20
-71.50843650567384
 30
0.0
 11
-189.6019441098873
 21
-71.50843650567384
 31
0.0
  0
ENDBLK
  5
15C
  8
0
  0
BLOCK
  8
0
  2
DC_GROUP_92
 70
     0
 10
0.0
 20
0.0
 30
0.0
  3
DC_GROUP_92
  1

  0
LINE
  5
310
  8
LAYER0014
  6
CONTINUOUS
 62
     7
 10
-168.6019457022566
 20
-36.53437553155276
 30
0.0
 11
-168.6019457022566
 21
-73.79443961846681
 31
0.0
  0
LINE
  5
311
  8
LAYER0014
  6
CONTINUOUS
 62
     7
 10
-187.6019457022566
 20
-76.46937492120119
 30
0.0
 11
-187.6019457022566
 21
-69.22243339288087
 31
0.0
  0
LINE
  5
312
  8
LAYER0014
  6
CONTINUOUS
 62
     7
 10
-168.6019609610457
 20
-71.50843650567384
 30
0.0
 11
-187.6019457022566
 21
-71.50843650567384
 31
0.0
  0
INSERT
  5
313
  8
LAYER0014
  6
CONTINUOUS
  2
DC_GROUP_93
 10
0.0
 20
0.0
 30
0.0
  0
INSERT
  5
314
  8
LAYER0014
  6
CONTINUOUS
  2
DC_GROUP_94
 10
0.0
 20
0.0
 30
0.0
  0
TEXT
  5
315
  8
LAYER0014
 62
     7
 10
-181.3019533316512
 20
-70.50843650567384
 30
0.0
 40
4.0
  1
19
 41
0.5714285714285694
  7
FDASTYLE1
 72
     5
 11
-176.7305247602226
 21
-70.50843650567384
 31
0.0
  0
ENDBLK
  5
15F
  8
0
  0
BLOCK
  8
0
  2
DC_GROUP_93
 70
     0
 10
0.0
 20
0.0
 30
0.0
  3
DC_GROUP_93
  1

  0
LINE
  5
316
  8
LAYER0014
  6
CONTINUOUS
 62
     7
 10
-170.6019593686764
 20
-70.97253697077623
 30
0.0
 11
-168.6019609610457
 21
-71.50843650567384
 31
0.0
  0
LINE
  5
317
  8
LAYER0014
  6
CONTINUOUS
 62
     7
 10
-168.6019609610457
 20
-71.50843650567384
 30
0.0
 11
-170.6019593686764
 21
-72.04433604057145
 31
0.0
  0
LINE
  5
318
  8
LAYER0014
  6
CONTINUOUS
 62
     7
 10
-168.6019609610457
 20
-71.50843650567384
 30
0.0
 11
-170.6019593686764
 21
-71.50843650567384
 31
0.0
  0
ENDBLK
  5
162
  8
0
  0
BLOCK
  8
0
  2
DC_GROUP_94
 70
     0
 10
0.0
 20
0.0
 30
0.0
  3
DC_GROUP_94
  1

  0
LINE
  5
319
  8
LAYER0014
  6
CONTINUOUS
 62
     7
 10
-185.6019472946259
 20
-72.04433604057145
 30
0.0
 11
-187.6019457022566
 21
-71.50843650567384
 31
0.0
  0
LINE
  5
31A
  8
LAYER0014
  6
CONTINUOUS
 62
     7
 10
-187.6019457022566
 20
-71.50843650567384
 30
0.0
 11
-185.6019472946259
 21
-70.97253697077623
 31
0.0
  0
LINE
  5
31B
  8
LAYER0014
  6
CONTINUOUS
 62
     7
 10
-187.6019457022566
 20
-71.50843650567384
 30
0.0
 11
-185.6019472946259
 21
-71.50843650567384
 31
0.0
  0
ENDBLK
  5
165
  8
0
  0
BLOCK
  8
0
  2
DC_GROUP_95
 70
     0
 10
0.0
 20
0.0
 30
0.0
  3
DC_GROUP_95
  1

  0
LINE
  5
31C
  8
0
  6
CONTINUOUS
 62
     9
 10
-128.6019151846785
 20
-95.00471526849123
 30
0.0
 11
-128.6019151846785
 21
-104.5093691991553
 31
0.0
  0
LINE
  5
31D
  8
0
  6
CONTINUOUS
 62
     9
 10
-187.6019151846785
 20
-80.00936919915529
 30
0.0
 11
-187.6019151846785
 21
-104.5093691991553
 31
0.0
  0
LINE
  5
31E
  8
0
  6
CONTINUOUS
 62
     9
 10
-77.60191518467852
 20
-90.50936919915529
 30
0.0
 11
-77.60191518467852
 21
-104.5093691991553
 31
0.0
  0
LINE
  5
31F
  8
0
  6
CONTINUOUS
 62
     9
 10
-187.6019151846785
 20
-103.5093691991553
 30
0.0
 11
-128.6019151846785
 21
-103.5093691991553
 31
0.0
  0
INSERT
  5
320
  8
0
  6
CONTINUOUS
  2
DC_GROUP_96
 10
0.0
 20
0.0
 30
0.0
  0
INSERT
  5
321
  8
0
  6
CONTINUOUS
  2
DC_GROUP_97
 10
0.0
 20
0.0
 30
0.0
  0
TEXT
  5
322
  8
0
 62
     7
 10
-161.3019151846785
 20
-102.5093691991553
 30
0.0
 40
4.0
  1
59
 41
0.6285714285714263
  7
FDASTYLE1
 72
     5
 11
-156.2733437561071
 21
-102.5093691991553
 31
0.0
  0
ENDBLK
  5
168
  8
0
  0
BLOCK
  8
0
  2
DC_GROUP_96
 70
     0
 10
0.0
 20
0.0
 30
0.0
  3
DC_GROUP_96
  1

  0
LINE
  5
323
  8
0
  6
CONTINUOUS
 62
     9
 10
-185.6019167770478
 20
-104.0452687340529
 30
0.0
 11
-187.6019151846785
 21
-103.5093691991553
 31
0.0
  0
LINE
  5
324
  8
0
  6
CONTINUOUS
 62
     9
 10
-187.6019151846785
 20
-103.5093691991553
 30
0.0
 11
-185.6019167770478
 21
-102.9734696642577
 31
0.0
  0
LINE
  5
325
  8
0
  6
CONTINUOUS
 62
     9
 10
-187.6019151846785
 20
-103.5093691991553
 30
0.0
 11
-185.6019167770478
 21
-103.5093691991553
 31
0.0
  0
ENDBLK
  5
16B
  8
0
  0
BLOCK
  8
0
  2
DC_GROUP_97
 70
     0
 10
0.0
 20
0.0
 30
0.0
  3
DC_GROUP_97
  1

  0
LINE
  5
326
  8
0
  6
CONTINUOUS
 62
     9
 10
-130.6019135923092
 20
-102.9734696642577
 30
0.0
 11
-128.6019151846785
 21
-103.5093691991553
 31
0.0
  0
LINE
  5
327
  8
0
  6
CONTINUOUS
 62
     9
 10
-128.6019151846785
 20
-103.5093691991553
 30
0.0
 11
-130.6019135923092
 21
-104.0452687340529
 31
0.0
  0
LINE
  5
328
  8
0
  6
CONTINUOUS
 62
     9
 10
-128.6019151846785
 20
-103.5093691991553
 30
0.0
 11
-130.6019135923092
 21
-103.5093691991553
 31
0.0
  0
ENDBLK
  5
16E
  8
0
  0
BLOCK
  8
0
  2
DC_GROUP_98
 70
     0
 10
0.0
 20
0.0
 30
0.0
  3
DC_GROUP_98
  1

  0
LINE
  5
329
  8
0
  6
CONTINUOUS
 62
     7
 10
-128.6019151846785
 20
-92.05155451160232
 30
0.0
 11
-116.7722581857896
 21
-106.0822858847271
 31
0.0
  0
LINE
  5
32A
  8
0
  6
CONTINUOUS
 62
     7
 10
-116.7722581857896
 20
-106.0822858847271
 30
0.0
 11
-97.57225818578955
 21
-106.0822858847271
 31
0.0
  0
INSERT
  5
32B
  8
0
  6
CONTINUOUS
  2
DC_GROUP_99
 10
0.0
 20
0.0
 30
0.0
  0
TEXT
  5
32C
  8
0
 62
     7
 10
-116.7722581857896
 20
-106.0822858847271
 30
0.0
 40
4.0
  1
M10×20
 41
0.6243496357960457
  7
FDASTYLE1
 72
     5
 11
-101.2883872180477
 21
-106.0822858847271
 31
0.0
  0
ENDBLK
  5
171
  8
0
  0
BLOCK
  8
0
  2
DC_GROUP_99
 70
     0
 10
0.0
 20
0.0
 30
0.0
  3
DC_GROUP_99
  1

  0
LINE
  5
32D
  8
0
  6
CONTINUOUS
 62
     7
 10
-127.7224425548401
 20
-93.92604373146831
 30
0.0
 11
-128.6019151846785
 21
-92.05155451160232
 31
0.0
  0
LINE
  5
32E
  8
0
  6
CONTINUOUS
 62
     7
 10
-128.6019151846785
 20
-92.05155451160232
 30
0.0
 11
-126.9030231941632
 21
-93.23517098098402
 31
0.0
  0
LINE
  5
32F
  8
0
  6
CONTINUOUS
 62
     7
 10
-128.6019151846785
 20
-92.05155451160232
 30
0.0
 11
-127.3127328745017
 21
-93.58060735622617
 31
0.0
  0
ENDBLK
  5
174
  8
0
  0
BLOCK
  8
0
  2
DC_GROUP_100
 70
     0
 10
0.0
 20
0.0
 30
0.0
  3
DC_GROUP_100
  1

  0
LINE
  5
330
  8
0
  6
CONTINUOUS
 62
     9
 10
-95.42364675206133
 20
-1.509367291806662
 30
0.0
 11
-85.10423452061602
 21
-1.509367291806662
 31
0.0
  0
LINE
  5
331
  8
0
  6
CONTINUOUS
 62
     9
 10
-95.42364675206133
 20
68.49063080084471
 30
0.0
 11
-85.10423452061602
 21
68.49063080084471
 31
0.0
  0
LINE
  5
332
  8
0
  6
CONTINUOUS
 62
     9
 10
-86.10423452061602
 20
-1.509367291806662
 30
0.0
 11
-86.10423452061602
 21
68.49063080084471
 31
0.0
  0
INSERT
  5
333
  8
0
  6
CONTINUOUS
  2
DC_GROUP_101
 10
0.0
 20
0.0
 30
0.0
  0
INSERT
  5
334
  8
0
  6
CONTINUOUS
  2
DC_GROUP_102
 10
0.0
 20
0.0
 30
0.0
  0
TEXT
  5
335
  8
0
 62
     7
 10
-87.10423452061602
 20
28.69063175451903
 30
0.0
 40
4.0
  1
φ70
 50
90.0
 41
0.609375
  7
FDASTYLE1
 72
     5
 11
-87.10423452061602
 21
36.49063175451903
 31
0.0
  0
ENDBLK
  5
177
  8
0
  0
BLOCK
  8
0
  2
DC_GROUP_101
 70
     0
 10
0.0
 20
0.0
 30
0.0
  3
DC_GROUP_101
  1

  0
LINE
  5
336
  8
0
  6
CONTINUOUS
 62
     9
 10
-85.56833498571841
 20
0.4906311158239999
 30
0.0
 11
-86.10423452061602
 21
-1.509367291806662
 31
0.0
  0
LINE
  5
337
  8
0
  6
CONTINUOUS
 62
     9
 10
-86.10423452061602
 20
-1.509367291806662
 30
0.0
 11
-86.64013405551363
 21
0.4906311158240001
 31
0.0
  0
LINE
  5
338
  8
0
  6
CONTINUOUS
 62
     9
 10
-86.10423452061602
 20
-1.509367291806662
 30
0.0
 11
-86.10423452061602
 21
0.490631115824
 31
0.0
  0
ENDBLK
  5
17A
  8
0
  0
BLOCK
  8
0
  2
DC_GROUP_102
 70
     0
 10
0.0
 20
0.0
 30
0.0
  3
DC_GROUP_102
  1

  0
LINE
  5
339
  8
0
  6
CONTINUOUS
 62
     9
 10
-86.64013405551363
 20
66.49063239321406
 30
0.0
 11
-86.10423452061602
 21
68.49063080084471
 31
0.0
  0
LINE
  5
33A
  8
0
  6
CONTINUOUS
 62
     9
 10
-86.10423452061602
 20
68.49063080084471
 30
0.0
 11
-85.56833498571841
 21
66.49063239321406
 31
0.0
  0
LINE
  5
33B
  8
0
  6
CONTINUOUS
 62
     9
 10
-86.10423452061602
 20
68.49063080084471
 30
0.0
 11
-86.10423452061602
 21
66.49063239321406
 31
0.0
  0
ENDBLK
  5
17D
  8
0
  0
BLOCK
  8
0
  2
DC_GROUP_103
 70
     0
 10
0.0
 20
0.0
 30
0.0
  3
DC_GROUP_103
  1

  0
LINE
  5
33C
  8
0
  6
CONTINUOUS
 62
     9
 10
-123.4236467520613
 20
-10.25936729180666
 30
0.0
 11
-211.6019304434676
 21
-10.25936729180666
 31
0.0
  0
LINE
  5
33D
  8
0
  6
CONTINUOUS
 62
     9
 10
-123.4236467520613
 20
77.24063080084471
 30
0.0
 11
-211.6019304434676
 21
77.24063080084471
 31
0.0
  0
LINE
  5
33E
  8
0
  6
CONTINUOUS
 62
     9
 10
-210.6019304434676
 20
-10.25936729180666
 30
0.0
 11
-210.6019304434676
 21
77.24063080084471
 31
0.0
  0
INSERT
  5
33F
  8
0
  6
BORDER
  2
DC_GROUP_104
 10
0.0
 20
0.0
 30
0.0
  0
INSERT
  5
340
  8
0
  6
BORDER
  2
DC_GROUP_105
 10
0.0
 20
0.0
 30
0.0
  0
TEXT
  5
341
  8
0
 62
     7
 10
-211.6019304434676
 20
22.29063175451903
 30
0.0
 40
4.0
  1
φ87.5Ｈ7
 50
90.0
 41
0.6135865595325043
  7
FDASTYLE1
 72
     5
 11
-211.6019304434676
 21
40.45279391668116
 31
0.0
  0
ENDBLK
  5
180
  8
0
  0
BLOCK
  8
0
  2
DC_GROUP_104
 70
     0
 10
0.0
 20
0.0
 30
0.0
  3
DC_GROUP_104
  1

  0
LINE
  5
342
  8
0
  6
CONTINUOUS
 62
     9
 10
-210.06603090857
 20
-8.259368884175999
 30
0.0
 11
-210.6019304434676
 21
-10.25936729180666
 31
0.0
  0
LINE
  5
343
  8
0
  6
CONTINUOUS
 62
     9
 10
-210.6019304434676
 20
-10.25936729180666
 30
0.0
 11
-211.1378299783652
 21
-8.259368884175999
 31
0.0
  0
LINE
  5
344
  8
0
  6
CONTINUOUS
 62
     9
 10
-210.6019304434676
 20
-10.25936729180666
 30
0.0
 11
-210.6019304434676
 21
-8.259368884175999
 31
0.0
  0
ENDBLK
  5
183
  8
0
  0
BLOCK
  8
0
  2
DC_GROUP_105
 70
     0
 10
0.0
 20
0.0
 30
0.0
  3
DC_GROUP_105
  1

  0
LINE
  5
345
  8
0
  6
CONTINUOUS
 62
     9
 10
-211.1378299783652
 20
75.24063239321406
 30
0.0
 11
-210.6019304434676
 21
77.24063080084471
 31
0.0
  0
LINE
  5
346
  8
0
  6
CONTINUOUS
 62
     9
 10
-210.6019304434676
 20
77.24063080084471
 30
0.0
 11
-210.06603090857
 21
75.24063239321406
 31
0.0
  0
LINE
  5
347
  8
0
  6
CONTINUOUS
 62
     9
 10
-210.6019304434676
 20
77.24063080084471
 30
0.0
 11
-210.6019304434676
 21
75.24063239321406
 31
0.0
  0
ENDBLK
  5
186
  8
0
  0
BLOCK
  8
0
  2
DC_GROUP_106
 70
     0
 10
0.0
 20
0.0
 30
0.0
  3
DC_GROUP_106
  1

  0
LINE
  5
348
  8
0
  6
CONTINUOUS
 62
     9
 10
-188.6019151846785
 20
-36.36937026715935
 30
0.0
 11
-231.6019304434676
 21
-36.36937026715935
 31
0.0
  0
LINE
  5
349
  8
0
  6
CONTINUOUS
 62
     9
 10
-188.6019151846785
 20
103.3506339436867
 30
0.0
 11
-231.6019304434676
 21
103.3506339436867
 31
0.0
  0
LINE
  5
34A
  8
0
  6
CONTINUOUS
 62
     9
 10
-230.6019304434676
 20
-36.36937026715935
 30
0.0
 11
-230.6019304434676
 21
103.3506339436867
 31
0.0
  0
INSERT
  5
34B
  8
0
  6
BORDER
  2
DC_GROUP_107
 10
0.0
 20
0.0
 30
0.0
  0
INSERT
  5
34C
  8
0
  6
BORDER
  2
DC_GROUP_108
 10
0.0
 20
0.0
 30
0.0
  0
TEXT
  5
34D
  8
0
 62
     7
 10
-231.6019304434676
 20
4.690631838263705
 30
0.0
 40
4.0
  1
φ139.72（A2-8ﾃｰﾊﾟ-）
 50
90.0
 41
0.6243496357960455
  7
FDASTYLE1
 72
     5
 11
-231.6019304434676
 21
51.1422447414895
 31
0.0
  0
ENDBLK
  5
189
  8
0
  0
BLOCK
  8
0
  2
DC_GROUP_107
 70
     0
 10
0.0
 20
0.0
 30
0.0
  3
DC_GROUP_107
  1

  0
LINE
  5
34E
  8
0
  6
CONTINUOUS
 62
     9
 10
-230.06603090857
 20
-34.36937185952868
 30
0.0
 11
-230.6019304434676
 21
-36.36937026715935
 31
0.0
  0
LINE
  5
34F
  8
0
  6
CONTINUOUS
 62
     9
 10
-230.6019304434676
 20
-36.36937026715935
 30
0.0
 11
-231.1378299783652
 21
-34.36937185952868
 31
0.0
  0
LINE
  5
350
  8
0
  6
CONTINUOUS
 62
     9
 10
-230.6019304434676
 20
-36.36937026715935
 30
0.0
 11
-230.6019304434676
 21
-34.36937185952868
 31
0.0
  0
ENDBLK
  5
18C
  8
0
  0
BLOCK
  8
0
  2
DC_GROUP_108
 70
     0
 10
0.0
 20
0.0
 30
0.0
  3
DC_GROUP_108
  1

  0
LINE
  5
351
  8
0
  6
CONTINUOUS
 62
     9
 10
-231.1378299783652
 20
101.3506355360561
 30
0.0
 11
-230.6019304434676
 21
103.3506339436867
 31
0.0
  0
LINE
  5
352
  8
0
  6
CONTINUOUS
 62
     9
 10
-230.6019304434676
 20
103.3506339436867
 30
0.0
 11
-230.06603090857
 21
101.3506355360561
 31
0.0
  0
LINE
  5
353
  8
0
  6
CONTINUOUS
 62
     9
 10
-230.6019304434676
 20
103.3506339436867
 30
0.0
 11
-230.6019304434676
 21
101.3506355360561
 31
0.0
  0
ENDBLK
  5
18F
  8
0
  0
BLOCK
  8
0
  2
DC_GROUP_109
 70
     0
 10
0.0
 20
0.0
 30
0.0
  3
DC_GROUP_109
  1

  0
LINE
  5
354
  8
0
  6
CONTINUOUS
 62
     9
 10
-231.2673902400052
 20
-41.82754186234251
 30
0.0
 11
-188.6019151846785
 21
-36.49436997432542
 31
0.0
  0
ARC
  5
355
  8
0
  6
CONTINUOUS
 62
     9
 10
-187.6019151846785
 20
-36.36937026715935
 30
0.0
 40
43.00528773874594
 50
180.0
 51
187.1249998288782
  0
ARC
  5
356
  8
0
  6
CONTINUOUS
 62
     9
 10
-187.6019151846785
 20
-36.36937026715935
 30
0.0
 40
43.00528773874594
 50
187.1249998288782
 51
194.272254597703
  0
INSERT
  5
357
  8
0
  6
CONTINUOUS
  2
DC_GROUP_110
 10
0.0
 20
0.0
 30
0.0
  0
ENDBLK
  5
192
  8
0
  0
BLOCK
  8
0
  2
DC_GROUP_110
 70
     0
 10
0.0
 20
0.0
 30
0.0
  3
DC_GROUP_110
  1

  0
LINE
  5
358
  8
0
  6
CONTINUOUS
 62
     9
 10
-230.5110401575831
 20
-43.76057328568238
 30
0.0
 11
-230.2751123275288
 21
-41.70350741385558
 31
0.0
  0
LINE
  5
359
  8
0
  6
CONTINUOUS
 62
     9
 10
-230.2751123275288
 20
-41.70350741385558
 30
0.0
 11
-229.4508960916614
 21
-43.60294141864785
 31
0.0
  0
LINE
  5
35A
  8
0
  6
CONTINUOUS
 62
     9
 10
-230.2751123275288
 20
-41.70350741385558
 30
0.0
 11
-229.9809681246223
 21
-43.68175735216511
 31
0.0
  0
ENDBLK
  5
195
  8
0
  0
BLOCK
  8
0
  2
DC_GROUP_111
 70
     0
 10
0.0
 20
0.0
 30
0.0
  3
DC_GROUP_111
  1

  0
LINE
  5
35B
  8
0
  6
CONTINUOUS
 62
     9
 10
-188.6019151846785
 20
107.0856262995019
 30
0.0
 11
-221.762650969079
 21
107.0856262995019
 31
0.0
  0
LINE
  5
35C
  8
0
  6
CONTINUOUS
 62
     9
 10
-188.6019151846785
 20
131.2956253839746
 30
0.0
 11
-221.762650969079
 21
131.2956253839746
 31
0.0
  0
LINE
  5
35D
  8
0
  6
CONTINUOUS
 62
     9
 10
-220.762650969079
 20
107.0856262995019
 30
0.0
 11
-220.762650969079
 21
131.2956253839746
 31
0.0
  0
INSERT
  5
35E
  8
0
  6
CONTINUOUS
  2
DC_GROUP_112
 10
0.0
 20
0.0
 30
0.0
  0
INSERT
  5
35F
  8
0
  6
CONTINUOUS
  2
DC_GROUP_113
 10
0.0
 20
0.0
 30
0.0
  0
TEXT
  5
360
  8
0
 62
     7
 10
-221.762650969079
 20
109.5906258417383
 30
0.0
 40
4.0
  1
φ24.21
 50
90.0
 41
0.6243496357960452
  7
FDASTYLE1
 72
     5
 11
-221.762650969079
 21
125.0744968094802
 31
0.0
  0
TEXT
  5
361
  8
0
 62
     7
 10
-223.962650969079
 20
129.7906258417383
 30
0.0
 40
2.2
  1
+0.1
 50
90.0
 41
0.6000000000000001
  7
FDASTYLE1
 72
     5
 11
-223.962650969079
 21
135.0706258417383
 31
0.0
  0
TEXT
  5
362
  8
0
 62
     7
 10
-221.562650969079
 20
129.7906258417383
 30
0.0
 40
2.2
  1
 0
 50
90.0
 41
0.2666666666666696
  7
FDASTYLE1
 72
     5
 11
-221.562650969079
 21
130.9639591750716
 31
0.0
  0
ENDBLK
  5
198
  8
0
  0
BLOCK
  8
0
  2
DC_GROUP_112
 70
     0
 10
0.0
 20
0.0
 30
0.0
  3
DC_GROUP_112
  1

  0
LINE
  5
363
  8
0
  6
CONTINUOUS
 62
     9
 10
-220.2267514341814
 20
109.0856247071326
 30
0.0
 11
-220.762650969079
 21
107.0856262995019
 31
0.0
  0
LINE
  5
364
  8
0
  6
CONTINUOUS
 62
     9
 10
-220.762650969079
 20
107.0856262995019
 30
0.0
 11
-221.2985505039766
 21
109.0856247071326
 31
0.0
  0
LINE
  5
365
  8
0
  6
CONTINUOUS
 62
     9
 10
-220.762650969079
 20
107.0856262995019
 30
0.0
 11
-220.762650969079
 21
109.0856247071326
 31
0.0
  0
ENDBLK
  5
19B
  8
0
  0
BLOCK
  8
0
  2
DC_GROUP_113
 70
     0
 10
0.0
 20
0.0
 30
0.0
  3
DC_GROUP_113
  1

  0
LINE
  5
366
  8
0
  6
CONTINUOUS
 62
     9
 10
-221.2985505039766
 20
129.2956269763439
 30
0.0
 11
-220.762650969079
 21
131.2956253839746
 31
0.0
  0
LINE
  5
367
  8
0
  6
CONTINUOUS
 62
     9
 10
-220.762650969079
 20
131.2956253839746
 30
0.0
 11
-220.2267514341814
 21
129.2956269763439
 31
0.0
  0
LINE
  5
368
  8
0
  6
CONTINUOUS
 62
     9
 10
-220.762650969079
 20
131.2956253839746
 30
0.0
 11
-220.762650969079
 21
129.2956269763439
 31
0.0
  0
ENDBLK
  5
19E
  8
0
  0
BLOCK
  8
0
  2
DC_GROUP_114
 70
     0
 10
0.0
 20
0.0
 30
0.0
  3
DC_GROUP_114
  1

  0
LINE
  5
369
  8
0
  6
CONTINUOUS
 62
     9
 10
-197.2111986319441
 20
119.190622027041
 30
0.0
 11
-211.6430099408582
 21
119.190622027041
 31
0.0
  0
LINE
  5
36A
  8
0
  6
CONTINUOUS
 62
     9
 10
-195.8182390372176
 20
33.49063270819334
 30
0.0
 11
-199.0864477161192
 21
33.49063270819334
 31
0.0
  0
LINE
  5
36B
  8
0
  6
CONTINUOUS
 62
     9
 10
-210.6430099408582
 20
93.20120800302006
 30
0.0
 11
-210.6430099408582
 21
119.190622027041
 31
0.0
  0
LINE
  5
36C
  8
0
  6
CONTINUOUS
 62
     9
 10
-210.6430099408582
 20
139.122472027041
 30
0.0
 11
-210.6430099408582
 21
119.190622027041
 31
0.0
  0
INSERT
  5
36D
  8
0
  6
CONTINUOUS
  2
DC_GROUP_115
 10
0.0
 20
0.0
 30
0.0
  0
INSERT
  5
36E
  8
0
  6
CONTINUOUS
  2
DC_GROUP_116
 10
0.0
 20
0.0
 30
0.0
  0
TEXT
  5
36F
  8
0
 62
     7
 10
-211.6430099408582
 20
122.122472027041
 30
0.0
 40
4.0
  1
R85.7
 50
90.0
 41
0.6400000000000006
  7
FDASTYLE1
 72
     5
 11
-211.6430099408582
 21
134.922472027041
 31
0.0
  0
ENDBLK
  5
1A1
  8
0
  0
BLOCK
  8
0
  2
DC_GROUP_115
 70
     0
 10
0.0
 20
0.0
 30
0.0
  3
DC_GROUP_115
  1

  0
LINE
  5
370
  8
0
  6
CONTINUOUS
 62
     9
 10
-211.1789094757558
 20
117.1906236194103
 30
0.0
 11
-210.6430099408582
 21
119.190622027041
 31
0.0
  0
LINE
  5
371
  8
0
  6
CONTINUOUS
 62
     9
 10
-210.6430099408582
 20
119.190622027041
 30
0.0
 11
-210.1071104059606
 21
117.1906236194103
 31
0.0
  0
LINE
  5
372
  8
0
  6
CONTINUOUS
 62
     9
 10
-210.6430099408582
 20
119.190622027041
 30
0.0
 11
-210.6430099408582
 21
117.1906236194103
 31
0.0
  0
ENDBLK
  5
1A4
  8
0
  0
BLOCK
  8
0
  2
DC_GROUP_116
 70
     0
 10
0.0
 20
0.0
 30
0.0
  3
DC_GROUP_116
  1

  0
LINE
  5
373
  8
0
  6
CONTINUOUS
 62
     9
 10
-210.1071104059606
 20
121.1906204346717
 30
0.0
 11
-210.6430099408582
 21
119.190622027041
 31
0.0
  0
LINE
  5
374
  8
0
  6
CONTINUOUS
 62
     9
 10
-210.6430099408582
 20
119.190622027041
 30
0.0
 11
-211.1789094757558
 21
121.1906204346717
 31
0.0
  0
LINE
  5
375
  8
0
  6
CONTINUOUS
 62
     9
 10
-210.6430099408582
 20
119.190622027041
 30
0.0
 11
-210.6430099408582
 21
121.1906204346717
 31
0.0
  0
ENDBLK
  5
1A7
  8
0
  0
ENDSEC
  0
SECTION
  2
ENTITIES
  0
LINE
  5
376
  8
LAYER0002
  6
CONTINUOUS
 62
     3
 10
-277.0
 20
-190.0
 30
0.0
 11
-277.0
 21
190.0
 31
0.0
  0
LINE
  5
377
  8
LAYER0002
  6
CONTINUOUS
 62
     3
 10
277.0
 20
-190.0
 30
0.0
 11
277.0
 21
190.0
 31
0.0
  0
LINE
  5
378
  8
LAYER0002
  6
CONTINUOUS
 62
     3
 10
-277.0
 20
-190.0
 30
0.0
 11
277.0
 21
-190.0
 31
0.0
  0
LINE
  5
379
  8
LAYER0002
  6
CONTINUOUS
 62
     3
 10
-277.0
 20
189.9999999999999
 30
0.0
 11
277.0
 21
189.9999999999999
 31
0.0
  0
LINE
  5
37A
  8
LAYER0002
  6
CONTINUOUS
 62
     3
 10
97.00000000000001
 20
-190.0
 30
0.0
 11
97.00000000000001
 21
-130.0
 31
0.0
  0
LINE
  5
37B
  8
LAYER0002
  6
CONTINUOUS
 62
     3
 10
97.00000000000001
 20
-176.0
 30
0.0
 11
277.0
 21
-176.0
 31
0.0
  0
LINE
  5
37C
  8
LAYER0002
  6
CONTINUOUS
 62
     3
 10
146.0
 20
-162.0
 30
0.0
 11
277.0
 21
-162.0
 31
0.0
  0
LINE
  5
37D
  8
LAYER0002
  6
CONTINUOUS
 62
     3
 10
146.0
 20
-148.0
 30
0.0
 11
277.0
 21
-148.0
 31
0.0
  0
LINE
  5
37E
  8
LAYER0002
  6
CONTINUOUS
 62
     3
 10
146.0
 20
-138.0
 30
0.0
 11
277.0
 21
-138.0
 31
0.0
  0
LINE
  5
37F
  8
LAYER0002
  6
CONTINUOUS
 62
     3
 10
146.0
 20
-176.0
 30
0.0
 11
146.0
 21
-130.0
 31
0.0
  0
LINE
  5
380
  8
LAYER0002
  6
CONTINUOUS
 62
     3
 10
255.0
 20
-176.0
 30
0.0
 11
255.0
 21
-130.0
 31
0.0
  0
LINE
  5
381
  8
LAYER0002
  6
CONTINUOUS
 62
     3
 10
171.0
 20
-190.0
 30
0.0
 11
171.0
 21
-176.0
 31
0.0
  0
LINE
  5
382
  8
LAYER0002
  6
CONTINUOUS
 62
     3
 10
262.0
 20
-188.0
 30
0.0
 11
272.0
 21
-188.0
 31
0.0
  0
LINE
  5
383
  8
LAYER0002
  6
CONTINUOUS
 62
     3
 10
267.0
 20
-178.0
 30
0.0
 11
262.0
 21
-188.0
 31
0.0
  0
LINE
  5
384
  8
LAYER0002
  6
CONTINUOUS
 62
     3
 10
267.0
 20
-178.0
 30
0.0
 11
272.0
 21
-188.0
 31
0.0
  0
LINE
  5
385
  8
LAYER0002
  6
CONTINUOUS
 62
     3
 10
97.00000000000001
 20
-130.0
 30
0.0
 11
277.0
 21
-130.0
 31
0.0
  0
LINE
  5
386
  8
LAYER0002
  6
CONTINUOUS
 62
     3
 10
226.0
 20
-176.0
 30
0.0
 11
226.0
 21
-148.0
 31
0.0
  0
LINE
  5
387
  8
LAYER0002
  6
CONTINUOUS
 62
     4
 10
105.0
 20
-172.0
 30
0.0
 11
105.0
 21
-130.0
 31
0.0
  0
LINE
  5
388
  8
LAYER0002
  6
CONTINUOUS
 62
     4
 10
109.0
 20
-172.0
 30
0.0
 11
109.0
 21
-130.0
 31
0.0
  0
LINE
  5
389
  8
LAYER0002
  6
CONTINUOUS
 62
     4
 10
121.5
 20
-176.0
 30
0.0
 11
121.5
 21
-130.0
 31
0.0
  0
LINE
  5
38A
  8
LAYER0002
  6
CONTINUOUS
 62
     4
 10
97.00000000000001
 20
-137.0
 30
0.0
 11
146.0
 21
-137.0
 31
0.0
  0
LINE
  5
38B
  8
LAYER0002
  6
CONTINUOUS
 62
     4
 10
97.00000000000001
 20
-144.0
 30
0.0
 11
146.0
 21
-144.0
 31
0.0
  0
LINE
  5
38C
  8
LAYER0002
  6
CONTINUOUS
 62
     4
 10
97.00000000000001
 20
-165.0
 30
0.0
 11
146.0
 21
-165.0
 31
0.0
  0
LINE
  5
38D
  8
LAYER0002
  6
CONTINUOUS
 62
     4
 10
97.00000000000001
 20
-172.0
 30
0.0
 11
146.0
 21
-172.0
 31
0.0
  0
LINE
  5
38E
  8
LAYER0002
  6
CONTINUOUS
 62
     4
 10
255.0
 20
-166.0
 30
0.0
 11
277.0
 21
-166.0
 31
0.0
  0
LINE
  5
38F
  8
LAYER0002
  6
CONTINUOUS
 62
     4
 10
202.0
 20
-148.0
 30
0.0
 11
202.0
 21
-146.5
 31
0.0
  0
LINE
  5
390
  8
LAYER0002
  6
CONTINUOUS
 62
     4
 10
226.0
 20
-148.0
 30
0.0
 11
226.0
 21
-146.5
 31
0.0
  0
LINE
  5
391
  8
LAYER0002
  6
CONTINUOUS
 62
     4
 10
243.0
 20
-148.0
 30
0.0
 11
243.0
 21
-146.5
 31
0.0
  0
LINE
  5
392
  8
LAYER0002
  6
CONTINUOUS
 62
     4
 10
97.00000000000001
 20
-151.0
 30
0.0
 11
146.0
 21
-151.0
 31
0.0
  0
LINE
  5
393
  8
LAYER0002
  6
CONTINUOUS
 62
     4
 10
97.00000000000001
 20
-158.0
 30
0.0
 11
146.0
 21
-158.0
 31
0.0
  0
LINE
  5
394
  8
LAYER0002
  6
CONTINUOUS
 62
     4
 10
101.0
 20
-130.5
 30
0.0
 11
98.00000000000001
 21
-136.5
 31
0.0
  0
LINE
  5
395
  8
LAYER0002
  6
CONTINUOUS
 62
     4
 10
101.0
 20
-130.5
 30
0.0
 11
104.0
 21
-136.5
 31
0.0
  0
LINE
  5
396
  8
LAYER0002
  6
CONTINUOUS
 62
     4
 10
98.00000000000001
 20
-136.5
 30
0.0
 11
104.0
 21
-136.5
 31
0.0
  0
LINE
  5
397
  8
LAYER0002
  6
CONTINUOUS
 62
     4
 10
101.0
 20
-158.5
 30
0.0
 11
98.00000000000001
 21
-164.5
 31
0.0
  0
LINE
  5
398
  8
LAYER0002
  6
CONTINUOUS
 62
     4
 10
101.0
 20
-158.5
 30
0.0
 11
104.0
 21
-164.5
 31
0.0
  0
LINE
  5
399
  8
LAYER0002
  6
CONTINUOUS
 62
     4
 10
98.00000000000001
 20
-164.5
 30
0.0
 11
104.0
 21
-164.5
 31
0.0
  0
LINE
  5
39A
  8
LAYER0002
  6
CONTINUOUS
 62
     4
 10
101.0
 20
-151.5
 30
0.0
 11
98.00000000000001
 21
-157.5
 31
0.0
  0
LINE
  5
39B
  8
LAYER0002
  6
CONTINUOUS
 62
     4
 10
101.0
 20
-151.5
 30
0.0
 11
104.0
 21
-157.5
 31
0.0
  0
LINE
  5
39C
  8
LAYER0002
  6
CONTINUOUS
 62
     4
 10
98.00000000000001
 20
-157.5
 30
0.0
 11
104.0
 21
-157.5
 31
0.0
  0
LINE
  5
39D
  8
LAYER0002
  6
CONTINUOUS
 62
     4
 10
101.0
 20
-144.5
 30
0.0
 11
98.00000000000001
 21
-150.5
 31
0.0
  0
LINE
  5
39E
  8
LAYER0002
  6
CONTINUOUS
 62
     4
 10
101.0
 20
-144.5
 30
0.0
 11
104.0
 21
-150.5
 31
0.0
  0
LINE
  5
39F
  8
LAYER0002
  6
CONTINUOUS
 62
     4
 10
98.00000000000001
 20
-150.5
 30
0.0
 11
104.0
 21
-150.5
 31
0.0
  0
LINE
  5
3A0
  8
LAYER0002
  6
CONTINUOUS
 62
     4
 10
101.0
 20
-137.5
 30
0.0
 11
98.00000000000001
 21
-143.5
 31
0.0
  0
LINE
  5
3A1
  8
LAYER0002
  6
CONTINUOUS
 62
     4
 10
101.0
 20
-137.5
 30
0.0
 11
104.0
 21
-143.5
 31
0.0
  0
LINE
  5
3A2
  8
LAYER0002
  6
CONTINUOUS
 62
     4
 10
98.00000000000001
 20
-143.5
 30
0.0
 11
104.0
 21
-143.5
 31
0.0
  0
LINE
  5
3A3
  8
LAYER0002
  6
CONTINUOUS
 62
     4
 10
172.6666666666666
 20
-176.0
 30
0.0
 11
172.6666666666666
 21
-162.0
 31
0.0
  0
LINE
  5
3A4
  8
LAYER0002
  6
CONTINUOUS
 62
     4
 10
199.3333333333333
 20
-176.0
 30
0.0
 11
199.3333333333333
 21
-161.9509415757253
 31
0.0
  0
LINE
  5
3A5
  8
LAYER0002
  6
CONTINUOUS
 62
     4
 10
212.6666666666666
 20
-167.5
 30
0.0
 11
212.6666666666666
 21
-161.9509415757253
 31
0.0
  0
LINE
  5
3A6
  8
LAYER0002
  6
CONTINUOUS
 62
     4
 10
226.0
 20
-155.0
 30
0.0
 11
255.0
 21
-155.0
 31
0.0
  0
LINE
  5
3A7
  8
LAYER0002
  6
CONTINUOUS
 62
     4
 10
146.0
 20
-166.0
 30
0.0
 11
226.0
 21
-166.0
 31
0.0
  0
LINE
  5
3A8
  8
LAYER0002
  6
CONTINUOUS
 62
     4
 10
153.0
 20
-139.5
 30
0.0
 11
153.0
 21
-130.0
 31
0.0
  0
LINE
  5
3A9
  8
LAYER0002
  6
CONTINUOUS
 62
     4
 10
202.0
 20
-139.5
 30
0.0
 11
202.0
 21
-130.0
 31
0.0
  0
LINE
  5
3AA
  8
LAYER0002
  6
CONTINUOUS
 62
     4
 10
226.0
 20
-139.5
 30
0.0
 11
226.0
 21
-130.0
 31
0.0
  0
LINE
  5
3AB
  8
LAYER0002
  6
CONTINUOUS
 62
     4
 10
243.0
 20
-139.5
 30
0.0
 11
243.0
 21
-130.0
 31
0.0
  0
TEXT
  5
3AD
  8
LAYER0002
 62
     7
 10
146.9937581474747
 20
-130.821188728956
 30
0.0
 40
2.44248928
  1
符号
 41
0.8
  7
FDASTYLE0
  0
TEXT
  5
3AE
  8
LAYER0002
 62
     7
 10
162.4141311219058
 20
-135.8245525019963
 30
0.0
 40
4.0
  1
品       名
 41
0.6192847442281579
  7
FDASTYLE1
 72
     5
 11
185.6992375048845
 21
-135.8245525019963
 31
0.0
  0
TEXT
  5
3AF
  8
LAYER0002
 62
     7
 10
207.2331564413096
 20
-135.8245525019963
 30
0.0
 40
4.0
  1
材  料
 41
0.5950413223140494
  7
FDASTYLE1
 72
     5
 11
217.7058837140369
 21
-135.8245525019963
 31
0.0
  0
TEXT
  5
3B0
  8
LAYER0002
 62
     7
 10
229.516061684855
 20
-135.8245525019963
 30
0.0
 40
4.0
  1
個 数
 41
0.5813148788927336
  7
FDASTYLE1
 72
     5
 11
237.4219440377962
 21
-135.8245525019963
 31
0.0
  0
TEXT
  5
3B1
  8
LAYER0002
 62
     7
 10
245.721810952888
 20
-133.5649080050572
 30
0.0
 40
2.5
  1
単重量
 41
0.6666666666666666
  7
FDASTYLE1
 72
     5
 11
251.721810952888
 21
-133.5649080050572
 31
0.0
  0
TEXT
  5
3B2
  8
LAYER0002
 62
     7
 10
244.7089516236359
 20
-137.3631304897525
 30
0.0
 40
2.5
  1
(kg)
 41
0.5333333333333343
  7
FDASTYLE1
 72
     5
 11
250.0422849569692
 21
-137.3631304897525
 31
0.0
  0
TEXT
  5
3B3
  8
LAYER0002
 62
     7
 10
259.1421970654778
 20
-135.8245525019963
 30
0.0
 40
4.0
  1
記  事
 41
0.5950413223140509
  7
FDASTYLE1
 72
     5
 11
269.6149243382051
 21
-135.8245525019963
 31
0.0
  0
TEXT
  5
3B4
  8
LAYER0002
 62
     7
 10
258.8450794551645
 20
-165.4873041997729
 30
0.0
 40
3.0
  1
コード番号
 41
0.6666666666666666
  7
FDASTYLE1
 72
     5
 11
270.8450794551645
 21
-165.4873041997729
 31
0.0
  0
TEXT
  5
3B5
  8
LAYER0002
 62
     7
 10
101.9119920158317
 20
-175.1879010540338
 30
0.0
 40
2.5
  1
訂 正 来 歴
 41
0.5890861275476661
  7
FDASTYLE1
 72
     5
 11
113.3991715030112
 21
-175.1879010540338
 31
0.0
  0
TEXT
  5
3B6
  8
LAYER0002
 62
     7
 10
125.890334846765
 20
-175.2166697391651
 30
0.0
 40
2.5
  1
工 事 番 号
 41
0.5890861275476654
  7
FDASTYLE1
 72
     5
 11
137.3775143339445
 21
-175.2166697391651
 31
0.0
  0
TEXT
  5
3B7
  8
LAYER0002
 62
     7
 10
98.93400034660289
 20
-165.9634530565915
 30
0.0
 40
1.90819475
  1
記号
 41
0.8
  7
FDASTYLE0
  0
TEXT
  5
3B8
  8
LAYER0002
 62
     7
 10
104.8733874067618
 20
-165.9634530565915
 30
0.0
 40
1.90819475
  1
理由
 41
0.8
  7
FDASTYLE0
  0
TEXT
  5
3B9
  8
LAYER0002
 62
     7
 10
111.6193667909843
 20
-169.8786046700178
 30
0.0
 40
3.0
  1
日 付
 41
0.5813148788927329
  7
FDASTYLE1
 72
     5
 11
117.5487785556902
 21
-169.8786046700178
 31
0.0
  0
TEXT
  5
3BA
  8
LAYER0002
 62
     7
 10
256.5474439108642
 20
-142.8525309070082
 30
0.0
 40
3.5
  1
標　準
 41
0.5833333333333352
  7
FDASTYLE1
 72
     5
 11
263.8974439108642
 21
-142.8525309070082
 31
0.0
  0
TEXT
  5
3BB
  8
LAYER0002
 62
     7
 10
153.4481689819652
 20
-165.7187911464244
 30
0.0
 40
3.0
  1
承   認
 41
0.603566529492455
  7
FDASTYLE1
 72
     5
 11
163.225946759743
 21
-165.7187911464244
 31
0.0
  0
TEXT
  5
3BC
  8
LAYER0002
 62
     7
 10
179.863228033234
 20
-165.4873041997729
 30
0.0
 40
3.0
  1
検   図
 41
0.603566529492455
  7
FDASTYLE1
 72
     5
 11
189.6410058110118
 21
-165.4873041997729
 31
0.0
  0
TEXT
  5
3BD
  8
LAYER0002
 62
     7
 10
201.4771920983751
 20
-165.4873041997729
 30
0.0
 40
3.0
  1
担  当
 41
0.5950413223140488
  7
FDASTYLE1
 72
     5
 11
209.3317375529205
 21
-165.4873041997729
 31
0.0
  0
TEXT
  5
3BE
  8
LAYER0002
 62
     7
 10
214.6770574841112
 20
-165.4873041997729
 30
0.0
 40
3.0
  1
製  図
 41
0.5950413223140488
  7
FDASTYLE1
 72
     5
 11
222.5316029386567
 21
-165.4873041997729
 31
0.0
  0
TEXT
  5
3BF
  8
LAYER0002
 62
     7
 10
226.9462372304199
 20
-153.2184960272417
 30
0.0
 40
3.0
  1
作図
 41
0.6666666666666683
  7
FDASTYLE1
 72
     5
 11
231.7462372304199
 21
-153.2184960272417
 31
0.0
  0
TEXT
  5
3C0
  8
LAYER0002
 62
     7
 10
228.1036719636776
 20
-160.2371566401815
 30
0.0
 40
4.0
  1
第 三 角 法
 41
0.5890861275476667
  7
FDASTYLE1
 72
     5
 11
246.4831591431648
 21
-160.2371566401815
 31
0.0
  0
TEXT
  5
3C1
  8
LAYER0002
 62
     7
 10
227.409211123723
 20
-166.413251986379
 30
0.0
 40
3.0
  1
尺度
 41
0.6666666666666683
  7
FDASTYLE1
 72
     5
 11
232.209211123723
 21
-166.413251986379
 31
0.0
  0
TEXT
  5
3C3
  8
LAYER0002
 62
     3
 10
105.379154370034
 20
-185.9272077185017
 30
0.0
 40
7.0
  1
株式会社 野村製作所
 41
0.5976394989045258
  7
FDASTYLE2
 72
     5
 11
161.2620333546006
 21
-185.9272077185017
 31
0.0
  0
TEXT
  5
3C5
  8
LAYER0002
 62
     3
 10
176.0422636668242
 20
-187.1216685584563
 30
0.0
 40
8.0
  1
２－
 41
0.7699296059137609
  7
FDASTYLE3
 72
     5
 11
189.9317937575084
 21
-187.1216685584563
 31
0.0
  0
TEXT
  5
3C6
  8
LAYER0002
 62
     3
 10
192.954221291231
 20
-187.1216685584563
 30
0.0
 40
8.0
  1
821002
 41
1.378783979787583
  7
FDASTYLE3
 72
     5
 11
240.2520269338642
 21
-187.1216685584563
 31
0.0
  0
TEXT
  5
3C7
  8
LAYER0002
 62
     6
 10
231.384312273996
 20
-145.1178196492171
 30
0.0
 40
4.0
  1
一式
 41
0.5833333333333328
  7
FDASTYLE1
 72
     5
 11
236.984312273996
 21
-145.1178196492171
 31
0.0
  0
TEXT
  5
3C8
  8
LAYER0002
 62
     6
 10
163.7236800359233
 20
-145.1021206743685
 30
0.0
 40
5.0
  1
外　形　図
 41
0.5833333333333334
  7
FDASTYLE1
 72
     5
 11
181.2236800359233
 21
-145.1021206743685
 31
0.0
  0
TEXT
  5
3C9
  8
LAYER0002
 62
     4
 10
237.4612965606293
 20
-172.4797619591963
 30
0.0
 40
4.0
  1
1/1
 41
0.5222222222222234
  7
FDASTYLE1
 72
     5
 11
243.727963227296
 21
-172.4797619591963
 31
0.0
  0
TEXT
  5
3CA
  8
0
 62
     6
 10
153.751689452146
 20
-154.3880453471329
 30
0.0
 40
5.0
  1
日鋼プレシジォン
 41
0.6666666666666666
  7
FDASTYLE1
 72
     5
 11
185.751689452146
 21
-154.3880453471329
 31
0.0
  0
TEXT
  5
3CB
  8
0
 62
     6
 10
170.4103460444692
 20
-160.9091595284539
 30
0.0
 40
5.0
  1
HDM3-250A8型チャック
 41
0.533203125
  7
FDASTYLE1
 72
     5
 11
213.0665960444692
 21
-160.9091595284539
 31
0.0
  0
TEXT
  5
3CC
  8
0
 62
     6
 10
-66.40671185748022
 20
-121.989558647744
 30
0.0
 40
3.639999866485595
  1
  仕   様
 41
0.8535536001838994
  7
FDASTYLE1
 72
     5
 11
-43.41539292624329
 21
-121.989558647744
 31
0.0
  0
TEXT
  5
3CD
  8
0
 62
     6
 10
-66.40671185748022
 20
-128.989558647744
 30
0.0
 40
3.639999866485595
  1
 1.爪ｽﾄﾛ-ｸ            
 41
0.905767757368719
  7
FDASTYLE1
 72
     5
 11
3.489571879368569
 21
-128.989558647744
 31
0.0
  0
TEXT
  5
3CE
  8
0
 62
     6
 10
35.15700879976536
 20
-128.6874330111727
 30
0.0
 40
2.729999899864197
  1
直径ﾆﾃ
 41
0.8143452369734109
  7
FDASTYLE1
 72
     5
 11
44.93892342749147
 21
-128.6874330111727
 31
0.0
  0
TEXT
  5
3CF
  8
0
 62
     6
 10
41.11329174740868
 20
-128.989558647744
 30
0.0
 40
3.639999866485595
  1
    8   mm
 41
0.9081806113749069
  7
FDASTYLE1
 72
     5
 11
74.17106478890335
 21
-128.989558647744
 31
0.0
  0
TEXT
  5
3D0
  8
0
 62
     6
 10
-66.40671185748022
 20
-135.989558647744
 30
0.0
 40
3.639999866485595
  1
 2.ピｽﾄﾝｽﾄﾛ-ｸ  　　　　　　　　             30   mm
 41
0.8753984580093437
  7
FDASTYLE1
 72
     5
 11
73.15980998059573
 21
-135.989558647744
 31
0.0
  0
TEXT
  5
3D1
  8
0
 62
     6
 10
-66.40671185748022
 20
-142.9993457125548
 30
0.0
 40
3.639999866485595
  1
 3.許容ｼﾘﾝダ-推力  　 　　　　　　　　　          30.0   kN
 41
0.8255826637758488
  7
FDASTYLE1
 72
     5
 11
74.8339650806146
 21
-142.9993457125548
 31
0.0
  0
TEXT
  5
3D2
  8
0
 62
     6
 10
-66.40671185748022
 20
-149.9671257625434
 30
0.0
 40
3.639999866485595
  1
 4.最大静的把握力   　　　　　　　　　　           112.8   kN
 41
0.811715249200862
  7
FDASTYLE1
 72
     5
 11
73.64338524163256
 21
-149.9671257625434
 31
0.0
  0
TEXT
  5
3D3
  8
0
 62
     6
 10
-66.40671185748022
 20
-156.9671257625434
 30
0.0
 40
3.639999866485595
  1
 5.最高使用回転速度 　 　 　　　　　　　　           4200  min
 41
0.8186558973137366
  7
FDASTYLE1
 72
     5
 11
75.43687833189492
 21
-156.9671257625434
 31
0.0
  0
TEXT
  5
3D4
  8
0
 62
     6
 10
75.50358669664468
 20
-154.2242513824254
 30
0.0
 40
1.819999933242798
  1
-1
 41
0.8971966190941254
  7
FDASTYLE1
 72
     5
 11
78.76938227035862
 21
-154.2242513824254
 31
0.0
  0
TEXT
  5
3D5
  8
0
 62
     6
 10
-66.40671185748022
 20
-163.9671257625434
 30
0.0
 40
3.639999866485595
  1
 6.慣性モーメント  　　　　　　　　　　　            ０．３２５ kg・m
 41
0.7835505594773253
  7
FDASTYLE1
 72
     5
 11
75.62905995025218
 21
-163.9671257625434
 31
0.0
  0
TEXT
  5
3D6
  8
0
 62
     6
 10
76.24670727458926
 20
-161.2415462797516
 30
0.0
 40
1.819999933242798
  1
2
 41
0.8791213174644366
  7
FDASTYLE1
 72
     5
 11
77.84670801368685
 21
-161.2415462797516
 31
0.0
  0
TEXT
  5
3D7
  8
0
 62
     6
 10
-66.40671185748022
 20
-177.9671257625434
 30
0.0
 40
3.639999866485595
  1
　8.ｱﾝバﾗﾝｽ量       
 41
0.8763121058475712
  7
FDASTYLE1
 72
     5
 11
-10.26665516766651
 21
-177.9671257625434
 31
0.0
  0
TEXT
  5
3D8
  8
0
 62
     6
 10
18.91862601308371
 20
-177.6650001259721
 30
0.0
 40
2.729999899864197
  1
ﾁｬｯｸ外周ﾆﾃ
 41
0.8603695091946738
  7
FDASTYLE1
 72
     5
 11
38.64861887424412
 21
-177.6650001259721
 31
0.0
  0
TEXT
  5
3D9
  8
0
 62
     6
 10
39.2321554917744
 20
-177.9671257625434
 30
0.0
 40
3.639999866485595
  1
    2g   以内
 41
0.8736193624657335
  7
FDASTYLE1
 72
     5
 11
75.48386322694771
 21
-177.9671257625434
 31
0.0
  0
TEXT
  5
3DA
  8
0
 62
     6
 10
-66.40671185748022
 20
-170.9671257625434
 30
0.0
 40
3.639999866485595
  1
 7.質 量    　　　　　　　　　　                35   kg
 41
0.8608677139884844
  7
FDASTYLE1
 72
     5
 11
75.85683786720463
 21
-170.9671257625434
 31
0.0
  0
LINE
  5
3DB
  8
0
  6
CENTER
 62
     7
 10
-194.8182390372176
 20
33.49063270819334
 30
0.0
 11
-118.5352480116838
 21
33.49063270819334
 31
0.0
  0
LINE
  5
3DC
  8
0
  6
CENTER
 62
     7
 10
-102.2734392325301
 20
-26.50936919915529
 30
0.0
 11
-72.98877126378008
 21
-26.50936919915529
 31
0.0
  0
LINE
  5
3DD
  8
0
  6
CENTER
 62
     7
 10
-128.6019151846785
 20
-60.46314269769045
 30
0.0
 11
-128.6019151846785
 21
-94.00471526849123
 31
0.0
  0
LINE
  5
3DE
  8
0
  6
CENTER
 62
     7
 10
-118.5352480116838
 20
33.49063270819334
 30
0.0
 11
-94.57845597346356
 21
33.49063270819334
 31
0.0
  0
LINE
  5
3DF
  8
0
  6
CENTER
 62
     7
 10
-84.37425723193925
 20
33.49063270819334
 30
0.0
 11
-76.04739553135821
 21
33.49063270819334
 31
0.0
  0
LINE
  5
3E0
  8
0
  6
CENTER
 62
     7
 10
-108.1319292227645
 20
72.99063080084471
 30
0.0
 11
-94.708655930193
 21
72.99063080084471
 31
0.0
  0
LINE
  5
3E1
  8
0
  6
CENTER
 62
     7
 10
87.89808863001875
 20
39.15664833319334
 30
0.0
 11
87.89808863001875
 21
27.49063270819334
 31
0.0
  0
LINE
  5
3E2
  8
0
  6
CENTER
 62
     7
 10
166.8980848153215
 20
38.81189697516111
 30
0.0
 11
166.8980848153215
 21
27.49063270819334
 31
0.0
  0
LINE
  5
3E3
  8
0
  6
CENTER
 62
     7
 10
123.2015836990038
 20
72.99063080084471
 30
0.0
 11
131.178818389165
 21
72.99063080084471
 31
0.0
  0
LINE
  5
3E4
  8
0
  6
CENTER
 62
     7
 10
-101.219224754991
 20
135.4906308008447
 30
0.0
 11
-51.03101522129961
 21
135.4906308008447
 31
0.0
  0
LINE
  5
3E5
  8
0
  6
CENTER
 62
     7
 10
-101.219224754991
 20
105.4906308008447
 30
0.0
 11
-51.53385335606524
 21
105.4906308008447
 31
0.0
  0
LINE
  5
3E6
  8
0
  6
CENTER
 62
     7
 10
127.3980886300188
 20
167.7250592066064
 30
0.0
 11
127.3980886300188
 21
-97.51109344231935
 31
0.0
  0
LINE
  5
3E7
  8
0
  6
CENTER
 62
     7
 10
-7.703889671983205
 20
33.49063270819334
 30
0.0
 11
262.5429364998918
 21
33.49063270819334
 31
0.0
  0
LINE
  5
3E8
  8
0
  6
CENTER
 62
     7
 10
95.28833929785327
 20
10.10635378450203
 30
0.0
 11
91.29972195277267
 21
17.01484167813211
 31
0.0
  0
LINE
  5
3E9
  8
0
  6
CENTER
 62
     7
 10
163.7043428931992
 20
17.37491353923327
 30
0.0
 11
159.7157255481186
 21
10.4664256456032
 31
0.0
  0
LINE
  5
3EA
  8
0
  6
CENTER
 62
     7
 10
89.11976449274043
 20
11.39063341667061
 30
0.0
 11
97.12602700736917
 21
16.01305072400071
 31
0.0
  0
LINE
  5
3EB
  8
0
  6
CENTER
 62
     7
 10
165.6764127672971
 20
11.39063341667061
 30
0.0
 11
157.6701502526683
 21
16.01305072400071
 31
0.0
  0
LINE
  5
3EC
  8
0
  6
CENTER
 62
     7
 10
68.31701611989779
 20
67.60113425395525
 30
0.0
 11
83.19722655524497
 21
59.0100417026698
 31
0.0
  0
LINE
  5
3ED
  8
0
  6
CENTER
 62
     7
 10
47.5980853680616
 20
125.9906365228906
 30
0.0
 11
79.70799537935311
 21
125.9906365228906
 31
0.0
  0
LINE
  5
3EE
  8
0
  6
CENTER
 62
     7
 10
209.0554384341121
 20
-29.0747723000929
 30
0.0
 11
222.2735453259951
 21
-6.180342723618374
 31
0.0
  0
LINE
  5
3EF
  8
0
  6
CENTER
 62
     7
 10
32.00219058478858
 20
-5.278820587972355
 30
0.0
 11
45.99449610106778
 21
-29.5142013331294
 31
0.0
  0
LINE
  5
3F0
  8
0
  6
CENTER
 62
     7
 10
58.17436930152331
 20
9.389648599903758
 30
0.0
 11
71.7666759860537
 21
-14.15291394072137
 31
0.0
  0
LINE
  5
3F1
  8
0
  6
CENTER
 62
     7
 10
183.1535623540232
 20
-13.93802990891704
 30
0.0
 11
196.3604406831664
 21
8.936951229063475
 31
0.0
  0
LINE
  5
3F2
  8
0
  6
CENTER
 62
     7
 10
112.7441291455274
 20
135.4906365228906
 30
0.0
 11
141.1441306714063
 21
135.4906365228906
 31
0.0
  0
LINE
  5
3F3
  8
0
  6
CENTER
 62
     7
 10
112.7441291455274
 20
105.4906365228906
 30
0.0
 11
141.5441245678907
 21
105.4906365228906
 31
0.0
  0
LINE
  5
3F4
  8
0
  6
CENTER
 62
     7
 10
127.3981404306133
 20
33.49063499773188
 30
0.0
 11
243.73219276066
 21
-33.67485401036738
 31
0.0
  0
LINE
  5
3F5
  8
0
  6
CENTER
 62
     7
 10
171.9256569116161
 20
59.19863340166335
 30
0.0
 11
186.5747028012858
 21
67.65626305502002
 31
0.0
  0
ARC
  5
3F6
  8
0
  6
CENTER
 62
     7
 10
127.3980903271681
 20
33.49063270819334
 30
0.0
 40
60.0
 50
143.2855662199818
 51
156.1868100148953
  0
ARC
  5
3F7
  8
0
  6
CENTER
 62
     7
 10
127.3980903271681
 20
33.49063270819334
 30
0.0
 40
60.0
 50
262.8711241531044
 51
276.5021258495097
  0
ARC
  5
3F8
  8
0
  6
CENTER
 62
     7
 10
127.3980903271681
 20
33.49063270819334
 30
0.0
 40
60.0
 50
23.07117861055644
 51
36.65199719958236
  0
LINE
  5
3F9
  8
0
  6
CENTER
 62
     7
 10
9.784975382424037
 20
-34.41332238337504
 30
0.0
 11
127.3980888644211
 21
33.49063284352558
 31
0.0
  0
LINE
  5
3FA
  8
0
  6
CENTER
 62
     7
 10
25.29972534356526
 20
60.8478051499408
 30
0.0
 11
63.93675739182604
 21
50.49504471999534
 31
0.0
  0
ARC
  5
3FB
  8
0
  6
CENTER
 62
     7
 10
127.398090232453
 20
33.49066490481577
 30
0.0
 40
85.69999694824219
 50
121.5982266239522
 51
178.4018090450651
  0
LINE
  5
3FC
  8
0
  6
CENTER
 62
     7
 10
52.65690808891819
 20
108.2318732526751
 30
0.0
 11
80.94118663129817
 21
79.94759709448138
 31
0.0
  0
LINE
  5
3FD
  8
0
  6
CENTER
 62
     7
 10
173.8550149691176
 20
79.94756583942129
 30
0.0
 11
202.1392881167006
 21
108.2318366028185
 31
0.0
  0
ARC
  5
3FE
  8
0
  6
CENTER
 62
     7
 10
127.398090232453
 20
33.49066490481577
 30
0.0
 40
85.69999694824219
 50
1.59822360481308
 51
58.40176472462581
  0
LINE
  5
3FF
  8
0
  6
CENTER
 62
     7
 10
100.0408827335788
 20
-68.60768437529791
 30
0.0
 11
110.3936461647828
 21
-29.97065002409052
 31
0.0
  0
ARC
  5
400
  8
0
  6
CENTER
 62
     7
 10
127.398090232453
 20
33.49066490481577
 30
0.0
 40
85.69999694824219
 50
241.5981789642087
 51
298.4017682155106
  0
LINE
  5
401
  8
0
  6
CENTER
 62
     7
 10
190.8594163308123
 20
50.49507393006886
 30
0.0
 11
229.4964488396624
 21
60.84783448342885
 31
0.0
  0
LINE
  5
402
  8
0
  6
CENTER
 62
     7
 10
144.4024835707983
 20
-29.97066051177463
 30
0.0
 11
154.7552455210277
 21
-68.60768933591018
 31
0.0
  0
LINE
  5
403
  8
0
  6
CENTER
 62
     7
 10
-218.3594682852645
 20
-52.20936424004885
 30
0.0
 11
-66.95192128819414
 21
-52.20936424004885
 31
0.0
  0
LINE
  5
404
  8
0
  6
CENTER
 62
     7
 10
-196.2111986319441
 20
119.190622027041
 30
0.0
 11
-171.4814470450301
 21
119.190622027041
 31
0.0
  0
LINE
  5
405
  8
0
  6
DASHED2
 62
     7
 10
-92.60191518467852
 20
-22.50936919915529
 30
0.0
 11
-92.60191518467852
 21
-30.50936919915529
 31
0.0
  0
LINE
  5
406
  8
0
  6
DASHED2
 62
     7
 10
-97.60191518467852
 20
-23.35936767327639
 30
0.0
 11
-97.60191518467852
 21
-29.6593707250342
 31
0.0
  0
LINE
  5
407
  8
0
  6
DASHED2
 62
     7
 10
-92.60191518467852
 20
-22.50936919915529
 30
0.0
 11
-77.60191518467852
 21
-22.50936919915529
 31
0.0
  0
LINE
  5
408
  8
0
  6
DASHED2
 62
     7
 10
-92.60191518467852
 20
-30.50936919915529
 30
0.0
 11
-77.60191518467852
 21
-30.50936919915529
 31
0.0
  0
LINE
  5
409
  8
0
  6
DASHED2
 62
     7
 10
-97.60191518467852
 20
-29.6593707250342
 30
0.0
 11
-77.60191518467852
 21
-29.6593707250342
 31
0.0
  0
LINE
  5
40A
  8
0
  6
DASHED2
 62
     7
 10
-97.60191518467852
 20
-23.35936767327639
 30
0.0
 11
-77.60191518467852
 21
-23.35936767327639
 31
0.0
  0
LINE
  5
40B
  8
0
  6
DASHED2
 62
     7
 10
-99.42058664198927
 20
-26.50935378861841
 30
0.0
 11
-97.60193331849948
 21
-23.35935426302621
 31
0.0
  0
LINE
  5
40C
  8
0
  6
DASHED2
 62
     7
 10
-99.42060550977269
 20
-26.5093760881145
 30
0.0
 11
-97.60195218628289
 21
-29.65937561370669
 31
0.0
  0
LINE
  5
40D
  8
0
  6
DASHED2
 62
     7
 10
64.89808937349373
 20
134.9906365228906
 30
0.0
 11
78.39808937349373
 21
134.9906365228906
 31
0.0
  0
LINE
  5
40E
  8
0
  6
DASHED2
 62
     7
 10
64.89808937349373
 20
116.9906365228906
 30
0.0
 11
78.39808937349373
 21
116.9906365228906
 31
0.0
  0
LINE
  5
40F
  8
0
  6
DASHED2
 62
     7
 10
64.89808937349373
 20
141.7438103510156
 30
0.0
 11
64.89808937349373
 21
113.9906365228906
 31
0.0
  0
LINE
  5
410
  8
0
  6
DASHED2
 62
     7
 10
31.76990124025399
 20
113.9906365228906
 30
0.0
 11
64.89808937349373
 21
113.9906365228906
 31
0.0
  0
LINE
  5
411
  8
0
  6
DASHED2
 62
     7
 10
52.89808841981942
 20
128.3906380487695
 30
0.0
 11
52.89808841981942
 21
123.5906349970117
 31
0.0
  0
LINE
  5
412
  8
0
  6
DASHED2
 62
     7
 10
55.59809013643319
 20
129.2906395746484
 30
0.0
 11
55.59809013643319
 21
122.6906334711328
 31
0.0
  0
LINE
  5
413
  8
0
  6
DASHED2
 62
     7
 10
61.33684059419686
 20
120.2906395746484
 30
0.0
 11
64.45933815279061
 21
120.2906395746484
 31
0.0
  0
LINE
  5
414
  8
0
  6
DASHED2
 62
     7
 10
61.33684059419686
 20
131.6906334711328
 30
0.0
 11
64.45933815279061
 21
131.6906334711328
 31
0.0
  0
LINE
  5
415
  8
0
  6
DASHED2
 62
     7
 10
55.5980808331614
 20
122.6905773782895
 30
0.0
 11
52.89808041709163
 21
123.5905774038875
 31
0.0
  0
LINE
  5
416
  8
0
  6
DASHED2
 62
     7
 10
55.59810755809592
 20
129.2905749269226
 30
0.0
 11
52.89811076096582
 21
128.3905761076376
 31
0.0
  0
LINE
  5
417
  8
0
  6
DASHED2
 62
     7
 10
56.59809013643319
 20
128.7359673334375
 30
0.0
 11
56.59809013643319
 21
123.1951577020898
 31
0.0
  0
LINE
  5
418
  8
0
  6
DASHED2
 62
     7
 10
60.89808937349373
 20
130.4406334711328
 30
0.0
 11
60.89808937349373
 21
121.5406395746484
 31
0.0
  0
LINE
  5
419
  8
0
  6
DASHED2
 62
     7
 10
61.6419782284742
 20
128.8842980219141
 30
0.0
 11
64.15420051851326
 21
128.8842980219141
 31
0.0
  0
LINE
  5
41A
  8
0
  6
DASHED2
 62
     7
 10
61.6419782284742
 20
123.0969750238672
 30
0.0
 11
64.15420051851326
 21
123.0969750238672
 31
0.0
  0
LINE
  5
41B
  8
0
  6
DASHED2
 62
     7
 10
64.89808937349373
 20
122.4906365228906
 30
0.0
 11
70.0960261467939
 21
122.4906365228906
 31
0.0
  0
LINE
  5
41C
  8
0
  6
DASHED2
 62
     7
 10
64.89808937349373
 20
129.4906365228906
 30
0.0
 11
69.88914366998726
 21
129.4906365228906
 31
0.0
  0
LINE
  5
41D
  8
0
  6
DASHED2
 62
     7
 10
64.89808937349373
 20
121.4906365228906
 30
0.0
 11
70.30290862360054
 21
121.4906365228906
 31
0.0
  0
LINE
  5
41E
  8
0
  6
DASHED2
 62
     7
 10
64.89808937349373
 20
130.4906365228906
 30
0.0
 11
69.88914366998726
 21
130.4906365228906
 31
0.0
  0
LINE
  5
41F
  8
0
  6
DASHED2
 62
     7
 10
122.3980903271681
 20
-71.50936347710939
 30
0.0
 11
132.3980903271681
 21
-71.50936347710939
 31
0.0
  0
LINE
  5
420
  8
0
  6
DASHED2
 62
     7
 10
123.3980903271681
 20
-65.50936347710939
 30
0.0
 11
123.3980903271681
 21
-91.44534522759767
 31
0.0
  0
LINE
  5
421
  8
0
  6
DASHED2
 62
     7
 10
131.3980903271681
 20
-65.50936347710939
 30
0.0
 11
131.3980903271681
 21
-91.44534522759767
 31
0.0
  0
LINE
  5
422
  8
0
  6
DASHED2
 62
     7
 10
122.3980903271681
 20
-71.50936347710939
 30
0.0
 11
122.3980903271681
 21
-91.40932685601564
 31
0.0
  0
LINE
  5
423
  8
0
  6
DASHED2
 62
     7
 10
132.3980903271681
 20
-71.50936347710939
 30
0.0
 11
132.3980903271681
 21
-91.40932685601564
 31
0.0
  0
LINE
  5
424
  8
0
  6
DASHED2
 62
     7
 10
123.3980903271681
 20
-65.50936347710939
 30
0.0
 11
131.3980903271681
 21
-65.50936347710939
 31
0.0
  0
LINE
  5
425
  8
0
  6
DASHED2
 62
     7
 10
123.3980979331904
 20
-65.50938224791554
 30
0.0
 11
127.3980988908128
 21
-63.19998087342061
 31
0.0
  0
LINE
  5
426
  8
0
  6
DASHED2
 62
     7
 10
127.3980961245272
 20
-63.19997324353285
 30
0.0
 11
131.3980921267122
 21
-65.509371757005
 31
0.0
  0
ARC
  5
427
  8
0
  6
DASHED2
 62
     7
 10
55.59809013643319
 20
125.9906365228906
 30
0.0
 40
3.299999952316284
 50
73.48282241201397
 51
89.99998201391068
  0
ARC
  5
428
  8
0
  6
DASHED2
 62
     7
 10
55.59809013643319
 20
125.9906365228906
 30
0.0
 40
3.299999952316284
 50
270.0000179860894
 51
286.5171775879861
  0
ARC
  5
429
  8
0
  6
DASHED2
 62
     7
 10
62.89808937349373
 20
130.4406334711328
 30
0.0
 40
2.0
 50
0.0
 51
38.68218896809879
  0
ARC
  5
42A
  8
0
  6
DASHED2
 62
     7
 10
62.89808937349373
 20
121.5406395746484
 30
0.0
 40
2.0
 50
0.0
 51
51.09316519948326
  0
ARC
  5
42B
  8
0
  6
DASHED2
 62
     7
 10
58.89808937349373
 20
125.9906365228906
 30
0.0
 40
6.0
 50
0.0
 51
28.83423780766673
  0
ARC
  5
42C
  8
0
  6
DASHED2
 62
     7
 10
66.89808913507515
 20
125.9906365228906
 30
0.0
 40
6.0
 50
151.1657740314788
 51
208.8342086656771
  0
ARC
  5
42D
  8
0
  6
DASHED2
 62
     7
 10
58.89808937349373
 20
125.9906365228906
 30
0.0
 40
6.0
 50
331.1657621923334
 51
360.0
  0
ARC
  5
42E
  8
0
  6
DASHED2
 62
     7
 10
62.89808937349373
 20
130.4406334711328
 30
0.0
 40
2.0
 50
308.906834800517
 51
360.0
  0
ARC
  5
42F
  8
0
  6
DASHED2
 62
     7
 10
62.89808937349373
 20
130.4406334711328
 30
0.0
 40
2.0
 50
141.3178297012362
 51
231.0931121518317
  0
ARC
  5
430
  8
0
  6
DASHED2
 62
     7
 10
62.89808937349373
 20
121.5406395746484
 30
0.0
 40
2.0
 50
128.9068568849459
 51
218.6821529959199
  0
ARC
  5
431
  8
0
  6
DASHED2
 62
     7
 10
62.89808937349373
 20
121.5406395746484
 30
0.0
 40
2.0
 50
321.3178110319012
 51
360.0
  0
ARC
  5
432
  8
0
  6
DASHED2
 62
     7
 10
56.9312848690992
 20
134.7906395746484
 30
0.0
 40
5.650000095367432
 50
265.9910930942637
 51
315.0592540539054
  0
ARC
  5
433
  8
0
  6
DASHED2
 62
     7
 10
56.9312848690992
 20
117.1906334711328
 30
0.0
 40
5.650000095367432
 50
44.94074594609464
 51
94.00890690573625
  0
ARC
  5
434
  8
0
  6
DASHED2
 62
     7
 10
53.59809013643319
 20
125.9906365228906
 30
0.0
 40
1.5
 50
117.818154050457
 51
242.1818423070773
  0
LINE
  5
435
  8
0
  6
DASHED2
 62
     7
 10
-166.6019304434676
 20
-44.20936424004885
 30
0.0
 11
-166.6019304434676
 21
-60.20937186944338
 31
0.0
  0
LINE
  5
436
  8
0
  6
DASHED2
 62
     7
 10
-95.60191518467852
 20
-39.20937186944338
 30
0.0
 11
-95.60191518467852
 21
-65.20937186944337
 31
0.0
  0
LINE
  5
437
  8
0
  6
DASHED2
 62
     7
 10
-95.60193044346758
 20
-40.20936424004885
 30
0.0
 11
-79.60193044346758
 21
-40.20936424004885
 31
0.0
  0
LINE
  5
438
  8
0
  6
DASHED2
 62
     7
 10
-95.60193044346758
 20
-64.20937186944337
 30
0.0
 11
-79.60193044346758
 21
-64.20937186944337
 31
0.0
  0
LINE
  5
439
  8
0
  6
DASHED2
 62
     7
 10
-79.60193044346758
 20
-40.20936424004885
 30
0.0
 11
-79.60193044346758
 21
-64.20937186944337
 31
0.0
  0
LINE
  5
43A
  8
0
  6
DASHED2
 62
     7
 10
-179.6019457022566
 20
131.2956253839746
 30
0.0
 11
-179.6019457022566
 21
107.0856262995019
 31
0.0
  0
LINE
  5
43B
  8
0
  6
DASHED2
 62
     7
 10
-179.601952846132
 20
125.190638066755
 30
0.0
 11
-176.1378487344482
 21
119.190634565556
 31
0.0
  0
LINE
  5
43C
  8
0
  6
DASHED2
 62
     7
 10
-179.6019762008113
 20
113.190622672709
 30
0.0
 11
-176.1378644597321
 21
119.1906393884067
 31
0.0
  0
LINE
  5
43D
  8
0
  6
DASHED2
 62
     7
 10
-210.6019609610457
 20
-60.20937186944338
 30
0.0
 11
-95.60193044346758
 21
-60.20937186944338
 31
0.0
  0
LINE
  5
43E
  8
0
  6
DASHED2
 62
     7
 10
-210.6019609610457
 20
-44.20936424004885
 30
0.0
 11
-95.60193044346758
 21
-44.20936424004885
 31
0.0
  0
LINE
  5
43F
  8
0
  6
DASHED2
 62
     7
 10
-210.6019609610457
 20
-45.40936881768557
 30
0.0
 11
-166.6019304434676
 21
-45.40936881768557
 31
0.0
  0
LINE
  5
440
  8
0
  6
DASHED2
 62
     7
 10
-210.6019609610457
 20
-59.00936729180666
 30
0.0
 11
-166.6019304434676
 21
-59.00936729180666
 31
0.0
  0
LINE
  5
441
  8
0
  6
DASHED2
 62
     7
 10
-95.60193044346758
 20
-39.20937186944338
 30
0.0
 11
-77.60193044346758
 21
-39.20937186944338
 31
0.0
  0
LINE
  5
442
  8
0
  6
DASHED2
 62
     7
 10
-95.60193044346758
 20
-65.20936424004884
 30
0.0
 11
-77.60193044346758
 21
-65.20936424004884
 31
0.0
  0
LINE
  5
443
  8
0
  6
DASHED2
 62
     7
 10
-187.6019457022566
 20
131.2956253839746
 30
0.0
 11
-179.6019457022566
 21
131.2956253839746
 31
0.0
  0
LINE
  5
444
  8
0
  6
DASHED2
 62
     7
 10
-187.6019457022566
 20
107.0856262995019
 30
0.0
 11
-179.6019457022566
 21
107.0856262995019
 31
0.0
  0
LINE
  5
445
  8
0
  6
DASHED2
 62
     7
 10
-210.6018999258895
 20
-44.20936424004885
 30
0.0
 11
-210.6018999258895
 21
-60.20937186944338
 31
0.0
  0
LINE
  5
446
  8
0
  6
CONTINUOUS
 62
     3
 10
-77.60191518467852
 20
156.4906384302392
 30
0.0
 11
-77.60191518467852
 21
148.4906384302392
 31
0.0
  0
LINE
  5
447
  8
0
  6
CONTINUOUS
 62
     3
 10
-188.6019151846785
 20
-91.50936919915529
 30
0.0
 11
-79.60191518467852
 21
-91.50936919915529
 31
0.0
  0
LINE
  5
448
  8
0
  6
CONTINUOUS
 62
     3
 10
-188.6019151846785
 20
158.4906384302392
 30
0.0
 11
-142.6019151846785
 21
158.4906384302392
 31
0.0
  0
LINE
  5
449
  8
0
  6
CONTINUOUS
 62
     3
 10
-79.6019059527417
 20
-91.50936396024014
 30
0.0
 11
-77.6019038295627
 21
-89.50936183706114
 31
0.0
  0
LINE
  5
44A
  8
0
  6
CONTINUOUS
 62
     3
 10
-77.60190930865292
 20
156.4906267924382
 30
0.0
 11
-78.60191037024242
 21
157.4906278540277
 31
0.0
  0
LINE
  5
44B
  8
0
  6
CONTINUOUS
 62
     3
 10
-170.6019151846785
 20
82.49063080084471
 30
0.0
 11
-159.4977434317488
 21
82.49063080084471
 31
0.0
  0
LINE
  5
44C
  8
0
  6
CONTINUOUS
 62
     3
 10
-80.10191518467852
 20
-19.00936729180666
 30
0.0
 11
-77.60191518467852
 21
-19.00936729180666
 31
0.0
  0
LINE
  5
44D
  8
0
  6
CONTINUOUS
 62
     3
 10
-142.6019151846785
 20
158.4906384302392
 30
0.0
 11
-142.6019151846785
 21
135.2775112940088
 31
0.0
  0
LINE
  5
44E
  8
0
  6
CONTINUOUS
 62
     3
 10
-105.8019121329207
 20
90.49063080084471
 30
0.0
 11
-105.8019121329207
 21
82.49063080084471
 31
0.0
  0
LINE
  5
44F
  8
0
  6
CONTINUOUS
 62
     3
 10
-113.3019121329207
 20
87.99063080084471
 30
0.0
 11
-113.3019121329207
 21
82.49063080084471
 31
0.0
  0
LINE
  5
450
  8
0
  6
CONTINUOUS
 62
     3
 10
-113.3019121329207
 20
87.99063080084471
 30
0.0
 11
-105.8019121329207
 21
87.99063080084471
 31
0.0
  0
LINE
  5
451
  8
0
  6
CONTINUOUS
 62
     3
 10
-79.20251638096758
 20
80.92479675543456
 30
0.0
 11
-77.60191518467852
 21
80.92479675543456
 31
0.0
  0
LINE
  5
452
  8
0
  6
CONTINUOUS
 62
     3
 10
-95.32476979893633
 20
77.01935547125487
 30
0.0
 11
-81.10795766514727
 21
77.01935547125487
 31
0.0
  0
LINE
  5
453
  8
0
  6
CONTINUOUS
 62
     3
 10
-152.4236191265399
 20
82.49063080084471
 30
0.0
 11
-97.42364675206133
 21
82.49063080084471
 31
0.0
  0
LINE
  5
454
  8
0
  6
CONTINUOUS
 62
     3
 10
-142.6019151846785
 20
158.4906384302392
 30
0.0
 11
-78.60191518467852
 21
158.4906384302392
 31
0.0
  0
LINE
  5
455
  8
0
  6
CONTINUOUS
 62
     3
 10
-112.6019151846785
 20
106.5114971948877
 30
0.0
 11
-112.6019151846785
 21
87.99063080084471
 31
0.0
  0
LINE
  5
456
  8
0
  6
CONTINUOUS
 62
     3
 10
-96.80191213292071
 20
86.49063080084471
 30
0.0
 11
-78.60191518467852
 21
86.49063080084471
 31
0.0
  0
LINE
  5
457
  8
0
  6
CONTINUOUS
 62
     3
 10
-112.6019151846785
 20
90.49063080084471
 30
0.0
 11
-105.8019121329207
 21
90.49063080084471
 31
0.0
  0
LINE
  5
458
  8
0
  6
CONTINUOUS
 62
     3
 10
-89.60191518467852
 20
158.4906384302392
 30
0.0
 11
-89.60191518467852
 21
148.4906384302392
 31
0.0
  0
LINE
  5
459
  8
0
  6
CONTINUOUS
 62
     3
 10
-98.60191518467852
 20
158.4906384302392
 30
0.0
 11
-98.60191518467852
 21
83.25695770514159
 31
0.0
  0
LINE
  5
45A
  8
0
  6
CONTINUOUS
 62
     3
 10
-96.80191213292071
 20
86.49063080084471
 30
0.0
 11
-96.80191213292071
 21
82.49063080084471
 31
0.0
  0
LINE
  5
45B
  8
0
  6
CONTINUOUS
 62
     3
 10
-98.60191518467852
 20
83.25695770514159
 30
0.0
 11
-96.80191213292071
 21
83.25695770514159
 31
0.0
  0
LINE
  5
45C
  8
0
  6
CONTINUOUS
 62
     3
 10
-97.60191518467852
 20
92.49063080084471
 30
0.0
 11
-76.60191518467852
 21
92.49063080084471
 31
0.0
  0
LINE
  5
45D
  8
0
  6
CONTINUOUS
 62
     3
 10
-97.60191518467852
 20
148.4906384302392
 30
0.0
 11
-76.60191518467852
 21
148.4906384302392
 31
0.0
  0
LINE
  5
45E
  8
0
  6
CONTINUOUS
 62
     3
 10
-76.60191518467852
 20
148.4906384302392
 30
0.0
 11
-76.60191518467852
 21
141.4906384302392
 31
0.0
  0
LINE
  5
45F
  8
0
  6
CONTINUOUS
 62
     3
 10
-89.60191518467852
 20
92.49063080084471
 30
0.0
 11
-89.60191518467852
 21
86.49063080084471
 31
0.0
  0
LINE
  5
460
  8
0
  6
CONTINUOUS
 62
     3
 10
-97.60191518467852
 20
148.4906384302392
 30
0.0
 11
-97.60191518467852
 21
92.49063080084471
 31
0.0
  0
LINE
  5
461
  8
0
  6
CONTINUOUS
 62
     3
 10
-76.60191518467852
 20
129.4906308008447
 30
0.0
 11
-76.60191518467852
 21
111.4906308008447
 31
0.0
  0
LINE
  5
462
  8
0
  6
CONTINUOUS
 62
     3
 10
-77.60191518467852
 20
92.49063080084471
 30
0.0
 11
-77.60191518467852
 21
-89.50936919915529
 31
0.0
  0
LINE
  5
463
  8
0
  6
CONTINUOUS
 62
     3
 10
-76.60191518467852
 20
99.49063080084471
 30
0.0
 11
-76.60191518467852
 21
92.49063080084471
 31
0.0
  0
LINE
  5
464
  8
0
  6
CONTINUOUS
 62
     3
 10
-97.60191518467852
 20
111.4906308008447
 30
0.0
 11
-66.60191518467852
 21
111.4906308008447
 31
0.0
  0
LINE
  5
465
  8
0
  6
CONTINUOUS
 62
     3
 10
-97.60191518467852
 20
99.49063080084471
 30
0.0
 11
-66.60191518467852
 21
99.49063080084471
 31
0.0
  0
LINE
  5
466
  8
0
  6
CONTINUOUS
 62
     3
 10
-97.60191518467852
 20
141.4906384302392
 30
0.0
 11
-66.60191518467852
 21
141.4906384302392
 31
0.0
  0
LINE
  5
467
  8
0
  6
CONTINUOUS
 62
     3
 10
-97.60191518467852
 20
129.4906308008447
 30
0.0
 11
-66.60191518467852
 21
129.4906308008447
 31
0.0
  0
LINE
  5
468
  8
0
  6
CONTINUOUS
 62
     3
 10
-66.60191518467852
 20
114.4906308008447
 30
0.0
 11
-66.60191518467852
 21
96.49063080084471
 31
0.0
  0
LINE
  5
469
  8
0
  6
CONTINUOUS
 62
     3
 10
-66.60191518467852
 20
144.4906384302392
 30
0.0
 11
-66.60191518467852
 21
126.4906308008447
 31
0.0
  0
LINE
  5
46A
  8
0
  6
CONTINUOUS
 62
     3
 10
-91.60191518467852
 20
111.4906308008447
 30
0.0
 11
-91.60191518467852
 21
99.49063080084471
 31
0.0
  0
LINE
  5
46B
  8
0
  6
CONTINUOUS
 62
     3
 10
-91.60191518467852
 20
141.4906384302392
 30
0.0
 11
-91.60191518467852
 21
129.4906308008447
 31
0.0
  0
LINE
  5
46C
  8
0
  6
CONTINUOUS
 62
     3
 10
-153.4236467520613
 20
81.49063080084471
 30
0.0
 11
-153.4236467520613
 21
-14.50936729180666
 31
0.0
  0
LINE
  5
46D
  8
0
  6
CONTINUOUS
 62
     3
 10
-96.42364675206133
 20
81.49063080084471
 30
0.0
 11
-96.42364675206133
 21
-14.50936729180666
 31
0.0
  0
LINE
  5
46E
  8
0
  6
CONTINUOUS
 62
     3
 10
-153.4236284914132
 20
81.49062143597149
 30
0.0
 11
-152.4236191265399
 21
82.49063080084471
 31
0.0
  0
LINE
  5
46F
  8
0
  6
CONTINUOUS
 62
     3
 10
-97.42363209447873
 20
82.49065322332791
 30
0.0
 11
-96.42362909413211
 21
81.49065401620175
 31
0.0
  0
LINE
  5
470
  8
0
  6
CONTINUOUS
 62
     3
 10
-96.42363271836982
 20
-14.50937258069025
 30
0.0
 11
-97.42363377995932
 21
-15.50937364227975
 31
0.0
  0
LINE
  5
471
  8
0
  6
CONTINUOUS
 62
     3
 10
-153.4236177018201
 20
-14.50936179109721
 30
0.0
 11
-152.4236166402306
 21
-15.50936285268671
 31
0.0
  0
LINE
  5
472
  8
0
  6
CONTINUOUS
 62
     3
 10
-170.6019151846785
 20
-15.50936729180666
 30
0.0
 11
-80.10191518467852
 21
-15.50936729180666
 31
0.0
  0
LINE
  5
473
  8
0
  6
CONTINUOUS
 62
     3
 10
-80.10191518467852
 20
50.73685425055174
 30
0.0
 11
-80.10191518467852
 21
-19.00936729180666
 31
0.0
  0
LINE
  5
474
  8
0
  6
CONTINUOUS
 62
     3
 10
-188.6019151846785
 20
158.4906384302392
 30
0.0
 11
-188.6019151846785
 21
-91.50936919915529
 31
0.0
  0
LINE
  5
475
  8
0
  6
CONTINUOUS
 62
     3
 10
-187.6019151846785
 20
145.9906384302392
 30
0.0
 11
-187.6019151846785
 21
-79.00936919915529
 31
0.0
  0
LINE
  5
476
  8
0
  6
CONTINUOUS
 62
     3
 10
-188.6019151846785
 20
-79.00936919915529
 30
0.0
 11
-187.6019151846785
 21
-79.00936919915529
 31
0.0
  0
LINE
  5
477
  8
0
  6
CONTINUOUS
 62
     3
 10
-188.6019151846785
 20
145.9906384302392
 30
0.0
 11
-187.6019151846785
 21
145.9906384302392
 31
0.0
  0
LINE
  5
478
  8
0
  6
CONTINUOUS
 62
     3
 10
-124.4236467520613
 20
77.49063080084471
 30
0.0
 11
-124.4236467520613
 21
-10.50936729180666
 31
0.0
  0
LINE
  5
479
  8
0
  6
CONTINUOUS
 62
     3
 10
-106.4236467520613
 20
78.99063080084471
 30
0.0
 11
-106.4236467520613
 21
-12.00936729180666
 31
0.0
  0
LINE
  5
47A
  8
0
  6
CONTINUOUS
 62
     3
 10
-152.4236467520613
 20
-1.509367291806662
 30
0.0
 11
-125.4236467520613
 21
-1.509367291806662
 31
0.0
  0
LINE
  5
47B
  8
0
  6
CONTINUOUS
 62
     3
 10
-152.4236467520613
 20
68.49063080084471
 30
0.0
 11
-125.4236467520613
 21
68.49063080084471
 31
0.0
  0
LINE
  5
47C
  8
0
  6
CONTINUOUS
 62
     3
 10
-124.4236467520613
 20
77.49063080084471
 30
0.0
 11
-122.4236467520613
 21
77.49063080084471
 31
0.0
  0
LINE
  5
47D
  8
0
  6
CONTINUOUS
 62
     3
 10
-124.4236467520613
 20
-10.50936729180666
 30
0.0
 11
-122.4236467520613
 21
-10.50936729180666
 31
0.0
  0
LINE
  5
47E
  8
0
  6
CONTINUOUS
 62
     3
 10
-122.4236467520613
 20
77.49063080084471
 30
0.0
 11
-122.4236467520613
 21
53.49063080084471
 31
0.0
  0
LINE
  5
47F
  8
0
  6
CONTINUOUS
 62
     3
 10
-108.4236467520613
 20
78.99063080084471
 30
0.0
 11
-108.4236467520613
 21
53.54408996832517
 31
0.0
  0
LINE
  5
480
  8
0
  6
CONTINUOUS
 62
     3
 10
-133.6019151846785
 20
-71.50936919915529
 30
0.0
 11
-123.6019151846785
 21
-71.50936919915529
 31
0.0
  0
LINE
  5
481
  8
0
  6
CONTINUOUS
 62
     3
 10
-124.6019151846785
 20
-65.50936919915529
 30
0.0
 11
-124.6019151846785
 21
-91.50936919915529
 31
0.0
  0
LINE
  5
482
  8
0
  6
CONTINUOUS
 62
     3
 10
-132.6019151846785
 20
-65.50936919915529
 30
0.0
 11
-132.6019151846785
 21
-91.50936919915529
 31
0.0
  0
LINE
  5
483
  8
0
  6
CONTINUOUS
 62
     3
 10
-128.6019270246142
 20
-63.20002449461317
 30
0.0
 11
-124.601937629679
 21
-65.50941919338828
 31
0.0
  0
LINE
  5
484
  8
0
  6
CONTINUOUS
 62
     3
 10
-132.6019165091832
 20
-65.50936487807456
 30
0.0
 11
-128.6019271142479
 21
-63.19997017929945
 31
0.0
  0
LINE
  5
485
  8
0
  6
CONTINUOUS
 62
     3
 10
-152.4236467520613
 20
68.49063080084471
 30
0.0
 11
-152.4236467520613
 21
53.49063080084471
 31
0.0
  0
LINE
  5
486
  8
0
  6
CONTINUOUS
 62
     3
 10
-125.4236467520613
 20
68.49063080084471
 30
0.0
 11
-125.4236467520613
 21
53.49063080084471
 31
0.0
  0
LINE
  5
487
  8
0
  6
CONTINUOUS
 62
     3
 10
-152.4236220350271
 20
68.49063460929057
 30
0.0
 11
-153.4236230966166
 21
69.49063567088007
 31
0.0
  0
LINE
  5
488
  8
0
  6
CONTINUOUS
 62
     3
 10
-152.4236058506376
 20
-1.509380359212805
 30
0.0
 11
-153.4236069122271
 21
-2.509381420802306
 31
0.0
  0
LINE
  5
489
  8
0
  6
CONTINUOUS
 62
     3
 10
-125.4236365304828
 20
-1.509342595637186
 30
0.0
 11
-124.4236354688933
 21
-2.509343657226687
 31
0.0
  0
LINE
  5
48A
  8
0
  6
CONTINUOUS
 62
     3
 10
-125.4236361789581
 20
68.49063343578001
 30
0.0
 11
-124.4236370561257
 21
69.49063643612664
 31
0.0
  0
LINE
  5
48B
  8
0
  6
CONTINUOUS
 62
     3
 10
-108.4236467520613
 20
78.99063080084471
 30
0.0
 11
-106.4236467520613
 21
78.99063080084471
 31
0.0
  0
LINE
  5
48C
  8
0
  6
CONTINUOUS
 62
     3
 10
-108.4236467520613
 20
-12.00936729180666
 30
0.0
 11
-106.4236467520613
 21
-12.00936729180666
 31
0.0
  0
LINE
  5
48D
  8
0
  6
CONTINUOUS
 62
     3
 10
-106.4236467520613
 20
78.49063080084471
 30
0.0
 11
-96.42364675206133
 21
78.49063080084471
 31
0.0
  0
LINE
  5
48E
  8
0
  6
CONTINUOUS
 62
     3
 10
-106.4236467520613
 20
-11.50936729180666
 30
0.0
 11
-96.42364675206133
 21
-11.50936729180666
 31
0.0
  0
LINE
  5
48F
  8
0
  6
CONTINUOUS
 62
     3
 10
-122.4236467520613
 20
77.24063080084471
 30
0.0
 11
-108.4236467520613
 21
77.24063080084471
 31
0.0
  0
LINE
  5
490
  8
0
  6
CONTINUOUS
 62
     3
 10
-122.4236467520613
 20
-10.25936729180666
 30
0.0
 11
-108.4236467520613
 21
-10.25936729180666
 31
0.0
  0
LINE
  5
491
  8
0
  6
CONTINUOUS
 62
     3
 10
-106.4236467520613
 20
-1.509367291806662
 30
0.0
 11
-96.42364675206133
 21
-1.509367291806662
 31
0.0
  0
LINE
  5
492
  8
0
  6
CONTINUOUS
 62
     3
 10
-106.4236467520613
 20
68.49063080084471
 30
0.0
 11
-96.42364675206133
 21
68.49063080084471
 31
0.0
  0
LINE
  5
493
  8
0
  6
CONTINUOUS
 62
     3
 10
-152.4236467520613
 20
10.2795769525781
 30
0.0
 11
-152.4236467520613
 21
-1.509367291806662
 31
0.0
  0
LINE
  5
494
  8
0
  6
CONTINUOUS
 62
     3
 10
-125.4236467520613
 20
10.09228485357908
 30
0.0
 11
-125.4236467520613
 21
-1.509367291806662
 31
0.0
  0
LINE
  5
495
  8
0
  6
CONTINUOUS
 62
     3
 10
-122.4236467520613
 20
9.904992754580057
 30
0.0
 11
-122.4236467520613
 21
-10.50936729180666
 31
0.0
  0
LINE
  5
496
  8
0
  6
CONTINUOUS
 62
     3
 10
-108.4236467520613
 20
10.09228485357908
 30
0.0
 11
-108.4236467520613
 21
-12.00936729180666
 31
0.0
  0
LINE
  5
497
  8
0
  6
CONTINUOUS
 62
     3
 10
-106.4236467520613
 20
75.99063080084471
 30
0.0
 11
-96.42364675206133
 21
75.99063080084471
 31
0.0
  0
LINE
  5
498
  8
0
  6
CONTINUOUS
 62
     3
 10
-106.4236467520613
 20
69.99063080084471
 30
0.0
 11
-96.42364675206133
 21
69.99063080084471
 31
0.0
  0
LINE
  5
499
  8
0
  6
CONTINUOUS
 62
     3
 10
-101.4236467520613
 20
75.99063080084471
 30
0.0
 11
-101.4236467520613
 21
69.99063080084471
 31
0.0
  0
LINE
  5
49A
  8
0
  6
CONTINUOUS
 62
     3
 10
-97.42364675206133
 20
75.99063080084471
 30
0.0
 11
-97.42364675206133
 21
69.99063080084471
 31
0.0
  0
LINE
  5
49B
  8
0
  6
CONTINUOUS
 62
     3
 10
-54.60191518467852
 20
144.4906384302392
 30
0.0
 11
-54.60191518467852
 21
126.4906308008447
 31
0.0
  0
LINE
  5
49C
  8
0
  6
CONTINUOUS
 62
     3
 10
-54.60191518467852
 20
114.4906308008447
 30
0.0
 11
-54.60191518467852
 21
96.49063080084471
 31
0.0
  0
CIRCLE
  5
49D
  8
0
  6
CONTINUOUS
 62
     3
 10
127.3980886300188
 20
33.49063270819334
 30
0.0
 40
45.0
  0
CIRCLE
  5
49E
  8
0
  6
CONTINUOUS
 62
     3
 10
127.3980886300188
 20
33.49063270819334
 30
0.0
 40
34.25
  0
CIRCLE
  5
49F
  8
0
  6
CONTINUOUS
 62
     3
 10
87.89808863001875
 20
33.49063270819334
 30
0.0
 40
3.099999904632568
  0
CIRCLE
  5
4A0
  8
0
  6
CONTINUOUS
 62
     3
 10
166.8980848153215
 20
33.49063270819334
 30
0.0
 40
3.099999904632568
  0
LINE
  5
4A1
  8
0
  6
CONTINUOUS
 62
     3
 10
-66.60191518467852
 20
96.49063080084471
 30
0.0
 11
-54.60191518467852
 21
96.49063080084471
 31
0.0
  0
LINE
  5
4A2
  8
0
  6
CONTINUOUS
 62
     3
 10
-66.60191518467852
 20
114.4906308008447
 30
0.0
 11
-54.60191518467852
 21
114.4906308008447
 31
0.0
  0
LINE
  5
4A3
  8
0
  6
CONTINUOUS
 62
     3
 10
-66.60191518467852
 20
126.4906308008447
 30
0.0
 11
-54.60191518467852
 21
126.4906308008447
 31
0.0
  0
LINE
  5
4A4
  8
0
  6
CONTINUOUS
 62
     3
 10
-66.60191518467852
 20
144.4906384302392
 30
0.0
 11
-54.60191518467852
 21
144.4906384302392
 31
0.0
  0
LINE
  5
4A5
  8
0
  6
CONTINUOUS
 62
     3
 10
224.4012995204856
 20
-48.49493036040401
 30
0.0
 11
246.9013069710667
 21
-9.523779630505665
 31
0.0
  0
LINE
  5
4A6
  8
0
  6
CONTINUOUS
 62
     3
 10
70.24875040319192
 20
26.47621236431996
 30
0.0
 11
76.49875002111671
 21
15.65089696356162
 31
0.0
  0
LINE
  5
4A7
  8
0
  6
CONTINUOUS
 62
     3
 10
162.0474677524492
 20
-12.49493267611894
 30
0.0
 11
168.2974694511817
 21
-1.669613671296425
 31
0.0
  0
LINE
  5
4A8
  8
0
  6
CONTINUOUS
 62
     3
 10
30.39491385467129
 20
-48.49493988170202
 30
0.0
 11
100.9511082548951
 21
-7.759306552288827
 31
0.0
  0
LINE
  5
4A9
  8
0
  6
CONTINUOUS
 62
     3
 10
153.845083780826
 20
-7.759277380369163
 30
0.0
 11
224.401274877425
 21
-48.49490880243383
 31
0.0
  0
LINE
  5
4AA
  8
0
  6
CONTINUOUS
 62
     3
 10
176.3450776713502
 20
31.21185951361422
 30
0.0
 11
246.9012819824488
 21
-9.523779537844526
 31
0.0
  0
LINE
  5
4AB
  8
0
  6
CONTINUOUS
 62
     3
 10
30.39494178127181
 20
-48.49492432530423
 30
0.0
 11
36.92196883347235
 21
-56.27353129506191
 31
0.0
  0
LINE
  5
4AC
  8
0
  6
CONTINUOUS
 62
     3
 10
217.874151224681
 20
-56.27347633338122
 30
0.0
 11
224.4011905370828
 21
-48.49485475248657
 31
0.0
  0
LINE
  5
4AD
  8
0
  6
CONTINUOUS
 62
     3
 10
36.92195191250418
 20
-56.27356726141097
 30
0.0
 11
39.11788129963195
 21
-55.00574697870258
 31
0.0
  0
LINE
  5
4AE
  8
0
  6
CONTINUOUS
 62
     3
 10
215.678310259252
 20
-55.00571863268915
 30
0.0
 11
217.8742297355051
 21
-56.27353319335197
 31
0.0
  0
LINE
  5
4AF
  8
0
  6
CONTINUOUS
 62
     3
 10
24.14491327352606
 20
-37.66962013182133
 30
0.0
 11
86.49874882202401
 21
-1.669620370240018
 31
0.0
  0
LINE
  5
4B0
  8
0
  6
CONTINUOUS
 62
     3
 10
168.2974479135984
 20
-1.669598316642301
 30
0.0
 11
230.6512735512217
 21
-37.66959235617805
 31
0.0
  0
LINE
  5
4B1
  8
0
  6
CONTINUOUS
 62
     3
 10
178.2974530395975
 20
15.6509205511416
 30
0.0
 11
240.6512918917204
 21
-20.34908111778822
 31
0.0
  0
LINE
  5
4B2
  8
0
  6
CONTINUOUS
 62
     3
 10
163.8720180340635
 20
-2.867352200053524
 30
0.0
 11
166.672448010456
 21
-4.484181022140042
 31
0.0
  0
LINE
  5
4B3
  8
0
  6
CONTINUOUS
 62
     3
 10
177.1220097518479
 20
20.08233970811994
 30
0.0
 11
179.92245294274
 21
18.46550325663934
 31
0.0
  0
LINE
  5
4B4
  8
0
  6
CONTINUOUS
 62
     3
 10
74.87374346948961
 20
18.46547413377919
 30
0.0
 11
77.67418005313191
 21
20.08230677056275
 31
0.0
  0
LINE
  5
4B5
  8
0
  6
CONTINUOUS
 62
     3
 10
88.12374497893943
 20
-4.48421184587216
 30
0.0
 11
90.92417825895682
 21
-2.867381116437123
 31
0.0
  0
LINE
  5
4B6
  8
0
  6
CONTINUOUS
 62
     3
 10
86.49875138666845
 20
-1.669611101694166
 30
0.0
 11
92.74875594642423
 21
-12.4949350619537
 31
0.0
  0
LINE
  5
4B7
  8
0
  6
CONTINUOUS
 62
     3
 10
178.2974668285769
 20
15.6508874862705
 30
0.0
 11
184.547467573635
 21
26.47620483928068
 31
0.0
  0
LINE
  5
4B8
  8
0
  6
CONTINUOUS
 62
     3
 10
221.9910435221122
 20
-32.6696173667844
 30
0.0
 11
231.9910485289028
 21
-15.34910299471876
 31
0.0
  0
LINE
  5
4B9
  8
0
  6
CONTINUOUS
 62
     3
 10
173.4935896295826
 20
-4.669608681007453
 30
0.0
 11
183.4935927290243
 21
12.65090238743351
 31
0.0
  0
LINE
  5
4BA
  8
0
  6
CONTINUOUS
 62
     3
 10
71.30259416445267
 20
12.65089842372161
 30
0.0
 11
81.30259719893468
 21
-4.669612532205768
 31
0.0
  0
LINE
  5
4BB
  8
0
  6
CONTINUOUS
 62
     3
 10
22.80516139870829
 20
-15.34910632356079
 30
0.0
 11
32.80516276426003
 21
-32.66961438881658
 31
0.0
  0
LINE
  5
4BC
  8
0
  6
CONTINUOUS
 62
     3
 10
104.8980903271681
 20
86.49063652289061
 30
0.0
 11
117.3980903271681
 21
86.49063652289061
 31
0.0
  0
LINE
  5
4BD
  8
0
  6
CONTINUOUS
 62
     3
 10
114.1480903271681
 20
86.49063652289061
 30
0.0
 11
114.1480903271681
 21
83.25696342718749
 31
0.0
  0
LINE
  5
4BE
  8
0
  6
CONTINUOUS
 62
     3
 10
140.6480903271681
 20
86.49063652289061
 30
0.0
 11
140.6480903271681
 21
83.25696342718749
 31
0.0
  0
LINE
  5
4BF
  8
0
  6
CONTINUOUS
 62
     3
 10
137.3980903271681
 20
86.49063652289061
 30
0.0
 11
149.8980903271681
 21
86.49063652289061
 31
0.0
  0
LINE
  5
4C0
  8
0
  6
CONTINUOUS
 62
     3
 10
117.3980903271681
 20
92.49063652289061
 30
0.0
 11
137.3980903271681
 21
92.49063652289061
 31
0.0
  0
LINE
  5
4C1
  8
0
  6
CONTINUOUS
 62
     3
 10
117.3980903271681
 20
148.4906365228906
 30
0.0
 11
137.3980903271681
 21
148.4906365228906
 31
0.0
  0
ARC
  5
4C2
  8
0
  6
CONTINUOUS
 62
     3
 10
127.3980903271681
 20
33.49063270819334
 30
0.0
 40
123.0
 50
100.5403026203177
 51
150.0000110043195
  0
CIRCLE
  5
4C3
  8
0
  6
CONTINUOUS
 62
     3
 10
127.3980903271681
 20
33.49063270819334
 30
0.0
 40
49.0
  0
ARC
  5
4C4
  8
0
  6
CONTINUOUS
 62
     3
 10
127.3980903271681
 20
33.49063270819334
 30
0.0
 40
123.0
 50
220.5402549605742
 51
270.0000179860894
  0
ARC
  5
4C5
  8
0
  6
CONTINUOUS
 62
     3
 10
127.3980903271681
 20
33.49063270819334
 30
0.0
 40
125.0
 50
220.3697324577557
 51
319.6302488729097
  0
ARC
  5
4C6
  8
0
  6
CONTINUOUS
 62
     3
 10
127.3980903271681
 20
33.49063270819334
 30
0.0
 40
51.5
 50
64.09417415250867
 51
115.9058376866368
  0
ARC
  5
4C7
  8
0
  6
CONTINUOUS
 62
     3
 10
127.3980903271681
 20
33.49063270819334
 30
0.0
 40
51.5
 50
304.0941981339611
 51
355.9058403237481
  0
ARC
  5
4C8
  8
0
  6
CONTINUOUS
 62
     3
 10
127.3980903271681
 20
33.49063270819334
 30
0.0
 40
52.5
 50
115.3769488184461
 51
184.6230185486794
  0
ARC
  5
4C9
  8
0
  6
CONTINUOUS
 62
     3
 10
127.3980903271681
 20
33.49063270819334
 30
0.0
 40
52.5
 50
235.3769011587026
 51
304.6230870021519
  0
ARC
  5
4CA
  8
0
  6
CONTINUOUS
 62
     3
 10
127.3980903271681
 20
33.49063270819334
 30
0.0
 40
52.5
 50
355.3769506017837
 51
424.6230698508886
  0
ARC
  5
4CB
  8
0
  6
CONTINUOUS
 62
     3
 10
127.3980903271681
 20
33.49063270819334
 30
0.0
 40
123.0
 50
270.0000179860894
 51
319.459719539902
  0
ARC
  5
4CC
  8
0
  6
CONTINUOUS
 62
     3
 10
127.3980903271681
 20
33.49063270819334
 30
0.0
 40
51.5
 50
184.094160643711
 51
235.9057900268934
  0
ARC
  5
4CD
  8
0
  6
CONTINUOUS
 62
     3
 10
127.3980903271681
 20
33.49063270819334
 30
0.0
 40
123.0
 50
29.99999741973148
 51
79.45971604901702
  0
LINE
  5
4CE
  8
0
  6
CONTINUOUS
 62
     3
 10
4.42194046853551
 20
0.0181017119495479
 30
0.0
 11
7.894905027290733
 21
-9.523789650117244
 31
0.0
  0
LINE
  5
4CF
  8
0
  6
CONTINUOUS
 62
     3
 10
4.421941962961896
 20
0.0180998075074328
 30
0.0
 11
6.617881260964381
 21
1.285925812261375
 31
0.0
  0
LINE
  5
4D0
  8
0
  6
CONTINUOUS
 62
     3
 10
104.8980903271681
 20
158.4906365228906
 30
0.0
 11
149.8980903271681
 21
158.4906365228906
 31
0.0
  0
LINE
  5
4D1
  8
0
  6
CONTINUOUS
 62
     3
 10
94.89810117685413
 20
156.727319593661
 30
0.0
 11
104.8981011752898
 21
158.4905894514173
 31
0.0
  0
LINE
  5
4D2
  8
0
  6
CONTINUOUS
 62
     3
 10
149.8980879449031
 20
158.4906046586746
 30
0.0
 11
159.8980879433388
 21
156.7273348009183
 31
0.0
  0
LINE
  5
4D3
  8
0
  6
CONTINUOUS
 62
     3
 10
94.89808841981942
 20
156.7273766351953
 30
0.0
 11
94.89808841981942
 21
154.1917168451562
 31
0.0
  0
LINE
  5
4D4
  8
0
  6
CONTINUOUS
 62
     3
 10
159.8980903271681
 20
156.7273613764062
 30
0.0
 11
159.8980903271681
 21
154.1917168451562
 31
0.0
  0
LINE
  5
4D5
  8
0
  6
CONTINUOUS
 62
     3
 10
7.894905548425115
 20
-9.523795078010103
 30
0.0
 11
30.39490632328527
 21
-48.49493424522206
 31
0.0
  0
LINE
  5
4D6
  8
0
  6
CONTINUOUS
 62
     3
 10
7.894908077453849
 20
-9.523790028755066
 30
0.0
 11
78.45109917405277
 21
31.21184139330961
 31
0.0
  0
LINE
  5
4D7
  8
0
  6
CONTINUOUS
 62
     3
 10
246.901259433413
 20
-9.523776503381846
 30
0.0
 11
250.3742231767287
 21
0.0181126182831619
 31
0.0
  0
LINE
  5
4D8
  8
0
  6
CONTINUOUS
 62
     3
 10
14.14491078457556
 20
-20.34911346093545
 30
0.0
 11
76.49874633307351
 21
15.65088630064587
 31
0.0
  0
LINE
  5
4D9
  8
0
  6
CONTINUOUS
 62
     3
 10
149.8980903271681
 20
158.4906365228906
 30
0.0
 11
149.8980903271681
 21
77.01936119330077
 31
0.0
  0
LINE
  5
4DA
  8
0
  6
CONTINUOUS
 62
     3
 10
104.8980903271681
 20
158.4906365228906
 30
0.0
 11
104.8980903271681
 21
77.01936119330077
 31
0.0
  0
LINE
  5
4DB
  8
0
  6
CONTINUOUS
 62
     3
 10
117.3980903271681
 20
158.4906365228906
 30
0.0
 11
117.3980903271681
 21
86.49063652289061
 31
0.0
  0
LINE
  5
4DC
  8
0
  6
CONTINUOUS
 62
     3
 10
137.3980903271681
 20
158.4906365228906
 30
0.0
 11
137.3980903271681
 21
86.49063652289061
 31
0.0
  0
ARC
  5
4DD
  8
0
  6
CONTINUOUS
 62
     3
 10
127.3980903271681
 20
33.49063270819334
 30
0.0
 40
125.0
 50
0.0
 51
79.63023855183556
  0
ARC
  5
4DE
  8
0
  6
CONTINUOUS
 62
     3
 10
127.3980903271681
 20
33.49063270819334
 30
0.0
 40
125.0
 50
100.3697801174991
 51
199.6302009100047
  0
ARC
  5
4DF
  8
0
  6
CONTINUOUS
 62
     3
 10
127.3980903271681
 20
33.49063270819334
 30
0.0
 40
123.0
 50
340.5402958659188
 51
389.9999974197315
  0
ARC
  5
4E0
  8
0
  6
CONTINUOUS
 62
     3
 10
127.3980903271681
 20
33.49063270819334
 30
0.0
 40
125.0
 50
340.3697682404584
 51
360.0
  0
ARC
  5
4E1
  8
0
  6
CONTINUOUS
 62
     3
 10
127.3980903271681
 20
33.49063270819334
 30
0.0
 40
123.0
 50
150.0000110043195
 51
199.4596784071862
  0
LINE
  5
4E2
  8
0
  6
CONTINUOUS
 62
     3
 10
248.178318812518
 20
1.285953647202717
 30
0.0
 11
250.374238288771
 21
0.0181390865398896
 31
0.0
  0
CIRCLE
  5
4E3
  8
0
  6
CONTINUOUS
 62
     3
 10
187.9971502910468
 20
94.08970207522592
 30
0.0
 40
9.0
  0
CIRCLE
  5
4E4
  8
0
  6
CONTINUOUS
 62
     3
 10
44.61824213369815
 20
55.67142814944467
 30
0.0
 40
9.0
  0
CIRCLE
  5
4E5
  8
0
  6
CONTINUOUS
 62
     3
 10
44.61824213369815
 20
55.67142814944467
 30
0.0
 40
13.0
  0
CIRCLE
  5
4E6
  8
0
  6
CONTINUOUS
 62
     3
 10
66.79905115469424
 20
94.08973259280404
 30
0.0
 40
9.0
  0
CIRCLE
  5
4E7
  8
0
  6
CONTINUOUS
 62
     3
 10
66.79905115469424
 20
94.08973259280404
 30
0.0
 40
13.0
  0
CIRCLE
  5
4E8
  8
0
  6
CONTINUOUS
 62
     3
 10
187.9971502910468
 20
94.08970207522592
 30
0.0
 40
13.0
  0
CIRCLE
  5
4E9
  8
0
  6
CONTINUOUS
 62
     3
 10
105.2172697673651
 20
-49.28916602780142
 30
0.0
 40
13.0
  0
CIRCLE
  5
4EA
  8
0
  6
CONTINUOUS
 62
     3
 10
210.1779364238593
 20
55.67145485232553
 30
0.0
 40
9.0
  0
CIRCLE
  5
4EB
  8
0
  6
CONTINUOUS
 62
     3
 10
210.1779364238593
 20
55.67145485232553
 30
0.0
 40
13.0
  0
CIRCLE
  5
4EC
  8
0
  6
CONTINUOUS
 62
     3
 10
149.578868735871
 20
-49.28917747189322
 30
0.0
 40
9.0
  0
CIRCLE
  5
4ED
  8
0
  6
CONTINUOUS
 62
     3
 10
149.578868735871
 20
-49.28917747189322
 30
0.0
 40
13.0
  0
LINE
  5
4EE
  8
0
  6
CONTINUOUS
 62
     3
 10
-187.6019151846785
 20
-36.36937026715935
 30
0.0
 11
-168.6019557975154
 21
-33.99438090759674
 31
0.0
  0
LINE
  5
4EF
  8
0
  6
CONTINUOUS
 62
     3
 10
-168.6019457022566
 20
100.9756333185449
 30
0.0
 11
-168.6019457022566
 21
-33.99437553155276
 31
0.0
  0
LINE
  5
4F0
  8
0
  6
CONTINUOUS
 62
     3
 10
-187.6019151846785
 20
103.3506339436867
 30
0.0
 11
-168.6019548364186
 21
100.9756444639873
 31
0.0
  0
LINE
  5
4F1
  8
0
  6
DIVIDE
 62
     9
 10
-80.10191518467852
 20
81.49063080084471
 30
0.0
 11
-80.10191518467852
 21
57.82022827398924
 31
0.0
  0
LINE
  5
4F2
  8
0
  6
DIVIDE
 62
     9
 10
-167.1019151846785
 20
81.49063080084471
 30
0.0
 11
-167.1019151846785
 21
40.92662208807615
 31
0.0
  0
LINE
  5
4F3
  8
0
  6
DIVIDE
 62
     9
 10
-167.1018976893883
 20
81.49062143597149
 30
0.0
 11
-166.1018966277988
 21
82.49062249756099
 31
0.0
  0
LINE
  5
4F4
  8
0
  6
DIVIDE
 62
     9
 10
-80.10190783223558
 20
81.49062683076801
 30
0.0
 11
-81.10190889382508
 21
82.49062789235751
 31
0.0
  0
LINE
  5
4F5
  8
0
  6
DIVIDE
 62
     9
 10
-89.68242055577227
 20
82.49063080084471
 30
0.0
 11
-81.10191518467852
 21
82.49063080084471
 31
0.0
  0
LINE
  5
4F6
  8
0
  6
CONTINUOUS
 62
     4
 10
-78.60191518467852
 20
158.4906384302392
 30
0.0
 11
-78.60191518467852
 21
148.4906384302392
 31
0.0
  0
LINE
  5
4F7
  8
0
  6
CONTINUOUS
 62
     4
 10
-79.60191518467852
 20
158.4906384302392
 30
0.0
 11
-79.60191518467852
 21
148.4906384302392
 31
0.0
  0
LINE
  5
4F8
  8
0
  6
CONTINUOUS
 62
     4
 10
-79.60191518467852
 20
92.49063080084471
 30
0.0
 11
-79.60191518467852
 21
86.49063080084471
 31
0.0
  0
LINE
  5
4F9
  8
0
  6
CONTINUOUS
 62
     4
 10
-78.60191518467852
 20
92.49063080084471
 30
0.0
 11
-78.60191518467852
 21
86.49063080084471
 31
0.0
  0
LINE
  5
4FA
  8
0
  6
CONTINUOUS
 62
     4
 10
-97.60191518467852
 20
140.4906384302392
 30
0.0
 11
-66.60191518467852
 21
140.4906384302392
 31
0.0
  0
LINE
  5
4FB
  8
0
  6
CONTINUOUS
 62
     4
 10
-97.60191518467852
 20
130.4906308008447
 30
0.0
 11
-66.60191518467852
 21
130.4906308008447
 31
0.0
  0
LINE
  5
4FC
  8
0
  6
CONTINUOUS
 62
     4
 10
-97.60191518467852
 20
100.4906308008447
 30
0.0
 11
-66.60191518467852
 21
100.4906308008447
 31
0.0
  0
LINE
  5
4FD
  8
0
  6
CONTINUOUS
 62
     4
 10
-97.60191518467852
 20
110.4906308008447
 30
0.0
 11
-66.60191518467852
 21
110.4906308008447
 31
0.0
  0
LINE
  5
4FE
  8
0
  6
CONTINUOUS
 62
     4
 10
-132.6019151846785
 20
-65.50936919915529
 30
0.0
 11
-124.6019151846785
 21
-65.50936919915529
 31
0.0
  0
LINE
  5
4FF
  8
0
  6
CONTINUOUS
 62
     4
 10
-123.6019151846785
 20
-71.50936919915529
 30
0.0
 11
-123.6019151846785
 21
-91.50936919915529
 31
0.0
  0
LINE
  5
500
  8
0
  6
CONTINUOUS
 62
     4
 10
-133.6019151846785
 20
-71.50936919915529
 30
0.0
 11
-133.6019151846785
 21
-91.50936919915529
 31
0.0
  0
LINE
  5
501
  8
0
  6
CONTINUOUS
 62
     4
 10
-106.4236467520613
 20
-10.75936729180666
 30
0.0
 11
-96.42364675206133
 21
-10.75936729180666
 31
0.0
  0
LINE
  5
502
  8
0
  6
CONTINUOUS
 62
     4
 10
-106.4236467520613
 20
77.74063080084471
 30
0.0
 11
-96.42364675206133
 21
77.74063080084471
 31
0.0
  0
LINE
  5
503
  8
0
  6
CONTINUOUS
 62
     4
 10
-65.10192176930556
 20
131.3684872402159
 30
0.0
 11
-60.56022048010433
 21
133.9906394124146
 31
0.0
  0
LINE
  5
504
  8
0
  6
CONTINUOUS
 62
     4
 10
-65.10192239541036
 20
101.4169089133421
 30
0.0
 11
-60.64406049912074
 21
103.9906563948225
 31
0.0
  0
LINE
  5
505
  8
0
  6
CONTINUOUS
 62
     4
 10
-65.10191810969897
 20
132.523189886431
 30
0.0
 11
-62.56021812521519
 21
133.9906408945452
 31
0.0
  0
LINE
  5
506
  8
0
  6
CONTINUOUS
 62
     4
 10
-65.10192970888053
 20
133.6779189616454
 30
0.0
 11
-64.56022772548928
 21
133.9906707130235
 31
0.0
  0
LINE
  5
507
  8
0
  6
CONTINUOUS
 62
     4
 10
-65.10191873580376
 20
102.5716115595572
 30
0.0
 11
-62.64405484060669
 21
103.9906597843015
 31
0.0
  0
LINE
  5
508
  8
0
  6
CONTINUOUS
 62
     4
 10
-65.10191405405291
 20
103.7262971765757
 30
0.0
 11
-64.64405146357328
 21
103.9906442372354
 31
0.0
  0
LINE
  5
509
  8
0
  6
CONTINUOUS
 62
     4
 10
-65.10192232364699
 20
103.0723374277962
 30
0.0
 11
-56.30016698313904
 21
97.99064217404822
 31
0.0
  0
LINE
  5
50A
  8
0
  6
CONTINUOUS
 62
     4
 10
-65.10191253362771
 20
101.9176301409778
 30
0.0
 11
-58.3001584978372
 21
97.99063605131443
 31
0.0
  0
LINE
  5
50B
  8
0
  6
CONTINUOUS
 62
     4
 10
-65.10191548127094
 20
100.7629313094597
 30
0.0
 11
-60.30016275019787
 21
97.99063838388094
 31
0.0
  0
LINE
  5
50C
  8
0
  6
CONTINUOUS
 62
     4
 10
-65.10190876549333
 20
131.869238967084
 30
0.0
 11
-58.38397430086499
 21
127.9906381240479
 31
0.0
  0
LINE
  5
50D
  8
0
  6
CONTINUOUS
 62
     4
 10
-65.10191362048508
 20
130.714536831941
 30
0.0
 11
-60.38398046057418
 21
127.9906371529895
 31
0.0
  0
LINE
  5
50E
  8
0
  6
CONTINUOUS
 62
     4
 10
-65.10191466077978
 20
129.5598413040478
 30
0.0
 11
-62.38398280558633
 21
127.9906427891809
 31
0.0
  0
LINE
  5
50F
  8
0
  6
CONTINUOUS
 62
     4
 10
-65.10191882166234
 20
130.2137884086978
 30
0.0
 11
-58.56021622774367
 21
133.9906417449811
 31
0.0
  0
LINE
  5
510
  8
0
  6
CONTINUOUS
 62
     4
 10
-65.10192019978828
 20
129.0591046990278
 30
0.0
 11
-56.56021630115217
 21
133.9906591993958
 31
0.0
  0
LINE
  5
511
  8
0
  6
CONTINUOUS
 62
     4
 10
-65.10191842562287
 20
100.2621930526273
 30
0.0
 11
-58.6440519209909
 21
103.9906436055408
 31
0.0
  0
LINE
  5
512
  8
0
  6
CONTINUOUS
 62
     4
 10
-65.10192310737372
 20
99.10750743560885
 30
0.0
 11
-56.64406520889904
 21
103.9906534305614
 31
0.0
  0
LINE
  5
513
  8
0
  6
CONTINUOUS
 62
     4
 10
-65.10191890575129
 20
99.60823165203539
 30
0.0
 11
-62.30016747939567
 21
97.99063989054122
 31
0.0
  0
LINE
  5
514
  8
0
  6
CONTINUOUS
 62
     4
 10
-65.10192137655739
 20
98.45353364642352
 30
0.0
 11
-64.30015804041958
 21
97.99063541961988
 31
0.0
  0
LINE
  5
515
  8
0
  6
CONTINUOUS
 62
     4
 10
-65.10191760842301
 20
128.4051424725297
 30
0.0
 11
-64.383987057947
 21
127.9906451217474
 31
0.0
  0
LINE
  5
516
  8
0
  6
CONTINUOUS
 62
     4
 10
-106.4236467520613
 20
75.49063080084471
 30
0.0
 11
-96.42364675206133
 21
75.49063080084471
 31
0.0
  0
LINE
  5
517
  8
0
  6
CONTINUOUS
 62
     4
 10
-106.4236467520613
 20
70.49063080084471
 30
0.0
 11
-96.42364675206133
 21
70.49063080084471
 31
0.0
  0
CIRCLE
  5
518
  8
0
  6
CONTINUOUS
 62
     4
 10
127.3980886300188
 20
33.49063270819334
 30
0.0
 40
44.20000076293945
  0
LINE
  5
519
  8
0
  6
CONTINUOUS
 62
     4
 10
-60.69245912336541
 20
103.9906356446271
 30
0.0
 11
-56.10191373990151
 21
101.340283324573
 31
0.0
  0
LINE
  5
51A
  8
0
  6
CONTINUOUS
 62
     4
 10
-60.77629100191561
 20
133.9906403913172
 30
0.0
 11
-56.10192604728954
 21
131.2918948246359
 31
0.0
  0
LINE
  5
51B
  8
0
  6
CONTINUOUS
 62
     4
 10
-58.77628484220642
 20
133.9906413623756
 30
0.0
 11
-56.1019211922978
 21
132.4465969597789
 31
0.0
  0
LINE
  5
51C
  8
0
  6
CONTINUOUS
 62
     4
 10
-56.77629189699687
 20
133.9906499628281
 30
0.0
 11
-56.10191633730605
 21
133.6012990949219
 31
0.0
  0
LINE
  5
51D
  8
0
  6
CONTINUOUS
 62
     4
 10
-58.69246903917863
 20
103.9906392896422
 30
0.0
 11
-56.10192496043217
 21
102.4949881336727
 31
0.0
  0
LINE
  5
51E
  8
0
  6
CONTINUOUS
 62
     4
 10
-56.69246478681797
 20
103.9906369570757
 30
0.0
 11
-56.10192201278895
 21
103.6496869651908
 31
0.0
  0
LINE
  5
51F
  8
0
  6
CONTINUOUS
 62
     4
 10
-62.69246432940034
 20
103.9906363253811
 30
0.0
 11
-56.10191764121899
 21
100.1855828412425
 31
0.0
  0
LINE
  5
520
  8
0
  6
CONTINUOUS
 62
     4
 10
-64.69246858176101
 20
103.9906386579476
 30
0.0
 11
-56.10192058886221
 21
99.03088400972439
 31
0.0
  0
LINE
  5
521
  8
0
  6
CONTINUOUS
 62
     4
 10
-62.77629143957924
 20
133.9906493311335
 30
0.0
 11
-56.10191196573609
 21
130.1371949709736
 31
0.0
  0
LINE
  5
522
  8
0
  6
CONTINUOUS
 62
     4
 10
-64.77628629213731
 20
133.9906374270561
 30
0.0
 11
-56.10191872807636
 21
128.9824895322057
 31
0.0
  0
LINE
  5
523
  8
0
  6
CONTINUOUS
 62
     4
 10
-65.10192093969826
 20
133.0239421243712
 30
0.0
 11
-56.10192167571958
 21
127.8277907006876
 31
0.0
  0
LINE
  5
524
  8
0
  6
CONTINUOUS
 62
     4
 10
-64.95252835595599
 20
127.9906731967413
 30
0.0
 11
-56.10192561756045
 21
133.100570505693
 31
0.0
  0
LINE
  5
525
  8
0
  6
CONTINUOUS
 62
     4
 10
-62.95253071084514
 20
127.9906717146108
 30
0.0
 11
-56.10192597354214
 21
131.9458697668264
 31
0.0
  0
LINE
  5
526
  8
0
  6
CONTINUOUS
 62
     4
 10
-60.95252111057104
 20
127.9906418961324
 30
0.0
 11
-56.10191437436058
 21
130.791140691612
 31
0.0
  0
LINE
  5
527
  8
0
  6
CONTINUOUS
 62
     4
 10
-58.95252346546019
 20
127.9906404140019
 30
0.0
 11
-56.10192133759207
 21
129.6364361380484
 31
0.0
  0
LINE
  5
528
  8
0
  6
CONTINUOUS
 62
     4
 10
-56.95252251672443
 20
127.9906408392199
 30
0.0
 11
-56.10192169357376
 21
128.4817353991818
 31
0.0
  0
LINE
  5
529
  8
0
  6
CONTINUOUS
 62
     4
 10
-65.10193337423013
 20
97.95280097469669
 30
0.0
 11
-56.10192750300163
 21
103.1489562130774
 31
0.0
  0
LINE
  5
52A
  8
0
  6
CONTINUOUS
 62
     4
 10
-63.03637096705367
 20
97.99063570208006
 30
0.0
 11
-56.10192022958924
 21
101.9942422597111
 31
0.0
  0
LINE
  5
52B
  8
0
  6
CONTINUOUS
 62
     4
 10
-61.036366714693
 20
97.99063803464657
 30
0.0
 11
-56.10192388919583
 21
100.839539613496
 31
0.0
  0
LINE
  5
52C
  8
0
  6
CONTINUOUS
 62
     4
 10
-59.0363634844766
 20
97.99065739640975
 30
0.0
 11
-56.10192857094668
 21
99.68485399647756
 31
0.0
  0
LINE
  5
52D
  8
0
  6
CONTINUOUS
 62
     4
 10
-57.03636151359657
 20
97.99064079243107
 30
0.0
 11
-56.10191799390938
 21
98.53014195045984
 31
0.0
  0
CIRCLE
  5
52E
  8
0
  6
CONTINUOUS
 62
     4
 10
127.3980886300188
 20
72.99063080084471
 30
0.0
 40
3.0
  0
CIRCLE
  5
52F
  8
0
  6
CONTINUOUS
 62
     4
 10
127.3980886300188
 20
72.99063080084471
 30
0.0
 40
2.4
  0
CIRCLE
  5
530
  8
0
  6
CONTINUOUS
 62
     4
 10
93.1900868323458
 20
13.74063366186766
 30
0.0
 40
3.0
  0
CIRCLE
  5
531
  8
0
  6
CONTINUOUS
 62
     4
 10
93.1900868323458
 20
13.74063366186766
 30
0.0
 40
2.4
  0
CIRCLE
  5
532
  8
0
  6
CONTINUOUS
 62
     4
 10
161.6060904276917
 20
13.74063366186766
 30
0.0
 40
2.999999999999999
  0
CIRCLE
  5
533
  8
0
  6
CONTINUOUS
 62
     4
 10
161.6060904276917
 20
13.74063366186766
 30
0.0
 40
2.399999999999999
  0
LINE
  5
534
  8
0
  6
CONTINUOUS
 62
     4
 10
180.0964955707418
 20
15.76692702174915
 30
0.0
 11
185.3464961965905
 21
24.8601935982777
 31
0.0
  0
LINE
  5
535
  8
0
  6
CONTINUOUS
 62
     4
 10
163.8464869578698
 20
-12.3789096587637
 30
0.0
 11
169.096488537393
 21
-3.285641430422807
 31
0.0
  0
LINE
  5
536
  8
0
  6
CONTINUOUS
 62
     4
 10
239.8522737883554
 20
-18.73309234976222
 30
0.0
 11
245.1022782289019
 21
-9.639819165984314
 31
0.0
  0
LINE
  5
537
  8
0
  6
CONTINUOUS
 62
     4
 10
223.6022747122277
 20
-46.87891251215167
 30
0.0
 11
228.8522762917509
 21
-37.78564428381078
 31
0.0
  0
LINE
  5
538
  8
0
  6
CONTINUOUS
 62
     4
 10
222.3032025714736
 20
-46.12891037845254
 30
0.0
 11
227.5532060583457
 21
-37.03563884648697
 31
0.0
  0
LINE
  5
539
  8
0
  6
CONTINUOUS
 62
     4
 10
221.0041985475053
 20
-45.37891233333773
 30
0.0
 11
226.2542020343773
 21
-36.28564080137216
 31
0.0
  0
LINE
  5
53A
  8
0
  6
CONTINUOUS
 62
     4
 10
219.7051434359476
 20
-44.62891122178468
 30
0.0
 11
224.9551469228197
 21
-35.53563968981911
 31
0.0
  0
LINE
  5
53B
  8
0
  6
CONTINUOUS
 62
     4
 10
218.4061223827828
 20
-43.8789121545238
 30
0.0
 11
223.656123962306
 21
-34.78564392618291
 31
0.0
  0
LINE
  5
53C
  8
0
  6
CONTINUOUS
 62
     4
 10
238.5532092769967
 20
-17.98307700156438
 30
0.0
 11
243.8032060881478
 21
-8.889817032285187
 31
0.0
  0
LINE
  5
53D
  8
0
  6
CONTINUOUS
 62
     4
 10
237.2542052530284
 20
-17.23307895644957
 30
0.0
 11
242.5042020641794
 21
-8.139818987170379
 31
0.0
  0
LINE
  5
53E
  8
0
  6
CONTINUOUS
 62
     4
 10
235.9551501414707
 20
-16.48307784489652
 30
0.0
 11
241.2051469526218
 21
-7.389817875617332
 31
0.0
  0
LINE
  5
53F
  8
0
  6
CONTINUOUS
 62
     4
 10
234.6561214589105
 20
-15.73309199213436
 30
0.0
 11
239.906125899457
 21
-6.639818808356445
 31
0.0
  0
LINE
  5
540
  8
0
  6
CONTINUOUS
 62
     4
 10
181.3955611042465
 20
15.01692870274774
 30
0.0
 11
186.6455617300953
 21
24.11019527927629
 31
0.0
  0
LINE
  5
541
  8
0
  6
CONTINUOUS
 62
     4
 10
182.6945783427136
 20
14.26692302823749
 30
0.0
 11
187.9445789685623
 21
23.36018960476604
 31
0.0
  0
LINE
  5
542
  8
0
  6
CONTINUOUS
 62
     4
 10
183.993592788629
 20
13.51692777567433
 30
0.0
 11
189.2435972291755
 21
22.61020095945224
 31
0.0
  0
LINE
  5
543
  8
0
  6
CONTINUOUS
 62
     4
 10
185.2926479001866
 20
12.76692666412128
 30
0.0
 11
190.5426485260354
 21
21.86019324064983
 31
0.0
  0
LINE
  5
544
  8
0
  6
CONTINUOUS
 62
     4
 10
165.1455543987234
 20
-13.12890467414042
 30
0.0
 11
170.3955597929443
 21
-4.035629838550172
 31
0.0
  0
LINE
  5
545
  8
0
  6
CONTINUOUS
 62
     4
 10
166.4445716371905
 20
-13.87891034865067
 30
0.0
 11
171.6945751240625
 21
-4.785638816685101
 31
0.0
  0
LINE
  5
546
  8
0
  6
CONTINUOUS
 62
     4
 10
167.7435860831059
 20
-14.62890560121384
 30
0.0
 11
172.9935895699779
 21
-5.535634069248268
 31
0.0
  0
LINE
  5
547
  8
0
  6
CONTINUOUS
 62
     4
 10
169.0426411946635
 20
-15.37890671276688
 30
0.0
 11
174.2926446815356
 21
-6.285635180801314
 31
0.0
  0
LINE
  5
548
  8
0
  6
CONTINUOUS
 62
     4
 10
138.3980903271681
 20
87.99063652289061
 30
0.0
 11
148.8980903271681
 21
87.99063652289061
 31
0.0
  0
LINE
  5
549
  8
0
  6
CONTINUOUS
 62
     4
 10
105.8980903271681
 20
87.99063652289061
 30
0.0
 11
116.3980903271681
 21
87.99063652289061
 31
0.0
  0
LINE
  5
54A
  8
0
  6
CONTINUOUS
 62
     4
 10
138.3980903271681
 20
89.49063652289061
 30
0.0
 11
148.8980903271681
 21
89.49063652289061
 31
0.0
  0
LINE
  5
54B
  8
0
  6
CONTINUOUS
 62
     4
 10
138.3980903271681
 20
90.99063652289061
 30
0.0
 11
148.8980903271681
 21
90.99063652289061
 31
0.0
  0
LINE
  5
54C
  8
0
  6
CONTINUOUS
 62
     4
 10
138.3980903271681
 20
92.49063652289061
 30
0.0
 11
148.8980903271681
 21
92.49063652289061
 31
0.0
  0
LINE
  5
54D
  8
0
  6
CONTINUOUS
 62
     4
 10
138.3980903271681
 20
93.99063652289061
 30
0.0
 11
148.8980903271681
 21
93.99063652289061
 31
0.0
  0
LINE
  5
54E
  8
0
  6
CONTINUOUS
 62
     4
 10
138.3980903271681
 20
95.49063652289061
 30
0.0
 11
148.8980903271681
 21
95.49063652289061
 31
0.0
  0
LINE
  5
54F
  8
0
  6
CONTINUOUS
 62
     4
 10
105.8980903271681
 20
89.49063652289061
 30
0.0
 11
116.3980903271681
 21
89.49063652289061
 31
0.0
  0
LINE
  5
550
  8
0
  6
CONTINUOUS
 62
     4
 10
105.8980903271681
 20
90.99063652289061
 30
0.0
 11
116.3980903271681
 21
90.99063652289061
 31
0.0
  0
LINE
  5
551
  8
0
  6
CONTINUOUS
 62
     4
 10
105.8980903271681
 20
92.49063652289061
 30
0.0
 11
116.3980903271681
 21
92.49063652289061
 31
0.0
  0
LINE
  5
552
  8
0
  6
CONTINUOUS
 62
     4
 10
105.8980903271681
 20
93.99063652289061
 30
0.0
 11
116.3980903271681
 21
93.99063652289061
 31
0.0
  0
LINE
  5
553
  8
0
  6
CONTINUOUS
 62
     4
 10
105.8980903271681
 20
95.49063652289061
 30
0.0
 11
116.3980903271681
 21
95.49063652289061
 31
0.0
  0
LINE
  5
554
  8
0
  6
CONTINUOUS
 62
     4
 10
105.8980903271681
 20
155.4906365228906
 30
0.0
 11
116.3980903271681
 21
155.4906365228906
 31
0.0
  0
LINE
  5
555
  8
0
  6
CONTINUOUS
 62
     4
 10
105.8980903271681
 20
153.9906365228906
 30
0.0
 11
116.3980903271681
 21
153.9906365228906
 31
0.0
  0
LINE
  5
556
  8
0
  6
CONTINUOUS
 62
     4
 10
105.8980903271681
 20
152.4906365228906
 30
0.0
 11
116.3980903271681
 21
152.4906365228906
 31
0.0
  0
LINE
  5
557
  8
0
  6
CONTINUOUS
 62
     4
 10
105.8980903271681
 20
150.9906365228906
 30
0.0
 11
116.3980903271681
 21
150.9906365228906
 31
0.0
  0
LINE
  5
558
  8
0
  6
CONTINUOUS
 62
     4
 10
105.8980903271681
 20
149.4906365228906
 30
0.0
 11
116.3980903271681
 21
149.4906365228906
 31
0.0
  0
LINE
  5
559
  8
0
  6
CONTINUOUS
 62
     4
 10
138.3980903271681
 20
155.4906365228906
 30
0.0
 11
148.8980903271681
 21
155.4906365228906
 31
0.0
  0
LINE
  5
55A
  8
0
  6
CONTINUOUS
 62
     4
 10
138.3980903271681
 20
153.9906365228906
 30
0.0
 11
148.8980903271681
 21
153.9906365228906
 31
0.0
  0
LINE
  5
55B
  8
0
  6
CONTINUOUS
 62
     4
 10
138.3980903271681
 20
152.4906365228906
 30
0.0
 11
148.8980903271681
 21
152.4906365228906
 31
0.0
  0
LINE
  5
55C
  8
0
  6
CONTINUOUS
 62
     4
 10
138.3980903271681
 20
150.9906365228906
 30
0.0
 11
148.8980903271681
 21
150.9906365228906
 31
0.0
  0
LINE
  5
55D
  8
0
  6
CONTINUOUS
 62
     4
 10
138.3980903271681
 20
149.4906365228906
 30
0.0
 11
148.8980903271681
 21
149.4906365228906
 31
0.0
  0
CIRCLE
  5
55E
  8
0
  6
CONTINUOUS
 62
     4
 10
127.3980903271681
 20
-26.50936729180666
 30
0.0
 40
3.150000095367432
  0
CIRCLE
  5
55F
  8
0
  6
CONTINUOUS
 62
     4
 10
127.3980903271681
 20
-26.50936729180666
 30
0.0
 40
4.0
  0
CIRCLE
  5
560
  8
0
  6
CONTINUOUS
 62
     4
 10
75.43657013216073
 20
63.49064415228514
 30
0.0
 40
4.0
  0
CIRCLE
  5
561
  8
0
  6
CONTINUOUS
 62
     4
 10
179.3596076611524
 20
63.4906365228906
 30
0.0
 40
4.0
  0
CIRCLE
  5
562
  8
0
  6
CONTINUOUS
 62
     4
 10
75.43657013216073
 20
63.49064415228514
 30
0.0
 40
3.150000095367432
  0
CIRCLE
  5
563
  8
0
  6
CONTINUOUS
 62
     4
 10
179.3596076611524
 20
63.4906365228906
 30
0.0
 40
3.150000095367432
  0
LINE
  5
564
  8
0
  6
CONTINUOUS
 62
     4
 10
105.8980903271681
 20
156.9906365228906
 30
0.0
 11
116.3980903271681
 21
156.9906365228906
 31
0.0
  0
LINE
  5
565
  8
0
  6
CONTINUOUS
 62
     4
 10
138.3980903271681
 20
156.9906365228906
 30
0.0
 11
148.8980903271681
 21
156.9906365228906
 31
0.0
  0
ARC
  5
566
  8
0
  6
CONTINUOUS
 62
     4
 10
127.398090232453
 20
33.49066490481577
 30
0.0
 40
70.0
 50
109.6159984422421
 51
190.3839825852617
  0
ARC
  5
567
  8
0
  6
CONTINUOUS
 62
     4
 10
127.398090232453
 20
33.49066490481577
 30
0.0
 40
94.0
 50
172.2018824109044
 51
195.522443180889
  0
ARC
  5
568
  8
0
  6
CONTINUOUS
 62
     4
 10
127.398090232453
 20
33.49066490481577
 30
0.0
 40
76.0
 50
172.1716656540163
 51
191.9882983986493
  0
ARC
  5
569
  8
0
  6
CONTINUOUS
 62
     4
 10
127.398090232453
 20
33.49066490481577
 30
0.0
 40
58.0
 50
153.9212635879588
 51
186.0980252207004
  0
ARC
  5
56A
  8
0
  6
CONTINUOUS
 62
     4
 10
127.398090232453
 20
33.49066490481577
 30
0.0
 40
64.0
 50
151.8298869848576
 51
188.4576916543997
  0
ARC
  5
56B
  8
0
  6
CONTINUOUS
 62
     4
 10
127.398090232453
 20
33.49066490481577
 30
0.0
 40
82.0
 50
174.2385355383755
 51
193.3463175905663
  0
ARC
  5
56C
  8
0
  6
CONTINUOUS
 62
     4
 10
127.398090232453
 20
33.49066490481577
 30
0.0
 40
88.0
 50
174.1209060204895
 51
194.5114249195654
  0
ARC
  5
56D
  8
0
  6
CONTINUOUS
 62
     4
 10
127.398090232453
 20
33.49066490481577
 30
0.0
 40
76.0
 50
108.0116757986654
 51
127.8283836753793
  0
ARC
  5
56E
  8
0
  6
CONTINUOUS
 62
     4
 10
127.398090232453
 20
33.49066490481577
 30
0.0
 40
82.0
 50
106.6536566067484
 51
125.7615137910201
  0
ARC
  5
56F
  8
0
  6
CONTINUOUS
 62
     4
 10
127.398090232453
 20
33.49066490481577
 30
0.0
 40
88.0
 50
105.4885492777493
 51
125.8791296485277
  0
ARC
  5
570
  8
0
  6
CONTINUOUS
 62
     4
 10
127.398090232453
 20
33.49066490481577
 30
0.0
 40
94.0
 50
104.4775310164257
 51
127.7981532581128
  0
ARC
  5
571
  8
0
  6
CONTINUOUS
 62
     4
 10
127.398090232453
 20
33.49066490481577
 30
0.0
 40
94.0
 50
142.2018610855108
 51
157.7981882438847
  0
ARC
  5
572
  8
0
  6
CONTINUOUS
 62
     4
 10
127.398090232453
 20
33.49066490481577
 30
0.0
 40
88.0
 50
144.1208710347176
 51
155.8791646342996
  0
ARC
  5
573
  8
0
  6
CONTINUOUS
 62
     4
 10
127.398090232453
 20
33.49066490481577
 30
0.0
 40
82.0
 50
144.2385005526036
 51
155.761548776792
  0
ARC
  5
574
  8
0
  6
CONTINUOUS
 62
     4
 10
127.398090232453
 20
33.49066490481577
 30
0.0
 40
76.0
 50
142.1716306682444
 51
157.8284186611512
  0
ARC
  5
575
  8
0
  6
CONTINUOUS
 62
     4
 10
127.398090232453
 20
33.49066490481577
 30
0.0
 40
94.0
 50
52.20183467537058
 51
75.52248765290901
  0
ARC
  5
576
  8
0
  6
CONTINUOUS
 62
     4
 10
127.398090232453
 20
33.49066490481577
 30
0.0
 40
88.0
 50
54.12085828495569
 51
74.51146939158539
  0
ARC
  5
577
  8
0
  6
CONTINUOUS
 62
     4
 10
127.398090232453
 20
33.49066490481577
 30
0.0
 40
82.0
 50
54.23848097265248
 51
73.34636206258629
  0
ARC
  5
578
  8
0
  6
CONTINUOUS
 62
     4
 10
127.398090232453
 20
33.49066490481577
 30
0.0
 40
76.0
 50
52.17161450338786
 51
71.98834287066933
  0
ARC
  5
579
  8
0
  6
CONTINUOUS
 62
     4
 10
127.398090232453
 20
33.49066490481577
 30
0.0
 40
70.0
 50
349.6159968104852
 51
430.3840202270927
  0
ARC
  5
57A
  8
0
  6
CONTINUOUS
 62
     4
 10
127.398090232453
 20
33.49066490481577
 30
0.0
 40
64.0
 50
32.17201123617388
 51
68.45772929623053
  0
ARC
  5
57B
  8
0
  6
CONTINUOUS
 62
     4
 10
127.398090232453
 20
33.49066490481577
 30
0.0
 40
58.0
 50
34.33012903274987
 51
66.09806969272037
  0
ARC
  5
57C
  8
0
  6
CONTINUOUS
 62
     4
 10
127.398090232453
 20
33.49066490481577
 30
0.0
 40
88.0
 50
24.12086769541339
 51
35.87912031386038
  0
ARC
  5
57D
  8
0
  6
CONTINUOUS
 62
     4
 10
127.398090232453
 20
33.49066490481577
 30
0.0
 40
70.0
 50
229.6159507824987
 51
310.384044208545
  0
ARC
  5
57E
  8
0
  6
CONTINUOUS
 62
     4
 10
127.398090232453
 20
33.49066490481577
 30
0.0
 40
58.0
 50
233.9019218074384
 51
265.5480187228051
  0
ARC
  5
57F
  8
0
  6
CONTINUOUS
 62
     4
 10
127.398090232453
 20
33.49066490481577
 30
0.0
 40
64.0
 50
231.542255373739
 51
267.2258888433645
  0
ARC
  5
580
  8
0
  6
CONTINUOUS
 62
     4
 10
127.398090232453
 20
33.49066490481577
 30
0.0
 40
76.0
 50
228.011634969111
 51
247.8283360156358
  0
ARC
  5
581
  8
0
  6
CONTINUOUS
 62
     4
 10
127.398090232453
 20
33.49066490481577
 30
0.0
 40
94.0
 50
224.4774901868714
 51
247.7981124285585
  0
ARC
  5
582
  8
0
  6
CONTINUOUS
 62
     4
 10
127.398090232453
 20
33.49066490481577
 30
0.0
 40
88.0
 50
225.488508448195
 51
245.8790888189734
  0
ARC
  5
583
  8
0
  6
CONTINUOUS
 62
     4
 10
127.398090232453
 20
33.49066490481577
 30
0.0
 40
82.0
 50
226.6536157771941
 51
245.7614661312765
  0
ARC
  5
584
  8
0
  6
CONTINUOUS
 62
     4
 10
127.398090232453
 20
33.49066490481577
 30
0.0
 40
76.0
 50
292.1716179942728
 51
311.988356606838
  0
ARC
  5
585
  8
0
  6
CONTINUOUS
 62
     4
 10
127.398090232453
 20
33.49066490481577
 30
0.0
 40
82.0
 50
294.2384810484429
 51
313.3463792138496
  0
ARC
  5
586
  8
0
  6
CONTINUOUS
 62
     4
 10
127.398090232453
 20
33.49066490481577
 30
0.0
 40
88.0
 50
294.1208651909352
 51
314.5114831277541
  0
ARC
  5
587
  8
0
  6
CONTINUOUS
 62
     4
 10
127.398090232453
 20
33.49066490481577
 30
0.0
 40
94.0
 50
292.2018415813501
 51
315.5224979739833
  0
ARC
  5
588
  8
0
  6
CONTINUOUS
 62
     4
 10
127.398090232453
 20
33.49066490481577
 30
0.0
 40
76.0
 50
348.0116707518138
 51
367.8283786285278
  0
ARC
  5
589
  8
0
  6
CONTINUOUS
 62
     4
 10
127.398090232453
 20
33.49066490481577
 30
0.0
 40
64.0
 50
351.5422851800263
 51
387.7410062668508
  0
ARC
  5
58A
  8
0
  6
CONTINUOUS
 62
     4
 10
127.398090232453
 20
33.49066490481577
 30
0.0
 40
58.0
 50
353.9019516137256
 51
385.5639756764631
  0
ARC
  5
58B
  8
0
  6
CONTINUOUS
 62
     4
 10
127.398090232453
 20
33.49066490481577
 30
0.0
 40
82.0
 50
346.6536472910287
 51
365.7615049021872
  0
ARC
  5
58C
  8
0
  6
CONTINUOUS
 62
     4
 10
127.398090232453
 20
33.49066490481577
 30
0.0
 40
88.0
 50
345.4885391082559
 51
365.879127589884
  0
ARC
  5
58D
  8
0
  6
CONTINUOUS
 62
     4
 10
127.398090232453
 20
33.49066490481577
 30
0.0
 40
94.0
 50
344.4775208469322
 51
367.7981456499404
  0
ARC
  5
58E
  8
0
  6
CONTINUOUS
 62
     4
 10
127.398090232453
 20
33.49066490481577
 30
0.0
 40
76.0
 50
22.17161537610908
 51
37.82836068033363
  0
ARC
  5
58F
  8
0
  6
CONTINUOUS
 62
     4
 10
127.398090232453
 20
33.49066490481577
 30
0.0
 40
94.0
 50
22.20185091601745
 51
37.79814050835092
  0
ARC
  5
590
  8
0
  6
CONTINUOUS
 62
     4
 10
127.398090232453
 20
33.49066490481577
 30
0.0
 40
82.0
 50
24.23848867556289
 51
35.76149079597442
  0
ARC
  5
591
  8
0
  6
CONTINUOUS
 62
     4
 10
127.398090232453
 20
33.49066490481577
 30
0.0
 40
64.0
 50
111.5422893731042
 51
148.2172496686761
  0
ARC
  5
592
  8
0
  6
CONTINUOUS
 62
     4
 10
127.398090232453
 20
33.49066490481577
 30
0.0
 40
58.0
 50
113.9019489766143
 51
146.058745966412
  0
ARC
  5
593
  8
0
  6
CONTINUOUS
 62
     4
 10
127.398090232453
 20
33.49066490481577
 30
0.0
 40
64.0
 50
272.7740924873008
 51
308.4577601078723
  0
ARC
  5
594
  8
0
  6
CONTINUOUS
 62
     4
 10
127.398090232453
 20
33.49066490481577
 30
0.0
 40
58.0
 50
274.4519626078603
 51
306.0980936741728
  0
ARC
  5
595
  8
0
  6
CONTINUOUS
 62
     4
 10
127.398090232453
 20
33.49066490481577
 30
0.0
 40
76.0
 50
262.1715830085009
 51
277.8283641712186
  0
ARC
  5
596
  8
0
  6
CONTINUOUS
 62
     4
 10
127.398090232453
 20
33.49066490481577
 30
0.0
 40
82.0
 50
264.2384528928601
 51
275.7615011170485
  0
ARC
  5
597
  8
0
  6
CONTINUOUS
 62
     4
 10
127.398090232453
 20
33.49066490481577
 30
0.0
 40
88.0
 50
264.1208302051633
 51
275.8791238047454
  0
ARC
  5
598
  8
0
  6
CONTINUOUS
 62
     4
 10
127.398090232453
 20
33.49066490481577
 30
0.0
 40
94.0
 50
262.2018065955782
 51
277.7981405841413
  0
TEXT
  5
599
  8
0
 62
     7
 10
-166.0166041091954
 20
-30.49628935407759
 30
0.0
 40
4.0
  1
MIN 49.5
 41
0.6571428571428566
  7
FDASTYLE1
 72
     5
 11
-144.988032680624
 21
-30.49628935407759
 31
0.0
  0
TEXT
  5
59A
  8
0
 62
     7
 10
-181.8899248099389
 20
168.8534649134423
 30
0.0
 40
4.0
  1
MIN20.5
 41
0.6367346938775508
  7
FDASTYLE1
 72
     5
 11
-164.0613533813675
 21
168.8534649134423
 31
0.0
  0
TEXT
  5
59B
  8
0
 62
     7
 10
-29.93200198778587
 20
47.19924519740027
 30
0.0
 40
4.0
  1
MIN 50.9
 50
90.0
 41
0.6523809523809527
  7
FDASTYLE1
 72
     5
 11
-29.93200198778587
 21
68.07543567359076
 31
0.0
  0
TEXT
  5
59C
  8
0
 62
     7
 10
-232.7615574278057
 20
-56.83971714161354
 30
0.0
 40
4.0
  1
7゜7′30″
 50
90.0
 41
0.6011080332409972
  7
FDASTYLE1
 72
     5
 11
-232.7615574278057
 21
-38.56603293108723
 31
0.0
  0
LINE
  5
59D
  8
LAYER0014
  6
CONTINUOUS
 62
     7
 10
-77.60191518467852
 20
14.56282203924803
 30
0.0
 11
-64.24302846592852
 21
14.56282203924803
 31
0.0
  0
LINE
  5
59E
  8
LAYER0014
  6
CONTINUOUS
 62
     7
 10
-77.60191518467852
 20
173.4299389673486
 30
0.0
 11
-70.83732778233477
 21
173.4299389673486
 31
0.0
  0
INSERT
  5
59F
  8
LAYER0014
  6
CONTINUOUS
  2
DC_GROUP_1
 10
0.0
 20
0.0
 30
0.0
  0
INSERT
  5
5A0
  8
LAYER0014
  6
CONTINUOUS
  2
DC_GROUP_4
 10
0.0
 20
0.0
 30
0.0
  0
INSERT
  5
5A1
  8
LAYER0014
  6
CONTINUOUS
  2
DC_GROUP_7
 10
0.0
 20
0.0
 30
0.0
  0
INSERT
  5
5A2
  8
LAYER0014
  6
CONTINUOUS
  2
DC_GROUP_10
 10
0.0
 20
0.0
 30
0.0
  0
INSERT
  5
5A3
  8
LAYER0014
  6
CONTINUOUS
  2
DC_GROUP_13
 10
0.0
 20
0.0
 30
0.0
  0
INSERT
  5
5A4
  8
LAYER0014
  6
CONTINUOUS
  2
DC_GROUP_16
 10
0.0
 20
0.0
 30
0.0
  0
INSERT
  5
5A5
  8
LAYER0014
  6
CONTINUOUS
  2
DC_GROUP_19
 10
0.0
 20
0.0
 30
0.0
  0
INSERT
  5
5A6
  8
LAYER0014
  6
CONTINUOUS
  2
DC_GROUP_22
 10
0.0
 20
0.0
 30
0.0
  0
INSERT
  5
5A7
  8
LAYER0014
  6
CONTINUOUS
  2
DC_GROUP_25
 10
0.0
 20
0.0
 30
0.0
  0
INSERT
  5
5A8
  8
LAYER0014
  6
CONTINUOUS
  2
DC_GROUP_28
 10
0.0
 20
0.0
 30
0.0
  0
INSERT
  5
5A9
  8
LAYER0014
  6
CONTINUOUS
  2
DC_GROUP_31
 10
0.0
 20
0.0
 30
0.0
  0
INSERT
  5
5AA
  8
LAYER0014
  6
CONTINUOUS
  2
DC_GROUP_34
 10
0.0
 20
0.0
 30
0.0
  0
INSERT
  5
5AB
  8
LAYER0014
  6
CONTINUOUS
  2
DC_GROUP_37
 10
0.0
 20
0.0
 30
0.0
  0
INSERT
  5
5AC
  8
LAYER0014
  6
CONTINUOUS
  2
DC_GROUP_40
 10
0.0
 20
0.0
 30
0.0
  0
INSERT
  5
5AD
  8
LAYER0014
  6
CONTINUOUS
  2
DC_GROUP_43
 10
0.0
 20
0.0
 30
0.0
  0
INSERT
  5
5AE
  8
LAYER0014
  6
CONTINUOUS
  2
DC_GROUP_45
 10
0.0
 20
0.0
 30
0.0
  0
INSERT
  5
5AF
  8
LAYER0014
  6
CONTINUOUS
  2
DC_GROUP_47
 10
0.0
 20
0.0
 30
0.0
  0
INSERT
  5
5B0
  8
LAYER0014
  6
CONTINUOUS
  2
DC_GROUP_51
 10
0.0
 20
0.0
 30
0.0
  0
INSERT
  5
5B1
  8
LAYER0014
  6
CONTINUOUS
  2
DC_GROUP_54
 10
0.0
 20
0.0
 30
0.0
  0
INSERT
  5
5B2
  8
LAYER0014
  6
CONTINUOUS
  2
DC_GROUP_57
 10
0.0
 20
0.0
 30
0.0
  0
INSERT
  5
5B3
  8
LAYER0014
  6
CONTINUOUS
  2
DC_GROUP_60
 10
0.0
 20
0.0
 30
0.0
  0
INSERT
  5
5B4
  8
LAYER0014
  6
CONTINUOUS
  2
DC_GROUP_63
 10
0.0
 20
0.0
 30
0.0
  0
INSERT
  5
5B5
  8
LAYER0014
  6
CONTINUOUS
  2
DC_GROUP_65
 10
0.0
 20
0.0
 30
0.0
  0
INSERT
  5
5B6
  8
LAYER0014
  6
CONTINUOUS
  2
DC_GROUP_67
 10
0.0
 20
0.0
 30
0.0
  0
INSERT
  5
5B7
  8
LAYER0014
  6
CONTINUOUS
  2
DC_GROUP_69
 10
0.0
 20
0.0
 30
0.0
  0
INSERT
  5
5B8
  8
LAYER0014
  6
CONTINUOUS
  2
DC_GROUP_72
 10
0.0
 20
0.0
 30
0.0
  0
INSERT
  5
5B9
  8
LAYER0014
  6
CONTINUOUS
  2
DC_GROUP_75
 10
0.0
 20
0.0
 30
0.0
  0
INSERT
  5
5BA
  8
LAYER0014
  6
CONTINUOUS
  2
DC_GROUP_78
 10
0.0
 20
0.0
 30
0.0
  0
INSERT
  5
5BB
  8
LAYER0014
  6
CONTINUOUS
  2
DC_GROUP_81
 10
0.0
 20
0.0
 30
0.0
  0
INSERT
  5
5BC
  8
LAYER0014
  6
CONTINUOUS
  2
DC_GROUP_84
 10
0.0
 20
0.0
 30
0.0
  0
INSERT
  5
5BD
  8
LAYER0014
  6
CONTINUOUS
  2
DC_GROUP_86
 10
0.0
 20
0.0
 30
0.0
  0
INSERT
  5
5BE
  8
LAYER0014
  6
CONTINUOUS
  2
DC_GROUP_89
 10
0.0
 20
0.0
 30
0.0
  0
INSERT
  5
5BF
  8
LAYER0014
  6
CONTINUOUS
  2
DC_GROUP_92
 10
0.0
 20
0.0
 30
0.0
  0
INSERT
  5
5C0
  8
0
  6
CONTINUOUS
  2
DC_GROUP_95
 10
0.0
 20
0.0
 30
0.0
  0
INSERT
  5
5C1
  8
0
  6
CONTINUOUS
  2
DC_GROUP_98
 10
0.0
 20
0.0
 30
0.0
  0
INSERT
  5
5C2
  8
0
  6
CONTINUOUS
  2
DC_GROUP_100
 10
0.0
 20
0.0
 30
0.0
  0
INSERT
  5
5C3
  8
0
  6
CONTINUOUS
  2
DC_GROUP_103
 10
0.0
 20
0.0
 30
0.0
  0
INSERT
  5
5C4
  8
0
  6
CONTINUOUS
  2
DC_GROUP_106
 10
0.0
 20
0.0
 30
0.0
  0
INSERT
  5
5C5
  8
0
  6
CONTINUOUS
  2
DC_GROUP_109
 10
0.0
 20
0.0
 30
0.0
  0
INSERT
  5
5C6
  8
0
  6
CONTINUOUS
  2
DC_GROUP_111
 10
0.0
 20
0.0
 30
0.0
  0
INSERT
  5
5C7
  8
0
  6
CONTINUOUS
  2
DC_GROUP_114
 10
0.0
 20
0.0
 30
0.0
  0
LINE
  5
5C8
  8
0
  6
CONTINUOUS
 62
     2
 10
210.6664467095824
 20
-14.5843419453492
 30
0.0
 11
215.732710262032
 21
-11.65934030921398
 31
0.0
  0
LINE
  5
5C9
  8
0
  6
CONTINUOUS
 62
     2
 10
215.7326967793314
 20
-11.65931461468308
 30
0.0
 11
220.7989464020893
 21
-14.58432498887914
 31
0.0
  0
LINE
  5
5CA
  8
0
  6
CONTINUOUS
 62
     2
 10
220.7989387158399
 20
-14.58435661065432
 30
0.0
 11
220.7989387158399
 21
-20.43435508477541
 31
0.0
  0
LINE
  5
5CB
  8
0
  6
CONTINUOUS
 62
     2
 10
220.7989510502834
 20
-20.43434772677046
 30
0.0
 11
215.7326874978339
 21
-23.35934936290568
 31
0.0
  0
LINE
  5
5CC
  8
0
  6
CONTINUOUS
 62
     2
 10
215.7326804937688
 20
-23.35936146693184
 30
0.0
 11
210.6664291275733
 21
-20.4343542309236
 31
0.0
  0
LINE
  5
5CD
  8
0
  6
CONTINUOUS
 62
     2
 10
210.6664313916212
 20
-20.43434364068362
 30
0.0
 11
210.6664313916212
 21
-14.58434516656252
 31
0.0
  0
LINE
  5
5CE
  8
0
  6
CONTINUOUS
 62
     2
 10
184.6856829348225
 20
0.4156535409650175
 30
0.0
 11
189.7519398800186
 21
3.340651362409794
 31
0.0
  0
LINE
  5
5CF
  8
0
  6
CONTINUOUS
 62
     2
 10
189.751946916026
 20
3.340675663366078
 30
0.0
 11
194.8181965387839
 21
0.4156652891700148
 31
0.0
  0
LINE
  5
5D0
  8
0
  6
CONTINUOUS
 62
     2
 10
194.8181800488478
 20
0.4156452966943149
 30
0.0
 11
194.8181800488478
 21
-5.434353177426779
 31
0.0
  0
LINE
  5
5D1
  8
0
  6
CONTINUOUS
 62
     2
 10
194.81818066827
 20
-5.434356055146687
 30
0.0
 11
189.751923723074
 21
-8.359353876591463
 31
0.0
  0
LINE
  5
5D2
  8
0
  6
CONTINUOUS
 62
     2
 10
189.7519180120602
 20
-8.35936313462134
 30
0.0
 11
184.6856732531109
 21
-5.434359713315821
 31
0.0
  0
LINE
  5
5D3
  8
0
  6
CONTINUOUS
 62
     2
 10
184.685672724629
 20
-5.434343640683615
 30
0.0
 11
184.685672724629
 21
0.415654833437479
 31
0.0
  0
LINE
  5
5D4
  8
0
  6
CONTINUOUS
 62
     2
 10
59.97801470328987
 20
0.4156408602985877
 30
0.0
 11
65.04427247439263
 21
3.34063915857967
 31
0.0
  0
LINE
  5
5D5
  8
0
  6
CONTINUOUS
 62
     2
 10
65.04427242363454
 20
3.340638050257505
 30
0.0
 11
70.11051556819619
 21
0.415631416262265
 31
0.0
  0
LINE
  5
5D6
  8
0
  6
CONTINUOUS
 62
     2
 10
70.11051055231148
 20
0.4156338526025181
 30
0.0
 11
70.11051055231148
 21
-5.434364621518576
 31
0.0
  0
LINE
  5
5D7
  8
0
  6
CONTINUOUS
 62
     2
 10
70.11051195990108
 20
-5.434367909906435
 30
0.0
 11
65.04426162195846
 21
-8.359361916660767
 31
0.0
  0
LINE
  5
5D8
  8
0
  6
CONTINUOUS
 62
     2
 10
65.04425699244932
 20
-8.359354373142487
 30
0.0
 11
59.97801324007266
 21
-5.434351532983087
 31
0.0
  0
LINE
  5
5D9
  8
0
  6
CONTINUOUS
 62
     2
 10
59.97801109590584
 20
-5.434355084775412
 30
0.0
 11
59.97801109590584
 21
0.4156433893456821
 31
0.0
  0
LINE
  5
5DA
  8
0
  6
CONTINUOUS
 62
     2
 10
33.99725091883015
 20
-14.5843583975547
 30
0.0
 11
39.06350786402622
 21
-11.65936057610993
 31
0.0
  0
LINE
  5
5DB
  8
0
  6
CONTINUOUS
 62
     2
 10
39.06350183378486
 20
-11.65937621380869
 30
0.0
 11
44.12974484929877
 21
-14.58438277329794
 31
0.0
  0
LINE
  5
5DC
  8
0
  6
CONTINUOUS
 62
     2
 10
44.12974735536629
 20
-14.58436805474612
 30
0.0
 11
44.12974735536629
 21
-20.43436652886721
 31
0.0
  0
LINE
  5
5DD
  8
0
  6
CONTINUOUS
 62
     2
 10
44.1297420450242
 20
-20.43437180835685
 30
0.0
 11
39.06349170708158
 21
-23.35936581511118
 31
0.0
  0
LINE
  5
5DE
  8
0
  6
CONTINUOUS
 62
     2
 10
39.06349806990367
 20
-23.3593526608699
 30
0.0
 11
33.99725331095435
 21
-20.43434923956438
 31
0.0
  0
LINE
  5
5DF
  8
0
  6
CONTINUOUS
 62
     2
 10
33.99724956789071
 20
-20.43435508477541
 30
0.0
 11
33.99724956789071
 21
-14.58435661065432
 31
0.0
  0
LINE
  5
5E0
  8
0
  6
CONTINUOUS
 62
     2
 10
122.3318429858122
 20
138.4156333953195
 30
0.0
 11
127.3980999310083
 21
141.3406312167643
 31
0.0
  0
LINE
  5
5E1
  8
0
  6
CONTINUOUS
 62
     2
 10
127.3981284642538
 20
141.3406937545597
 30
0.0
 11
132.4643723056732
 21
138.4156867182321
 31
0.0
  0
LINE
  5
5E2
  8
0
  6
CONTINUOUS
 62
     2
 10
132.4643363598829
 20
138.4156243158594
 30
0.0
 11
132.4643363598829
 21
132.5656334711328
 31
0.0
  0
LINE
  5
5E3
  8
0
  6
CONTINUOUS
 62
     2
 10
132.4643369045693
 20
132.5656304064613
 30
0.0
 11
127.3980799593732
 21
129.6406325850165
 31
0.0
  0
LINE
  5
5E4
  8
0
  6
CONTINUOUS
 62
     2
 10
127.3980699083181
 20
129.6406103260452
 30
0.0
 11
122.331824323463
 21
132.5656142241886
 31
0.0
  0
LINE
  5
5E5
  8
0
  6
CONTINUOUS
 62
     2
 10
122.3318442944532
 20
132.5656411005273
 30
0.0
 11
122.3318442944532
 21
138.4156395746484
 31
0.0
  0
LINE
  5
5E6
  8
0
  6
CONTINUOUS
 62
     2
 10
122.3318423715102
 20
108.4156416057083
 30
0.0
 11
127.3980993167062
 21
111.3406394271531
 31
0.0
  0
LINE
  5
5E7
  8
0
  6
CONTINUOUS
 62
     2
 10
127.3981197312103
 20
111.3406514541137
 30
0.0
 11
132.4643628757719
 21
108.4156448201185
 31
0.0
  0
LINE
  5
5E8
  8
0
  6
CONTINUOUS
 62
     2
 10
132.4643363598829
 20
108.4156319452539
 30
0.0
 11
132.4643363598829
 21
102.5656334711328
 31
0.0
  0
LINE
  5
5E9
  8
0
  6
CONTINUOUS
 62
     2
 10
132.4643354050494
 20
102.5656248912795
 30
0.0
 11
127.3980784598534
 21
99.64062706983469
 31
0.0
  0
LINE
  5
5EA
  8
0
  6
CONTINUOUS
 62
     2
 10
127.3980820505621
 20
99.64062857231119
 30
0.0
 11
122.3318366463739
 21
102.5656323661463
 31
0.0
  0
LINE
  5
5EB
  8
0
  6
CONTINUOUS
 62
     2
 10
122.3318442944532
 20
102.5656411005273
 30
0.0
 11
122.3318442944532
 21
108.4156395746484
 31
0.0
  0
CIRCLE
  5
5EC
  8
0
  6
CONTINUOUS
 62
     2
 10
215.7326850537306
 20
-17.50934821832033
 30
0.0
 40
9.0
  0
CIRCLE
  5
5ED
  8
0
  6
CONTINUOUS
 62
     2
 10
189.7519263867384
 20
-2.509348218320334
 30
0.0
 40
9.0
  0
CIRCLE
  5
5EE
  8
0
  6
CONTINUOUS
 62
     2
 10
65.04426094331795
 20
-2.50935966241213
 30
0.0
 40
9.0
  0
CIRCLE
  5
5EF
  8
0
  6
CONTINUOUS
 62
     2
 10
39.06349750795418
 20
-17.50935966241213
 30
0.0
 40
9.0
  0
CIRCLE
  5
5F0
  8
0
  6
CONTINUOUS
 62
     2
 10
127.3980903271681
 20
135.4906365228906
 30
0.0
 40
9.0
  0
CIRCLE
  5
5F1
  8
0
  6
CONTINUOUS
 62
     2
 10
127.3980903271681
 20
105.4906365228906
 30
0.0
 40
9.0
  0
LINE
  5
5F2
  8
0
  6
CONTINUOUS
 62
     2
 10
98.15916048391787
 20
-53.36415916134634
 30
0.0
 11
98.15916048391787
 21
-45.2141614501647
 31
0.0
  0
LINE
  5
5F3
  8
0
  6
CONTINUOUS
 62
     2
 10
98.15916389657551
 20
-45.2141598204902
 30
0.0
 11
105.2172806337229
 21
-41.13916420292753
 31
0.0
  0
LINE
  5
5F4
  8
0
  6
CONTINUOUS
 62
     2
 10
105.2172537938979
 20
-57.43915707130824
 30
0.0
 11
98.15915886960025
 21
-53.36415620108752
 31
0.0
  0
CIRCLE
  5
5F5
  8
0
  6
CONTINUOUS
 62
     2
 10
105.2172697673651
 20
-49.28916602780142
 30
0.0
 40
12.0
  0
CIRCLE
  5
5F6
  8
0
  6
CONTINUOUS
 62
     2
 10
105.2172697673651
 20
-49.28916602780142
 30
0.0
 40
11.0
  0
LINE
  5
5F7
  8
0
  6
CONTINUOUS
 62
     2
 10
105.2172859121814
 20
-41.13916848804839
 30
0.0
 11
112.2753850148366
 21
-45.21417803074902
 31
0.0
  0
LINE
  5
5F8
  8
0
  6
CONTINUOUS
 62
     2
 10
112.2753671681473
 20
-53.36417318971157
 30
0.0
 11
105.21725786416
 21
-57.43916475863662
 31
0.0
  0
LINE
  5
5F9
  8
0
  6
CONTINUOUS
 62
     2
 10
112.2753790508124
 20
-45.21417670895377
 30
0.0
 11
112.2753790508124
 21
-53.36417442013541
 31
0.0
  0
LINE
  5
5FA
  8
0
  6
CONTINUOUS
 62
     5
 10
215.0463171170581
 20
100.6401885254603
 30
0.0
 11
211.2963171170581
 21
107.1353789372664
 31
0.0
  0
LINE
  5
5FB
  8
0
  6
CONTINUOUS
 62
     5
 10
208.9261265860427
 20
96.24066969075616
 30
0.0
 11
211.1761265860427
 21
92.3435554436725
 31
0.0
  0
LINE
  5
5FC
  8
0
  6
CONTINUOUS
 62
     5
 10
211.1760978299635
 20
92.34356744237931
 30
0.0
 11
210.1515776863634
 21
92.61808678978724
 31
0.0
  0
LINE
  5
5FD
  8
0
  6
CONTINUOUS
 62
     5
 10
211.1761696264593
 20
92.34354083103864
 30
0.0
 11
211.4506908536686
 21
93.3680684072886
 31
0.0
  0
LINE
  5
5FE
  8
0
  6
CONTINUOUS
 62
     5
 10
208.6516401417234
 20
95.21614097704361
 30
0.0
 11
208.9261613689327
 21
96.24066855329357
 31
0.0
  0
LINE
  5
5FF
  8
0
  6
CONTINUOUS
 62
     5
 10
209.9506155849871
 20
95.96616656799534
 30
0.0
 11
208.9261028108162
 21
96.24068394077068
 31
0.0
  0
LINE
  5
600
  8
0
  6
CONTINUOUS
 62
     5
 10
202.0559079570998
 20
93.14017657029586
 30
0.0
 11
215.046288780712
 21
100.6401765702959
 31
0.0
  0
LINE
  5
601
  8
0
  6
CONTINUOUS
 62
     5
 10
202.0559230789472
 20
93.14018089606572
 30
0.0
 11
196.4309211715985
 21
102.8829698173996
 31
0.0
  0
LINE
  5
602
  8
0
  6
CONTINUOUS
 62
     5
 10
196.4309211715985
 20
102.8829698173996
 30
0.0
 11
198.3794782951404
 21
104.0079698173996
 31
0.0
  0
LINE
  5
603
  8
0
  6
CONTINUOUS
 62
     5
 10
202.9764851142108
 20
105.045763193682
 30
0.0
 11
203.2510063414201
 21
106.070290769932
 31
0.0
  0
LINE
  5
604
  8
0
  6
CONTINUOUS
 62
     5
 10
203.2509696420056
 20
106.0703245556222
 30
0.0
 11
202.2264494984055
 21
106.3448439030302
 31
0.0
  0
LINE
  5
605
  8
0
  6
CONTINUOUS
 62
     5
 10
200.6878588310341
 20
104.5904563886066
 30
0.0
 11
203.2509694321383
 21
106.0702690106769
 31
0.0
  0
LINE
  5
606
  8
0
  6
CONTINUOUS
 62
     5
 10
198.941980202489
 20
103.033687952004
 30
0.0
 11
198.3794821098376
 21
104.0079632101502
 31
0.0
  0
LINE
  5
607
  8
0
  6
CONTINUOUS
 62
     5
 10
198.9419669879903
 20
103.0336803226094
 30
0.0
 11
200.2410050703515
 21
103.7836803226094
 31
0.0
  0
LINE
  5
608
  8
0
  6
CONTINUOUS
 62
     5
 10
200.8035182848502
 20
102.809409390233
 30
0.0
 11
200.2410182848502
 21
103.783687952004
 31
0.0
  0
LINE
  5
609
  8
0
  6
CONTINUOUS
 62
     5
 10
202.8525563672114
 20
102.2603713078718
 30
0.0
 11
202.1025563672114
 21
103.559409390233
 31
0.0
  0
LINE
  5
60A
  8
0
  6
CONTINUOUS
 62
     5
 10
200.8035031630029
 20
102.8094050644632
 30
0.0
 11
202.1025544598628
 21
103.5594126938577
 31
0.0
  0
LINE
  5
60B
  8
0
  6
CONTINUOUS
 62
     5
 10
198.3059230789472
 20
99.63537130787182
 30
0.0
 11
211.2962906880607
 21
107.1353636784773
 31
0.0
  0
LINE
  5
60C
  8
0
  6
CONTINUOUS
 62
     5
 10
207.4120616212597
 20
102.6146621715524
 30
0.0
 11
206.6453508904809
 21
101.9937921942255
 31
0.0
  0
LINE
  5
60D
  8
0
  6
CONTINUOUS
 62
     5
 10
207.4120809810235
 20
102.6146621870872
 30
0.0
 11
206.7912198885891
 21
103.3813616830959
 31
0.0
  0
ARC
  5
60E
  8
0
  6
CONTINUOUS
 62
     5
 10
206.7326697949415
 20
100.0790840936914
 30
0.0
 40
2.625001907348633
 50
75.0001079549973
 51
369.9999533779451
  0
TEXT
  5
60F
  8
0
 62
     5
 10
241.0777222095476
 20
68.19173214376843
 30
0.0
 40
3.0
  1
N MAX 4200 AT ΣS MAX
 50
120.0
 41
0.6314312920704749
  7
FDASTYLE1
 72
     5
 11
221.9453540598122
 21
101.3299658482227
 31
0.0
  0
TEXT
  5
610
  8
0
 62
     5
 10
236.7524856506334
 20
65.68326701832584
 30
0.0
 40
3.0
  1
ΣS MAX 112KN
 50
120.0
 41
0.6372350526477353
  7
FDASTYLE1
 72
     5
 11
225.0910841871798
 21
85.88140684048545
 31
0.0
  0
TEXT
  5
611
  8
0
 62
     5
 10
232.4735813318239
 20
63.09454828429621
 30
0.0
 40
3.0
  1
F MAX  30KN
 50
120.0
 41
0.7975125648835189
  7
FDASTYLE1
 72
     5
 11
219.3146240112459
 21
85.88653093816784
 31
0.0
  0
TEXT
  5
612
  8
0
 62
     5
 10
202.5373690901743
 20
107.4514165311991
 30
0.0
 40
3.0
  1
ΣS
 50
120.0
 41
0.7438016676705721
  7
FDASTYLE1
 72
     5
 11
200.0828235868614
 21
111.7028140524268
 31
0.0
  0
TEXT
  5
613
  8
0
 62
     5
 10
209.2264950452791
 20
92.46063922056399
 30
0.0
 40
3.0
  1
F
 50
120.0
 41
0.5442179498218331
  7
FDASTYLE1
 72
     5
 11
208.4101681205464
 21
93.87455892978757
 31
0.0
  0
TEXT
  5
614
  8
0
 62
     5
 10
211.8250888167368
 20
102.9979326461253
 30
0.0
 40
3.0
  1
N min
 50
120.0
 41
0.6995392973106746
  7
FDASTYLE1
 72
     5
 11
206.5785440869068
 21
112.0852146823737
 31
0.0
  0
TEXT
  5
615
  8
0
 62
     5
 10
202.2139583479305
 20
115.3756678552622
 30
0.0
 40
1.5
  1
-1
 50
120.0
 41
0.6149069680437264
  7
FDASTYLE1
 72
     5
 11
201.2915978958649
 21
116.973243021132
 31
0.0
  0
TEXT
  5
616
  8
0
 62
     5
 10
98.91237434186989
 20
-74.3093665288672
 30
0.0
 40
5.0
  1
NIKKO
 41
0.6358806103208201
  7
FDASTYLE1
 72
     5
 11
114.8093895998904
 21
-74.3093665288672
 31
0.0
  0
TEXT
  5
617
  8
0
 62
     5
 10
134.2695135716444
 20
-73.8093665288672
 30
0.0
 40
4.0
  1
HDM3-250A8
 41
0.7506495903610599
  7
FDASTYLE1
 72
     5
 11
164.2954971860868
 21
-73.8093665288672
 31
0.0
  0
TEXT
  5
618
  8
0
 62
     5
 10
134.6266567353254
 20
-80.3093665288672
 30
0.0
 40
3.0
  1
0001
 41
0.6190477764350794
  7
FDASTYLE1
 72
     5
 11
142.0552300525464
 21
-80.3093665288672
 31
0.0
  0
LINE
  5
619
  8
0
  6
CONTINUOUS
 62
     6
 10
-67.04671966330452
 20
-144.679345779312
 30
0.0
 11
89.75329869492609
 21
-144.679345779312
 31
0.0
  0
LINE
  5
61A
  8
0
  6
CONTINUOUS
 62
     6
 10
-67.04671966330452
 20
-137.6695587145012
 30
0.0
 11
89.75329869492609
 21
-137.6695587145012
 31
0.0
  0
LINE
  5
61B
  8
0
  6
CONTINUOUS
 62
     6
 10
-67.04671966330452
 20
-130.6695587145012
 30
0.0
 11
89.75329869492609
 21
-130.6695587145012
 31
0.0
  0
LINE
  5
61C
  8
0
  6
CONTINUOUS
 62
     6
 10
-67.04671966330452
 20
-123.6695587145012
 30
0.0
 11
-27.5727908302967
 21
-123.6695587145012
 31
0.0
  0
LINE
  5
61D
  8
0
  6
CONTINUOUS
 62
     6
 10
-67.04671966330452
 20
-151.6471258293006
 30
0.0
 11
89.75329869492609
 21
-151.6471258293006
 31
0.0
  0
LINE
  5
61E
  8
0
  6
CONTINUOUS
 62
     6
 10
-67.04671966330452
 20
-158.6471258293006
 30
0.0
 11
89.75329869492609
 21
-158.6471258293006
 31
0.0
  0
LINE
  5
61F
  8
0
  6
CONTINUOUS
 62
     6
 10
-67.04671966330452
 20
-165.6471258293006
 30
0.0
 11
89.75329869492609
 21
-165.6471258293006
 31
0.0
  0
LINE
  5
620
  8
0
  6
CONTINUOUS
 62
     6
 10
-67.04671966330452
 20
-179.6471258293006
 30
0.0
 11
89.75329869492609
 21
-179.6471258293006
 31
0.0
  0
LINE
  5
621
  8
0
  6
CONTINUOUS
 62
     6
 10
-67.04671966330452
 20
-172.6471258293006
 30
0.0
 11
89.75329869492609
 21
-172.6471258293006
 31
0.0
  0
VIEWPORT
  5
48
 67
     1
  8
0
 10
0.0
 20
0.0
 30
0.0
 40
1662.0
 41
1140.0
 68
     1
 69
     1
1001
ACAD
1000
MVIEW
1002
{
1070
    16
1010
0.0
1020
0.0
1030
0.0
1020
0.0
1030
0.0
1010
0.0
1020
0.0
1030
1.0
1020
0.0
1030
1.0
1040
0.0
1040
1140.0
1040
0.0
1040
0.0
1040
50.0
1040
0.0
1040
0.0
1070
     0
1070
   100
1070
     0
1070
     1
1070
     0
1070
     0
1070
     0
1070
     0
1040
0.0
1040
0.0
1040
0.0
1040
0.5
1040
0.5
1040
0.0
1040
0.0
1070
     0
1002
{
1002
}
1002
}
  0
ENDSEC
  0
EOF
