  0
SECTION
  2
HEADER
  9
$ACADVER
  1
AC1009
  9
$DWGCODEPAGE
  3
ansi_932
  9
$INSBASE
 10
0.0
 20
0.0
 30
0.0
  9
$EXTMIN
 10
-474.4276062545233
 20
-570.0
 30
0.0
  9
$EXTMAX
 10
1187.572393745477
 20
570.0
 30
0.0
  9
$LIMMIN
 10
-660.5555555555555
 20
-467.2222222222222
  9
$LIMMAX
 10
660.5555555555555
 20
467.2222222222222
  9
$ORTHOMODE
 70
     0
  9
$REGENMODE
 70
     1
  9
$FILLMODE
 70
     1
  9
$QTEXTMODE
 70
     0
  9
$MIRRTEXT
 70
     1
  9
$DRAGMODE
 70
     2
  9
$LTSCALE
 40
1.111111111111111
  9
$OSMODE
 70
    37
  9
$ATTMODE
 70
     1
  9
$TEXTSIZE
 40
0.2
  9
$TRACEWID
 40
0.05
  9
$TEXTSTYLE
  7
STANDARD
  9
$CLAYER
  8
0
  9
$CELTYPE
  6
BYLAYER
  9
$CECOLOR
 62
   256
  9
$DIMSCALE
 40
1.0
  9
$DIMASZ
 40
2.777777777777778
  9
$DIMEXO
 40
0.0625
  9
$DIMDLI
 40
0.38
  9
$DIMRND
 40
0.0
  9
$DIMDLE
 40
0.0
  9
$DIMEXE
 40
0.18
  9
$DIMTP
 40
0.0
  9
$DIMTM
 40
0.0
  9
$DIMTXT
 40
0.18
  9
$DIMCEN
 40
0.09
  9
$DIMTSZ
 40
0.0
  9
$DIMTOL
 70
     0
  9
$DIMLIM
 70
     0
  9
$DIMTIH
 70
     1
  9
$DIMTOH
 70
     1
  9
$DIMSE1
 70
     0
  9
$DIMSE2
 70
     0
  9
$DIMTAD
 70
     3
  9
$DIMZIN
 70
     0
  9
$DIMBLK
  1

  9
$DIMASO
 70
     1
  9
$DIMSHO
 70
     1
  9
$DIMPOST
  1

  9
$DIMAPOST
  1

  9
$DIMALT
 70
     0
  9
$DIMALTD
 70
     2
  9
$DIMALTF
 40
25.4
  9
$DIMLFAC
 40
1.0
  9
$DIMTOFL
 70
     0
  9
$DIMTVP
 40
0.0
  9
$DIMTIX
 70
     0
  9
$DIMSOXD
 70
     0
  9
$DIMSAH
 70
     0
  9
$DIMBLK1
  1

  9
$DIMBLK2
  1

  9
$DIMSTYLE
  2
STANDARD
  9
$DIMCLRD
 70
     0
  9
$DIMCLRE
 70
     0
  9
$DIMCLRT
 70
     0
  9
$DIMTFAC
 40
1.0
  9
$DIMGAP
 40
0.09
  9
$LUNITS
 70
     2
  9
$LUPREC
 70
     4
  9
$SKETCHINC
 40
0.1
  9
$FILLETRAD
 40
0.5
  9
$AUNITS
 70
     0
  9
$AUPREC
 70
     0
  9
$MENU
  1
.
  9
$ELEVATION
 40
0.0
  9
$PELEVATION
 40
0.0
  9
$THICKNESS
 40
0.0
  9
$LIMCHECK
 70
     0
  9
$CHAMFERA
 40
0.5
  9
$CHAMFERB
 40
0.5
  9
$SKPOLY
 70
     0
  9
$TDCREATE
 40
2455483.562549456
  9
$TDUPDATE
 40
2455483.562549468
  9
$TDINDWG
 40
0.0000000116
  9
$TDUSRTIMER
 40
0.0000000116
  9
$USRTIMER
 70
     1
  9
$ANGBASE
 50
0.0
  9
$ANGDIR
 70
     0
  9
$PDMODE
 70
     0
  9
$PDSIZE
 40
1.0
  9
$PLINEWID
 40
0.0
  9
$COORDS
 70
     1
  9
$SPLFRAME
 70
     0
  9
$SPLINETYPE
 70
     6
  9
$SPLINESEGS
 70
     8
  9
$ATTDIA
 70
     0
  9
$ATTREQ
 70
     1
  9
$HANDLING
 70
     1
  9
$HANDSEED
  5
5B5
  9
$SURFTAB1
 70
     6
  9
$SURFTAB2
 70
     6
  9
$SURFTYPE
 70
     6
  9
$SURFU
 70
     6
  9
$SURFV
 70
     6
  9
$UCSNAME
  2

  9
$UCSORG
 10
0.0
 20
0.0
 30
0.0
  9
$UCSXDIR
 10
1.0
 20
0.0
 30
0.0
  9
$UCSYDIR
 10
0.0
 20
1.0
 30
0.0
  9
$PUCSNAME
  2

  9
$PUCSORG
 10
0.0
 20
0.0
 30
0.0
  9
$PUCSXDIR
 10
1.0
 20
0.0
 30
0.0
  9
$PUCSYDIR
 10
0.0
 20
1.0
 30
0.0
  9
$USERI1
 70
     0
  9
$USERI2
 70
     0
  9
$USERI3
 70
     0
  9
$USERI4
 70
     0
  9
$USERI5
 70
     0
  9
$USERR1
 40
0.0
  9
$USERR2
 40
0.0
  9
$USERR3
 40
0.0
  9
$USERR4
 40
0.0
  9
$USERR5
 40
0.0
  9
$WORLDVIEW
 70
     1
  9
$SHADEDGE
 70
     3
  9
$SHADEDIF
 70
    70
  9
$TILEMODE
 70
     1
  9
$MAXACTVP
 70
    64
  9
$PLIMCHECK
 70
     0
  9
$PEXTMIN
 10
1.000000000000000E+20
 20
1.000000000000000E+20
 30
1.000000000000000E+20
  9
$PEXTMAX
 10
-1.000000000000000E+20
 20
-1.000000000000000E+20
 30
-1.000000000000000E+20
  9
$PLIMMIN
 10
0.0
 20
0.0
  9
$PLIMMAX
 10
12.0
 20
9.0
  9
$UNITMODE
 70
     0
  9
$VISRETAIN
 70
     0
  9
$PLINEGEN
 70
     1
  9
$PSLTSCALE
 70
     0
  0
ENDSEC
  0
SECTION
  2
TABLES
  0
TABLE
  2
VPORT
 70
     1
  0
VPORT
  2
*ACTIVE
 70
     0
 10
0.0
 20
0.0
 11
1.0
 21
1.0
 12
0.0
 22
0.0
 13
0.0
 23
0.0
 14
0.5
 24
0.5
 15
0.5
 25
0.5
 16
0.0
 26
0.0
 36
1.0
 17
356.5723937454767
 27
0.0
 37
0.0
 40
387.6
 41
1.457894736842105
 42
50.0
 43
0.0
 44
0.0
 50
0.0
 51
0.0
 71
     0
 72
  1000
 73
     1
 74
     1
 75
     0
 76
     0
 77
     0
 78
     0
  0
ENDTAB
  0
TABLE
  2
LTYPE
 70
    28
  0
LTYPE
  2
CONTINUOUS
 70
     0
  3
Solid line
 72
    65
 73
     0
 40
0.0
  0
LTYPE
  2
HIDDENX2
 70
     0
  3
CADPAC LINETYPE
 72
    65
 73
     2
 40
18.58563535911603
 49
13.93922651933703
 49
-4.646408839779008
  0
LTYPE
  2
HIDDEN
 70
     0
  3
CADPAC LINETYPE
 72
    65
 73
     2
 40
13.93922651933703
 49
9.292817679558016
 49
-4.646408839779008
  0
LTYPE
  2
HIDDEN2
 70
     0
  3
CADPAC LINETYPE
 72
    65
 73
     2
 40
11.61602209944752
 49
6.969613259668512
 49
-4.646408839779008
  0
LTYPE
  2
DASHED
 70
     0
  3
CADPAC LINETYPE
 72
    65
 73
     2
 40
13.00994475138128
 49
9.292817679558016
 49
-3.717127071823268
  0
LTYPE
  2
DASHED2
 70
     0
  3
CADPAC LINETYPE
 72
    65
 73
     2
 40
8.363535911602174
 49
5.575690607734851
 49
-2.787845303867323
  0
LTYPE
  2
DASHEDX2
 70
     0
  3
CADPAC LINETYPE
 72
    65
 73
     2
 40
22.3027624309393
 49
18.58563535911603
 49
-3.717127071823268
  0
LTYPE
  2
DOTX2
 70
     0
  3
CADPAC LINETYPE
 72
    65
 73
     2
 40
8.131215469613366
 49
0.0
 49
-8.131215469613366
  0
LTYPE
  2
DOT
 70
     0
  3
CADPAC LINETYPE
 72
    65
 73
     2
 40
6.504972375690693
 49
0.0
 49
-6.504972375690693
  0
LTYPE
  2
DOT2
 70
     0
  3
CADPAC LINETYPE
 72
    65
 73
     2
 40
4.87872928176802
 49
0.0
 49
-4.87872928176802
  0
LTYPE
  2
CENTERX2
 70
     0
  3
CADPAC LINETYPE
 72
    65
 73
     4
 40
27.87845303867405
 49
11.61602209944752
 49
-5.80801104972376
 49
4.646408839779008
 49
-5.80801104972376
  0
LTYPE
  2
CENTER
 70
     0
  3
CADPAC LINETYPE
 72
    65
 73
     4
 40
21.37348066298344
 49
9.292817679558016
 49
-4.646408839779008
 49
2.787845303867405
 49
-4.646408839779008
  0
LTYPE
  2
CENTER2
 70
     0
  3
CADPAC LINETYPE
 72
    65
 73
     4
 40
14.86850828729283
 49
6.969613259668512
 49
-3.484806629834256
 49
0.9292817679558016
 49
-3.484806629834256
  0
LTYPE
  2
DASHDOTX2
 70
     0
  3
CADPAC LINETYPE
 72
    65
 73
     4
 40
44.6055248618785
 49
22.3027624309392
 49
-7.434254143646434
 49
7.434254143646434
 49
-7.434254143646434
  0
LTYPE
  2
DASHDOT
 70
     0
  3
CADPAC LINETYPE
 72
    65
 73
     4
 40
22.3027624309394
 49
11.1513812154696
 49
-3.717127071823268
 49
3.717127071823268
 49
-3.717127071823268
  0
LTYPE
  2
DASHDOT2
 70
     0
  3
CADPAC LINETYPE
 72
    65
 73
     4
 40
14.31093922651943
 49
8.363535911602199
 49
-2.787845303867451
 49
0.3717127071823268
 49
-2.787845303867451
  0
LTYPE
  2
DIVIDEX2
 70
     0
  3
CADPAC LINETYPE
 72
    65
 73
     6
 40
59.47403314917137
 49
22.3027624309392
 49
-7.434254143646434
 49
7.434254143646434
 49
-7.434254143646434
 49
7.434254143646434
 49
-7.434254143646434
  0
LTYPE
  2
DIVIDE
 70
     0
  3
CADPAC LINETYPE
 72
    65
 73
     6
 40
29.73701657458594
 49
11.1513812154696
 49
-3.717127071823268
 49
3.717127071823268
 49
-3.717127071823268
 49
3.717127071823268
 49
-3.717127071823268
  0
LTYPE
  2
DIVIDE2
 70
     0
  3
CADPAC LINETYPE
 72
    65
 73
     6
 40
22.30276243093946
 49
8.363535911602199
 49
-2.787845303867451
 49
2.787845303867451
 49
-2.787845303867451
 49
2.787845303867451
 49
-2.787845303867451
  0
LTYPE
  2
BORDERX2
 70
     0
  3
CADPAC LINETYPE
 72
    65
 73
     6
 40
40.65607734806632
 49
11.61602209944752
 49
-5.80801104972376
 49
11.61602209944752
 49
-5.80801104972376
 49
0.0
 49
-5.80801104972376
  0
LTYPE
  2
BORDER
 70
     0
  3
CADPAC LINETYPE
 72
    65
 73
     6
 40
32.52486187845306
 49
9.292817679558016
 49
-4.646408839779008
 49
9.292817679558016
 49
-4.646408839779008
 49
0.0
 49
-4.646408839779008
  0
LTYPE
  2
BORDER2
 70
     0
  3
CADPAC LINETYPE
 72
    65
 73
     6
 40
24.16132596685078
 49
7.434254143646434
 49
-4.646408839779008
 49
2.787845303867323
 49
-4.646408839779008
 49
0.0
 49
-4.646408839779008
  0
LTYPE
  2
PHANTOMX2
 70
     0
  3
CADPAC LINETYPE
 72
    65
 73
     6
 40
34.84806629834256
 49
11.61602209944752
 49
-4.646408839779008
 49
4.646408839779008
 49
-4.646408839779008
 49
4.646408839779008
 49
-4.646408839779008
  0
LTYPE
  2
PHANTOM
 70
     0
  3
CADPAC LINETYPE
 72
    65
 73
     6
 40
28.80773480662985
 49
9.292817679558016
 49
-4.646408839779008
 49
2.787845303867405
 49
-4.646408839779008
 49
2.787845303867405
 49
-4.646408839779008
  0
LTYPE
  2
PHANTOM2
 70
     0
  3
CADPAC LINETYPE
 72
    65
 73
     6
 40
24.62596685082875
 49
6.969613259668512
 49
-4.646408839779008
 49
1.858563535911603
 49
-4.646408839779008
 49
1.858563535911603
 49
-4.646408839779008
  0
LTYPE
  2
ACAD_ISO06W100
 70
     0
  3
CADPAC LINETYPE
 72
    65
 73
     8
 40
49.25193370165719
 49
22.3027624309392
 49
-4.646408839779008
 49
2.787845303867323
 49
-4.646408839779008
 49
2.787845303867323
 49
-4.646408839779008
 49
2.787845303867323
 49
-4.646408839779008
  0
LTYPE
  2
ACAD_ISO13W100
 70
     0
  3
CADPAC LINETYPE
 72
    65
 73
     8
 40
37.17127071823207
 49
9.292817679558016
 49
-4.646408839779008
 49
9.292817679558016
 49
-4.646408839779008
 49
0.0
 49
-4.646408839779008
 49
0.0
 49
-4.646408839779008
  0
LTYPE
  2
ACAD_ISO14W100
 70
     0
  3
CADPAC LINETYPE
 72
    65
 73
     8
 40
27.87845303867405
 49
9.292817679558016
 49
-4.646408839779008
 49
0.0
 49
-4.646408839779008
 49
0.0
 49
-4.646408839779008
 49
0.0
 49
-4.646408839779008
  0
ENDTAB
  0
TABLE
  2
LAYER
 70
     3
  0
LAYER
  2
0
 70
     0
 62
     7
  6
CONTINUOUS
  0
LAYER
  2
LAYER0001
 70
     0
 62
     7
  6
CONTINUOUS
  0
LAYER
  2
LAYER0002
 70
     0
 62
     7
  6
CONTINUOUS
  0
ENDTAB
  0
TABLE
  2
STYLE
 70
     5
  0
STYLE
  2
STANDARD
 70
     0
 40
0.0
 41
1.0
 50
0.0
 71
     0
 42
0.2
  3
txt
  4

  0
STYLE
  2
FDASTYLE1
 70
     0
 40
0.0
 41
0.6213017751479282
 50
0.0
 71
     0
 42
0.2
  3
txt.shx
  4
bigfont
  0
STYLE
  2
FDASTYLE0
 70
     4
 40
0.0
 41
0.8
 50
0.0
 71
     0
 42
0.2
  3
txt.shx
  4
bigfont
  0
STYLE
  2
FDASTYLE2
 70
     0
 40
0.0
 41
0.8123476848090979
 50
0.0
 71
     0
 42
0.2
  3
MSMINCHO.TTC
  4

  0
STYLE
  2
FDASTYLE3
 70
     0
 40
0.0
 41
0.6684336356141793
 50
0.0
 71
     0
 42
0.2
  3
MSGOTHIC.TTC
  4

  0
ENDTAB
  0
TABLE
  2
VIEW
 70
     0
  0
ENDTAB
  0
TABLE
  2
UCS
 70
     0
  0
ENDTAB
  0
TABLE
  2
APPID
 70
     2
  0
APPID
  2
ACAD
 70
     0
  0
APPID
  2
DAFUSIONOUT
 70
     0
  0
ENDTAB
  0
TABLE
  2
DIMSTYLE
 70
     1
  0
DIMSTYLE
  2
STANDARD
 70
     0
  3

  4

  5

  6

  7

 40
1.0
 41
0.18
 42
0.0625
 43
0.38
 44
0.18
 45
0.0
 46
0.0
 47
0.0
 48
0.0
140
0.18
141
0.09
142
0.0
143
25.4
144
1.0
145
0.0
146
1.0
147
0.09
 71
     0
 72
     0
 73
     1
 74
     1
 75
     0
 76
     0
 77
     0
 78
     0
170
     0
171
     2
172
     0
173
     0
174
     0
175
     0
176
     0
177
     0
178
     0
  0
ENDTAB
  0
ENDSEC
  0
SECTION
  2
BLOCKS
  0
BLOCK
  8
0
  2
$MODEL_SPACE
 70
     0
 10
0.0
 20
0.0
 30
0.0
  3
$MODEL_SPACE
  1

  0
ENDBLK
  5
21
  8
0
  0
BLOCK
 67
     1
  8
0
  2
$PAPER_SPACE
 70
     0
 10
0.0
 20
0.0
 30
0.0
  3
$PAPER_SPACE
  1

  0
ENDBLK
  5
1D
 67
     1
  8
0
  0
BLOCK
  8
0
  2
DC_GROUP_1
 70
     0
 10
0.0
 20
0.0
 30
0.0
  3
DC_GROUP_1
  1

  0
LINE
  5
193
  8
LAYER0001
  6
CONTINUOUS
 62
     7
 10
182.1892524220063
 20
71.50926213964264
 30
0.0
 11
139.822681987436
 21
71.50926213964264
 31
0.0
  0
LINE
  5
194
  8
LAYER0001
  6
CONTINUOUS
 62
     7
 10
184.9324317432954
 20
-2.490737860357356
 30
0.0
 11
139.822681987436
 21
-2.490737860357356
 31
0.0
  0
LINE
  5
195
  8
LAYER0001
  6
CONTINUOUS
 62
     7
 10
142.1086622120454
 20
71.50926213964264
 30
0.0
 11
142.1086622120454
 21
-2.490737860357356
 31
0.0
  0
INSERT
  5
196
  8
LAYER0001
  6
CONTINUOUS
  2
DC_GROUP_2
 10
0.0
 20
0.0
 30
0.0
  0
INSERT
  5
197
  8
LAYER0001
  6
CONTINUOUS
  2
DC_GROUP_3
 10
0.0
 20
0.0
 30
0.0
  0
TEXT
  5
199
  8
LAYER0001
 62
     7
 10
140.495499885573
 20
26.9692085065122
 30
0.0
 40
4.0
  1
φ74H7
 50
89.90000000000001
 41
0.6213017751479282
  7
FDASTYLE1
 72
     5
 11
140.5180548983015
 21
39.89226574662236
 31
0.0
  0
ENDBLK
  5
4E
  8
0
  0
BLOCK
  8
0
  2
DC_GROUP_2
 70
     0
 10
0.0
 20
0.0
 30
0.0
  3
DC_GROUP_2
  1

  0
LINE
  5
19A
  8
LAYER0001
  6
CONTINUOUS
 62
     7
 10
141.5727626771478
 20
69.50926373201197
 30
0.0
 11
142.1086622120454
 21
71.50926213964264
 31
0.0
  0
LINE
  5
19B
  8
LAYER0001
  6
CONTINUOUS
 62
     7
 10
142.1086622120454
 20
71.50926213964264
 30
0.0
 11
142.644561746943
 21
69.50926373201197
 31
0.0
  0
LINE
  5
19C
  8
LAYER0001
  6
CONTINUOUS
 62
     7
 10
142.1086622120454
 20
71.50926213964264
 30
0.0
 11
142.1086622120454
 21
69.50926373201197
 31
0.0
  0
ENDBLK
  5
51
  8
0
  0
BLOCK
  8
0
  2
DC_GROUP_3
 70
     0
 10
0.0
 20
0.0
 30
0.0
  3
DC_GROUP_3
  1

  0
LINE
  5
19D
  8
LAYER0001
  6
CONTINUOUS
 62
     7
 10
142.644561746943
 20
-0.4907394527266938
 30
0.0
 11
142.1086622120454
 21
-2.490737860357356
 31
0.0
  0
LINE
  5
19E
  8
LAYER0001
  6
CONTINUOUS
 62
     7
 10
142.1086622120454
 20
-2.490737860357356
 30
0.0
 11
141.5727626771478
 21
-0.4907394527266936
 31
0.0
  0
LINE
  5
19F
  8
LAYER0001
  6
CONTINUOUS
 62
     7
 10
142.1086622120454
 20
-2.490737860357356
 30
0.0
 11
142.1086622120454
 21
-0.4907394527266937
 31
0.0
  0
ENDBLK
  5
54
  8
0
  0
BLOCK
  8
0
  2
DC_GROUP_4
 70
     0
 10
0.0
 20
0.0
 30
0.0
  3
DC_GROUP_4
  1

  0
LINE
  5
1A0
  8
LAYER0001
  6
CONTINUOUS
 62
     7
 10
180.7324195362641
 20
129.5092621396427
 30
0.0
 11
127.6315503956391
 21
129.5092621396427
 31
0.0
  0
LINE
  5
1A1
  8
LAYER0001
  6
CONTINUOUS
 62
     7
 10
180.7324195362641
 20
-60.49073786035736
 30
0.0
 11
127.6315503956391
 21
-60.49073786035736
 31
0.0
  0
LINE
  5
1A2
  8
LAYER0001
  6
CONTINUOUS
 62
     7
 10
129.9175611378266
 20
129.5092621396427
 30
0.0
 11
129.9175611378266
 21
-60.49073786035736
 31
0.0
  0
INSERT
  5
1A3
  8
LAYER0001
  6
CONTINUOUS
  2
DC_GROUP_5
 10
0.0
 20
0.0
 30
0.0
  0
INSERT
  5
1A4
  8
LAYER0001
  6
CONTINUOUS
  2
DC_GROUP_6
 10
0.0
 20
0.0
 30
0.0
  0
TEXT
  5
1A5
  8
LAYER0001
 62
     7
 10
128.3016062859688
 20
25.36921094345095
 30
0.0
 40
4.0
  1
φ190H7
 50
89.90000000000001
 41
0.6243496357960451
  7
FDASTYLE1
 72
     5
 11
128.3286307251827
 21
40.85305832791475
 31
0.0
  0
ENDBLK
  5
57
  8
0
  0
BLOCK
  8
0
  2
DC_GROUP_5
 70
     0
 10
0.0
 20
0.0
 30
0.0
  3
DC_GROUP_5
  1

  0
LINE
  5
1A6
  8
LAYER0001
  6
CONTINUOUS
 62
     7
 10
129.381661602929
 20
127.509263732012
 30
0.0
 11
129.9175611378266
 21
129.5092621396427
 31
0.0
  0
LINE
  5
1A7
  8
LAYER0001
  6
CONTINUOUS
 62
     7
 10
129.9175611378266
 20
129.5092621396427
 30
0.0
 11
130.4534606727242
 21
127.509263732012
 31
0.0
  0
LINE
  5
1A8
  8
LAYER0001
  6
CONTINUOUS
 62
     7
 10
129.9175611378266
 20
129.5092621396427
 30
0.0
 11
129.9175611378266
 21
127.509263732012
 31
0.0
  0
ENDBLK
  5
5A
  8
0
  0
BLOCK
  8
0
  2
DC_GROUP_6
 70
     0
 10
0.0
 20
0.0
 30
0.0
  3
DC_GROUP_6
  1

  0
LINE
  5
1A9
  8
LAYER0001
  6
CONTINUOUS
 62
     7
 10
130.4534606727242
 20
-58.4907394527267
 30
0.0
 11
129.9175611378266
 21
-60.49073786035736
 31
0.0
  0
LINE
  5
1AA
  8
LAYER0001
  6
CONTINUOUS
 62
     7
 10
129.9175611378266
 20
-60.49073786035736
 30
0.0
 11
129.381661602929
 21
-58.4907394527267
 31
0.0
  0
LINE
  5
1AB
  8
LAYER0001
  6
CONTINUOUS
 62
     7
 10
129.9175611378266
 20
-60.49073786035736
 30
0.0
 11
129.9175611378266
 21
-58.4907394527267
 31
0.0
  0
ENDBLK
  5
5D
  8
0
  0
BLOCK
  8
0
  2
DC_GROUP_7
 70
     0
 10
0.0
 20
0.0
 30
0.0
  3
DC_GROUP_7
  1

  0
LINE
  5
1AC
  8
LAYER0001
  6
CONTINUOUS
 62
     7
 10
180.7324195362641
 20
142.0092621396427
 30
0.0
 11
115.4403882862641
 21
142.0092621396427
 31
0.0
  0
LINE
  5
1AD
  8
LAYER0001
  6
CONTINUOUS
 62
     7
 10
180.7324195362641
 20
-72.99073786035736
 30
0.0
 11
115.4403882862641
 21
-72.99073786035736
 31
0.0
  0
LINE
  5
1AE
  8
LAYER0001
  6
CONTINUOUS
 62
     7
 10
117.7263990284516
 20
142.0092621396427
 30
0.0
 11
117.7263990284516
 21
-72.99073786035736
 31
0.0
  0
INSERT
  5
1AF
  8
LAYER0001
  6
CONTINUOUS
  2
DC_GROUP_8
 10
0.0
 20
0.0
 30
0.0
  0
INSERT
  5
1B0
  8
LAYER0001
  6
CONTINUOUS
  2
DC_GROUP_9
 10
0.0
 20
0.0
 30
0.0
  0
TEXT
  5
1B1
  8
LAYER0001
 62
     7
 10
116.1160292273646
 20
28.56920606957345
 30
0.0
 40
4.0
  1
φ215
 50
89.90000000000001
 41
0.6167800453514744
  7
FDASTYLE1
 72
     5
 11
116.1341141536703
 21
38.93109504939876
 31
0.0
  0
ENDBLK
  5
60
  8
0
  0
BLOCK
  8
0
  2
DC_GROUP_8
 70
     0
 10
0.0
 20
0.0
 30
0.0
  3
DC_GROUP_8
  1

  0
LINE
  5
1B2
  8
LAYER0001
  6
CONTINUOUS
 62
     7
 10
117.190499493554
 20
140.009263732012
 30
0.0
 11
117.7263990284516
 21
142.0092621396427
 31
0.0
  0
LINE
  5
1B3
  8
LAYER0001
  6
CONTINUOUS
 62
     7
 10
117.7263990284516
 20
142.0092621396427
 30
0.0
 11
118.2622985633492
 21
140.009263732012
 31
0.0
  0
LINE
  5
1B4
  8
LAYER0001
  6
CONTINUOUS
 62
     7
 10
117.7263990284516
 20
142.0092621396427
 30
0.0
 11
117.7263990284516
 21
140.009263732012
 31
0.0
  0
ENDBLK
  5
63
  8
0
  0
BLOCK
  8
0
  2
DC_GROUP_9
 70
     0
 10
0.0
 20
0.0
 30
0.0
  3
DC_GROUP_9
  1

  0
LINE
  5
1B5
  8
LAYER0001
  6
CONTINUOUS
 62
     7
 10
118.2622985633492
 20
-70.9907394527267
 30
0.0
 11
117.7263990284516
 21
-72.99073786035736
 31
0.0
  0
LINE
  5
1B6
  8
LAYER0001
  6
CONTINUOUS
 62
     7
 10
117.7263990284516
 20
-72.99073786035736
 30
0.0
 11
117.190499493554
 21
-70.9907394527267
 31
0.0
  0
LINE
  5
1B7
  8
LAYER0001
  6
CONTINUOUS
 62
     7
 10
117.7263990284516
 20
-72.99073786035736
 30
0.0
 11
117.7263990284516
 21
-70.9907394527267
 31
0.0
  0
ENDBLK
  5
66
  8
0
  0
BLOCK
  8
0
  2
DC_GROUP_10
 70
     0
 10
0.0
 20
0.0
 30
0.0
  3
DC_GROUP_10
  1

  0
LINE
  5
1B8
  8
LAYER0001
  6
CONTINUOUS
 62
     7
 10
307.0379224659516
 20
-5.490737860357358
 30
0.0
 11
307.0379224659516
 21
57.25926213964264
 31
0.0
  0
LINE
  5
1B9
  8
LAYER0001
  6
CONTINUOUS
 62
     7
 10
262.8124195362641
 20
-5.490737860357356
 30
0.0
 11
308.0379224659516
 21
-5.490737860357358
 31
0.0
  0
INSERT
  5
1BA
  8
LAYER0001
  6
CONTINUOUS
  2
DC_GROUP_11
 10
0.0
 20
0.0
 30
0.0
  0
TEXT
  5
1BB
  8
LAYER0001
 62
     7
 10
305.4379224659516
 20
27.22378211721222
 30
0.0
 40
4.0
  1
φ80H7
 50
90.0
 41
0.6213017751479283
  7
FDASTYLE1
 72
     5
 11
305.4379224659516
 21
40.14685904028913
 31
0.0
  0
ENDBLK
  5
69
  8
0
  0
BLOCK
  8
0
  2
DC_GROUP_11
 70
     0
 10
0.0
 20
0.0
 30
0.0
  3
DC_GROUP_11
  1

  0
LINE
  5
1BC
  8
LAYER0001
  6
CONTINUOUS
 62
     7
 10
307.5738220008492
 20
-3.490739452726696
 30
0.0
 11
307.0379224659516
 21
-5.490737860357358
 31
0.0
  0
LINE
  5
1BD
  8
LAYER0001
  6
CONTINUOUS
 62
     7
 10
307.0379224659516
 20
-5.490737860357358
 30
0.0
 11
306.5020229310539
 21
-3.490739452726696
 31
0.0
  0
LINE
  5
1BE
  8
LAYER0001
  6
CONTINUOUS
 62
     7
 10
307.0379224659516
 20
-5.490737860357358
 30
0.0
 11
307.0379224659516
 21
-3.490739452726696
 31
0.0
  0
ENDBLK
  5
6C
  8
0
  0
BLOCK
  8
0
  2
DC_GROUP_12
 70
     0
 10
0.0
 20
0.0
 30
0.0
  3
DC_GROUP_12
  1

  0
LINE
  5
1BF
  8
LAYER0001
  6
CONTINUOUS
 62
     7
 10
187.4724317432954
 20
-110.8240497758645
 30
0.0
 11
260.2724195362641
 21
-110.8240497758645
 31
0.0
  0
LINE
  5
1C0
  8
LAYER0001
  6
CONTINUOUS
 62
     7
 10
187.4724317432954
 20
-63.03073786035736
 30
0.0
 11
187.4724317432954
 21
-111.8240497758645
 31
0.0
  0
LINE
  5
1C1
  8
LAYER0001
  6
CONTINUOUS
 62
     7
 10
260.2724195362641
 20
-73.53073786035736
 30
0.0
 11
260.2724195362641
 21
-111.8240497758645
 31
0.0
  0
INSERT
  5
1C2
  8
LAYER0001
  6
CONTINUOUS
  2
DC_GROUP_13
 10
0.0
 20
0.0
 30
0.0
  0
INSERT
  5
1C3
  8
LAYER0001
  6
CONTINUOUS
  2
DC_GROUP_14
 10
0.0
 20
0.0
 30
0.0
  0
TEXT
  5
1C4
  8
LAYER0001
 62
     7
 10
217.4724256397797
 20
-109.8240497758645
 30
0.0
 40
4.0
  1
72.8
 41
0.6095238095238091
  7
FDASTYLE1
 72
     5
 11
227.2248065921606
 21
-109.8240497758645
 31
0.0
  0
ENDBLK
  5
6F
  8
0
  0
BLOCK
  8
0
  2
DC_GROUP_13
 70
     0
 10
0.0
 20
0.0
 30
0.0
  3
DC_GROUP_13
  1

  0
LINE
  5
1C5
  8
LAYER0001
  6
CONTINUOUS
 62
     7
 10
189.4724301509261
 20
-111.3599493107621
 30
0.0
 11
187.4724317432954
 21
-110.8240497758645
 31
0.0
  0
LINE
  5
1C6
  8
LAYER0001
  6
CONTINUOUS
 62
     7
 10
187.4724317432954
 20
-110.8240497758645
 30
0.0
 11
189.4724301509261
 21
-110.2881502409669
 31
0.0
  0
LINE
  5
1C7
  8
LAYER0001
  6
CONTINUOUS
 62
     7
 10
187.4724317432954
 20
-110.8240497758645
 30
0.0
 11
189.4724301509261
 21
-110.8240497758645
 31
0.0
  0
ENDBLK
  5
72
  8
0
  0
BLOCK
  8
0
  2
DC_GROUP_14
 70
     0
 10
0.0
 20
0.0
 30
0.0
  3
DC_GROUP_14
  1

  0
LINE
  5
1C8
  8
LAYER0001
  6
CONTINUOUS
 62
     7
 10
258.2724211286334
 20
-110.2881502409669
 30
0.0
 11
260.2724195362641
 21
-110.8240497758645
 31
0.0
  0
LINE
  5
1C9
  8
LAYER0001
  6
CONTINUOUS
 62
     7
 10
260.2724195362641
 20
-110.8240497758645
 30
0.0
 11
258.2724211286334
 21
-111.3599493107621
 31
0.0
  0
LINE
  5
1CA
  8
LAYER0001
  6
CONTINUOUS
 62
     7
 10
260.2724195362641
 20
-110.8240497758645
 30
0.0
 11
258.2724211286334
 21
-110.8240497758645
 31
0.0
  0
ENDBLK
  5
75
  8
0
  0
BLOCK
  8
0
  2
DC_GROUP_15
 70
     0
 10
0.0
 20
0.0
 30
0.0
  3
DC_GROUP_15
  1

  0
LINE
  5
1CB
  8
LAYER0001
  6
CONTINUOUS
 62
     7
 10
183.2724195362641
 20
-110.8240497758644
 30
0.0
 11
187.4724317432954
 21
-110.8240497758644
 31
0.0
  0
LINE
  5
1CC
  8
LAYER0001
  6
CONTINUOUS
 62
     7
 10
183.2724195362641
 20
-75.53073786035736
 30
0.0
 11
183.2724195362641
 21
-111.8240497758644
 31
0.0
  0
LINE
  5
1CD
  8
LAYER0001
  6
CONTINUOUS
 62
     7
 10
187.4724317432954
 20
-63.03073786035736
 30
0.0
 11
187.4724317432954
 21
-111.8240497758644
 31
0.0
  0
LINE
  5
1CE
  8
LAYER0001
  6
CONTINUOUS
 62
     7
 10
169.1997200116721
 20
-110.8240497758644
 30
0.0
 11
183.2724195362641
 21
-110.8240497758644
 31
0.0
  0
LINE
  5
1CF
  8
LAYER0001
  6
CONTINUOUS
 62
     7
 10
192.4724317432954
 20
-110.8240497758644
 30
0.0
 11
187.4724317432954
 21
-110.8240497758644
 31
0.0
  0
INSERT
  5
1D0
  8
LAYER0001
  6
CONTINUOUS
  2
DC_GROUP_16
 10
0.0
 20
0.0
 30
0.0
  0
INSERT
  5
1D1
  8
LAYER0001
  6
CONTINUOUS
  2
DC_GROUP_17
 10
0.0
 20
0.0
 30
0.0
  0
TEXT
  5
1D2
  8
LAYER0001
 62
     7
 10
170.1997200116721
 20
-109.8240497758644
 30
0.0
 40
4.0
  1
4.2
 41
0.5587301587301591
  7
FDASTYLE1
 72
     5
 11
176.904481916434
 21
-109.8240497758644
 31
0.0
  0
ENDBLK
  5
78
  8
0
  0
BLOCK
  8
0
  2
DC_GROUP_16
 70
     0
 10
0.0
 20
0.0
 30
0.0
  3
DC_GROUP_16
  1

  0
LINE
  5
1D3
  8
LAYER0001
  6
CONTINUOUS
 62
     7
 10
181.2724211286334
 20
-110.2881502409668
 30
0.0
 11
183.2724195362641
 21
-110.8240497758644
 31
0.0
  0
LINE
  5
1D4
  8
LAYER0001
  6
CONTINUOUS
 62
     7
 10
183.2724195362641
 20
-110.8240497758644
 30
0.0
 11
181.2724211286334
 21
-111.359949310762
 31
0.0
  0
LINE
  5
1D5
  8
LAYER0001
  6
CONTINUOUS
 62
     7
 10
183.2724195362641
 20
-110.8240497758644
 30
0.0
 11
181.2724211286334
 21
-110.8240497758644
 31
0.0
  0
ENDBLK
  5
7B
  8
0
  0
BLOCK
  8
0
  2
DC_GROUP_17
 70
     0
 10
0.0
 20
0.0
 30
0.0
  3
DC_GROUP_17
  1

  0
LINE
  5
1D6
  8
LAYER0001
  6
CONTINUOUS
 62
     7
 10
189.4724301509261
 20
-111.359949310762
 30
0.0
 11
187.4724317432954
 21
-110.8240497758644
 31
0.0
  0
LINE
  5
1D7
  8
LAYER0001
  6
CONTINUOUS
 62
     7
 10
187.4724317432954
 20
-110.8240497758644
 30
0.0
 11
189.4724301509261
 21
-110.2881502409668
 31
0.0
  0
LINE
  5
1D8
  8
LAYER0001
  6
CONTINUOUS
 62
     7
 10
187.4724317432954
 20
-110.8240497758644
 30
0.0
 11
189.4724301509261
 21
-110.8240497758644
 31
0.0
  0
ENDBLK
  5
7E
  8
0
  0
BLOCK
  8
0
  2
DC_GROUP_18
 70
     0
 10
0.0
 20
0.0
 30
0.0
  3
DC_GROUP_18
  1

  0
LINE
  5
1D9
  8
LAYER0001
  6
CONTINUOUS
 62
     7
 10
260.2724195362641
 20
-73.53073786035736
 30
0.0
 11
260.2724195362641
 21
-123.075851385748
 31
0.0
  0
LINE
  5
1DA
  8
LAYER0001
  6
CONTINUOUS
 62
     7
 10
183.2724195362641
 20
-75.53073786035736
 30
0.0
 11
183.2724195362641
 21
-123.075851385748
 31
0.0
  0
LINE
  5
1DB
  8
LAYER0001
  6
CONTINUOUS
 62
     7
 10
260.2724195362641
 20
-120.7898559023495
 30
0.0
 11
183.2724195362641
 21
-120.7898559023495
 31
0.0
  0
INSERT
  5
1DC
  8
LAYER0001
  6
CONTINUOUS
  2
DC_GROUP_19
 10
0.0
 20
0.0
 30
0.0
  0
INSERT
  5
1DD
  8
LAYER0001
  6
CONTINUOUS
  2
DC_GROUP_20
 10
0.0
 20
0.0
 30
0.0
  0
TEXT
  5
1DE
  8
LAYER0001
 62
     7
 10
218.5724195362641
 20
-119.7898559023495
 30
0.0
 40
4.0
  1
77
 41
0.6476190476190453
  7
FDASTYLE1
 72
     5
 11
223.7533719172164
 21
-119.7898559023495
 31
0.0
  0
ENDBLK
  5
81
  8
0
  0
BLOCK
  8
0
  2
DC_GROUP_19
 70
     0
 10
0.0
 20
0.0
 30
0.0
  3
DC_GROUP_19
  1

  0
LINE
  5
1DF
  8
LAYER0001
  6
CONTINUOUS
 62
     7
 10
258.2724211286334
 20
-120.2539563674519
 30
0.0
 11
260.2724195362641
 21
-120.7898559023495
 31
0.0
  0
LINE
  5
1E0
  8
LAYER0001
  6
CONTINUOUS
 62
     7
 10
260.2724195362641
 20
-120.7898559023495
 30
0.0
 11
258.2724211286334
 21
-121.3257554372471
 31
0.0
  0
LINE
  5
1E1
  8
LAYER0001
  6
CONTINUOUS
 62
     7
 10
260.2724195362641
 20
-120.7898559023495
 30
0.0
 11
258.2724211286334
 21
-120.7898559023495
 31
0.0
  0
ENDBLK
  5
84
  8
0
  0
BLOCK
  8
0
  2
DC_GROUP_20
 70
     0
 10
0.0
 20
0.0
 30
0.0
  3
DC_GROUP_20
  1

  0
LINE
  5
1E2
  8
LAYER0001
  6
CONTINUOUS
 62
     7
 10
185.2724179438947
 20
-121.3257554372471
 30
0.0
 11
183.2724195362641
 21
-120.7898559023495
 31
0.0
  0
LINE
  5
1E3
  8
LAYER0001
  6
CONTINUOUS
 62
     7
 10
183.2724195362641
 20
-120.7898559023495
 30
0.0
 11
185.2724179438947
 21
-120.2539563674519
 31
0.0
  0
LINE
  5
1E4
  8
LAYER0001
  6
CONTINUOUS
 62
     7
 10
183.2724195362641
 20
-120.7898559023495
 30
0.0
 11
185.2724179438947
 21
-120.7898559023495
 31
0.0
  0
ENDBLK
  5
87
  8
0
  0
BLOCK
  8
0
  2
DC_GROUP_21
 70
     0
 10
0.0
 20
0.0
 30
0.0
  3
DC_GROUP_21
  1

  0
LINE
  5
1E5
  8
LAYER0001
  6
CONTINUOUS
 62
     7
 10
187.4724317432954
 20
-96.64557348640336
 30
0.0
 11
225.3893018604829
 21
-96.64557348640336
 31
0.0
  0
LINE
  5
1E6
  8
LAYER0001
  6
CONTINUOUS
 62
     7
 10
187.4724317432954
 20
-63.03073786035736
 30
0.0
 11
187.4724317432954
 21
-97.64557348640336
 31
0.0
  0
LINE
  5
1E7
  8
LAYER0001
  6
CONTINUOUS
 62
     7
 10
225.3893018604829
 20
0.4692621396426446
 30
0.0
 11
225.3893018604829
 21
-97.64557348640336
 31
0.0
  0
INSERT
  5
1E8
  8
LAYER0001
  6
CONTINUOUS
  2
DC_GROUP_22
 10
0.0
 20
0.0
 30
0.0
  0
INSERT
  5
1E9
  8
LAYER0001
  6
CONTINUOUS
  2
DC_GROUP_23
 10
0.0
 20
0.0
 30
0.0
  0
TEXT
  5
1EA
  8
LAYER0001
 62
     7
 10
194.088009154947
 20
-95.04557348640337
 30
0.0
 40
4.0
  1
MAX 49.8
 41
0.6952380952380963
  7
FDASTYLE1
 72
     5
 11
216.3356282025661
 21
-95.04557348640337
 31
0.0
  0
ENDBLK
  5
8A
  8
0
  0
BLOCK
  8
0
  2
DC_GROUP_22
 70
     0
 10
0.0
 20
0.0
 30
0.0
  3
DC_GROUP_22
  1

  0
LINE
  5
1EB
  8
LAYER0001
  6
CONTINUOUS
 62
     7
 10
189.4724301509261
 20
-97.18147302130099
 30
0.0
 11
187.4724317432954
 21
-96.64557348640336
 31
0.0
  0
LINE
  5
1EC
  8
LAYER0001
  6
CONTINUOUS
 62
     7
 10
187.4724317432954
 20
-96.64557348640336
 30
0.0
 11
189.4724301509261
 21
-96.10967395150576
 31
0.0
  0
LINE
  5
1ED
  8
LAYER0001
  6
CONTINUOUS
 62
     7
 10
187.4724317432954
 20
-96.64557348640336
 30
0.0
 11
189.4724301509261
 21
-96.64557348640336
 31
0.0
  0
ENDBLK
  5
8D
  8
0
  0
BLOCK
  8
0
  2
DC_GROUP_23
 70
     0
 10
0.0
 20
0.0
 30
0.0
  3
DC_GROUP_23
  1

  0
LINE
  5
1EE
  8
LAYER0001
  6
CONTINUOUS
 62
     7
 10
223.3893034528523
 20
-96.10967395150576
 30
0.0
 11
225.3893018604829
 21
-96.64557348640336
 31
0.0
  0
LINE
  5
1EF
  8
LAYER0001
  6
CONTINUOUS
 62
     7
 10
225.3893018604829
 20
-96.64557348640336
 30
0.0
 11
223.3893034528523
 21
-97.18147302130099
 31
0.0
  0
LINE
  5
1F0
  8
LAYER0001
  6
CONTINUOUS
 62
     7
 10
225.3893018604829
 20
-96.64557348640336
 30
0.0
 11
223.3893034528523
 21
-96.64557348640336
 31
0.0
  0
ENDBLK
  5
90
  8
0
  0
BLOCK
  8
0
  2
DC_GROUP_24
 70
     0
 10
0.0
 20
0.0
 30
0.0
  3
DC_GROUP_24
  1

  0
LINE
  5
1F1
  8
LAYER0001
  6
CONTINUOUS
 62
     7
 10
196.3893018604829
 20
18.99910009604134
 30
0.0
 11
225.3893018604829
 21
18.99910009604134
 31
0.0
  0
INSERT
  5
1F2
  8
LAYER0001
  6
CONTINUOUS
  2
DC_GROUP_25
 10
0.0
 20
0.0
 30
0.0
  0
INSERT
  5
1F3
  8
LAYER0001
  6
CONTINUOUS
  2
DC_GROUP_26
 10
0.0
 20
0.0
 30
0.0
  0
TEXT
  5
1F4
  8
LAYER0001
 62
     7
 10
208.1464442135407
 20
20.59910009604133
 30
0.0
 40
4.0
  1
29
 41
0.6285714285714263
  7
FDASTYLE1
 72
     5
 11
213.1750156421121
 21
20.59910009604133
 31
0.0
  0
ENDBLK
  5
93
  8
0
  0
BLOCK
  8
0
  2
DC_GROUP_25
 70
     0
 10
0.0
 20
0.0
 30
0.0
  3
DC_GROUP_25
  1

  0
LINE
  5
1F5
  8
LAYER0001
  6
CONTINUOUS
 62
     7
 10
198.3893002681136
 20
18.46320056114373
 30
0.0
 11
196.3893018604829
 21
18.99910009604134
 31
0.0
  0
LINE
  5
1F6
  8
LAYER0001
  6
CONTINUOUS
 62
     7
 10
196.3893018604829
 20
18.99910009604134
 30
0.0
 11
198.3893002681136
 21
19.53499963093894
 31
0.0
  0
LINE
  5
1F7
  8
LAYER0001
  6
CONTINUOUS
 62
     7
 10
196.3893018604829
 20
18.99910009604134
 30
0.0
 11
198.3893002681136
 21
18.99910009604134
 31
0.0
  0
ENDBLK
  5
96
  8
0
  0
BLOCK
  8
0
  2
DC_GROUP_26
 70
     0
 10
0.0
 20
0.0
 30
0.0
  3
DC_GROUP_26
  1

  0
LINE
  5
1F8
  8
LAYER0001
  6
CONTINUOUS
 62
     7
 10
223.3893034528523
 20
19.53499963093895
 30
0.0
 11
225.3893018604829
 21
18.99910009604134
 31
0.0
  0
LINE
  5
1F9
  8
LAYER0001
  6
CONTINUOUS
 62
     7
 10
225.3893018604829
 20
18.99910009604134
 30
0.0
 11
223.3893034528523
 21
18.46320056114373
 31
0.0
  0
LINE
  5
1FA
  8
LAYER0001
  6
CONTINUOUS
 62
     7
 10
225.3893018604829
 20
18.99910009604134
 30
0.0
 11
223.3893034528523
 21
18.99910009604134
 31
0.0
  0
ENDBLK
  5
99
  8
0
  0
BLOCK
  8
0
  2
DC_GROUP_27
 70
     0
 10
0.0
 20
0.0
 30
0.0
  3
DC_GROUP_27
  1

  0
LINE
  5
1FB
  8
LAYER0001
  6
CONTINUOUS
 62
     7
 10
225.3893018604829
 20
18.90042119725983
 30
0.0
 11
237.3893018604829
 21
18.90042119725983
 31
0.0
  0
INSERT
  5
1FC
  8
LAYER0001
  6
CONTINUOUS
  2
DC_GROUP_28
 10
0.0
 20
0.0
 30
0.0
  0
INSERT
  5
1FD
  8
LAYER0001
  6
CONTINUOUS
  2
DC_GROUP_29
 10
0.0
 20
0.0
 30
0.0
  0
TEXT
  5
1FE
  8
LAYER0001
 62
     7
 10
228.1893018604829
 20
19.90042119725983
 30
0.0
 40
4.0
  1
12
 41
0.5904761904761884
  7
FDASTYLE1
 72
     5
 11
232.9131113842924
 21
19.90042119725983
 31
0.0
  0
ENDBLK
  5
9C
  8
0
  0
BLOCK
  8
0
  2
DC_GROUP_28
 70
     0
 10
0.0
 20
0.0
 30
0.0
  3
DC_GROUP_28
  1

  0
LINE
  5
1FF
  8
LAYER0001
  6
CONTINUOUS
 62
     7
 10
227.3893002681136
 20
18.36452166236222
 30
0.0
 11
225.3893018604829
 21
18.90042119725983
 31
0.0
  0
LINE
  5
200
  8
LAYER0001
  6
CONTINUOUS
 62
     7
 10
225.3893018604829
 20
18.90042119725983
 30
0.0
 11
227.3893002681136
 21
19.43632073215743
 31
0.0
  0
LINE
  5
201
  8
LAYER0001
  6
CONTINUOUS
 62
     7
 10
225.3893018604829
 20
18.90042119725983
 30
0.0
 11
227.3893002681136
 21
18.90042119725983
 31
0.0
  0
ENDBLK
  5
9F
  8
0
  0
BLOCK
  8
0
  2
DC_GROUP_29
 70
     0
 10
0.0
 20
0.0
 30
0.0
  3
DC_GROUP_29
  1

  0
LINE
  5
202
  8
LAYER0001
  6
CONTINUOUS
 62
     7
 10
235.3893034528522
 20
19.43632073215744
 30
0.0
 11
237.3893018604829
 21
18.90042119725983
 31
0.0
  0
LINE
  5
203
  8
LAYER0001
  6
CONTINUOUS
 62
     7
 10
237.3893018604829
 20
18.90042119725983
 30
0.0
 11
235.3893034528522
 21
18.36452166236222
 31
0.0
  0
LINE
  5
204
  8
LAYER0001
  6
CONTINUOUS
 62
     7
 10
237.3893018604829
 20
18.90042119725983
 30
0.0
 11
235.3893034528522
 21
18.90042119725983
 31
0.0
  0
ENDBLK
  5
A2
  8
0
  0
BLOCK
  8
0
  2
DC_GROUP_30
 70
     0
 10
0.0
 20
0.0
 30
0.0
  3
DC_GROUP_30
  1

  0
LINE
  5
205
  8
LAYER0001
  6
CONTINUOUS
 62
     7
 10
237.3893018604829
 20
18.90042119725983
 30
0.0
 11
246.3893018604829
 21
18.90042119725983
 31
0.0
  0
LINE
  5
206
  8
LAYER0001
  6
CONTINUOUS
 62
     7
 10
237.3893018604829
 20
18.90042119725983
 30
0.0
 11
231.0393018604829
 21
18.90042119725983
 31
0.0
  0
LINE
  5
207
  8
LAYER0001
  6
CONTINUOUS
 62
     7
 10
252.7393018604828
 20
18.90042119725983
 30
0.0
 11
246.3893018604829
 21
18.90042119725983
 31
0.0
  0
INSERT
  5
208
  8
LAYER0001
  6
CONTINUOUS
  2
DC_GROUP_31
 10
0.0
 20
0.0
 30
0.0
  0
INSERT
  5
209
  8
LAYER0001
  6
CONTINUOUS
  2
DC_GROUP_32
 10
0.0
 20
0.0
 30
0.0
  0
TEXT
  5
20A
  8
LAYER0001
 62
     7
 10
240.7464442135407
 20
20.50042119725983
 30
0.0
 40
4.0
  1
9
 41
0.4952380952380935
  7
FDASTYLE1
 72
     5
 11
242.7273965944931
 21
20.50042119725983
 31
0.0
  0
ENDBLK
  5
A5
  8
0
  0
BLOCK
  8
0
  2
DC_GROUP_31
 70
     0
 10
0.0
 20
0.0
 30
0.0
  3
DC_GROUP_31
  1

  0
LINE
  5
20B
  8
LAYER0001
  6
CONTINUOUS
 62
     7
 10
235.3893034528522
 20
19.43632073215744
 30
0.0
 11
237.3893018604829
 21
18.90042119725983
 31
0.0
  0
LINE
  5
20C
  8
LAYER0001
  6
CONTINUOUS
 62
     7
 10
237.3893018604829
 20
18.90042119725983
 30
0.0
 11
235.3893034528522
 21
18.36452166236222
 31
0.0
  0
LINE
  5
20D
  8
LAYER0001
  6
CONTINUOUS
 62
     7
 10
237.3893018604829
 20
18.90042119725983
 30
0.0
 11
235.3893034528522
 21
18.90042119725983
 31
0.0
  0
ENDBLK
  5
A8
  8
0
  0
BLOCK
  8
0
  2
DC_GROUP_32
 70
     0
 10
0.0
 20
0.0
 30
0.0
  3
DC_GROUP_32
  1

  0
LINE
  5
20E
  8
LAYER0001
  6
CONTINUOUS
 62
     7
 10
248.3893002681136
 20
18.36452166236222
 30
0.0
 11
246.3893018604829
 21
18.90042119725983
 31
0.0
  0
LINE
  5
20F
  8
LAYER0001
  6
CONTINUOUS
 62
     7
 10
246.3893018604829
 20
18.90042119725983
 30
0.0
 11
248.3893002681136
 21
19.43632073215744
 31
0.0
  0
LINE
  5
210
  8
LAYER0001
  6
CONTINUOUS
 62
     7
 10
246.3893018604829
 20
18.90042119725983
 30
0.0
 11
248.3893002681136
 21
18.90042119725983
 31
0.0
  0
ENDBLK
  5
AB
  8
0
  0
BLOCK
  8
0
  2
DC_GROUP_33
 70
     0
 10
0.0
 20
0.0
 30
0.0
  3
DC_GROUP_33
  1

  0
LINE
  5
211
  8
LAYER0001
  6
CONTINUOUS
 62
     7
 10
320.5733228565766
 20
34.50926213964264
 30
0.0
 11
320.5733228565766
 21
76.80926519140046
 31
0.0
  0
LINE
  5
212
  8
LAYER0001
  6
CONTINUOUS
 62
     7
 10
309.4686379590444
 20
34.50926213964264
 30
0.0
 11
321.5733228565766
 21
34.50926213964264
 31
0.0
  0
LINE
  5
213
  8
LAYER0001
  6
CONTINUOUS
 62
     7
 10
261.8124195362641
 20
76.80926519140046
 30
0.0
 11
321.5733228565766
 21
76.80926519140046
 31
0.0
  0
INSERT
  5
214
  8
LAYER0001
  6
CONTINUOUS
  2
DC_GROUP_34
 10
0.0
 20
0.0
 30
0.0
  0
INSERT
  5
215
  8
LAYER0001
  6
CONTINUOUS
  2
DC_GROUP_35
 10
0.0
 20
0.0
 30
0.0
  0
TEXT
  5
216
  8
LAYER0001
 62
     7
 10
318.9733228565766
 20
43.31640601857941
 30
0.0
 40
4.0
  1
MAX 43.9
 50
90.0
 41
0.69047619047619
  7
FDASTYLE1
 72
     5
 11
318.9733228565766
 21
65.41164411381749
 31
0.0
  0
ENDBLK
  5
AE
  8
0
  0
BLOCK
  8
0
  2
DC_GROUP_34
 70
     0
 10
0.0
 20
0.0
 30
0.0
  3
DC_GROUP_34
  1

  0
LINE
  5
217
  8
LAYER0001
  6
CONTINUOUS
 62
     7
 10
321.1092223914742
 20
36.5092605472733
 30
0.0
 11
320.5733228565766
 21
34.50926213964264
 31
0.0
  0
LINE
  5
218
  8
LAYER0001
  6
CONTINUOUS
 62
     7
 10
320.5733228565766
 20
34.50926213964264
 30
0.0
 11
320.0374233216789
 21
36.5092605472733
 31
0.0
  0
LINE
  5
219
  8
LAYER0001
  6
CONTINUOUS
 62
     7
 10
320.5733228565766
 20
34.50926213964264
 30
0.0
 11
320.5733228565766
 21
36.5092605472733
 31
0.0
  0
ENDBLK
  5
B1
  8
0
  0
BLOCK
  8
0
  2
DC_GROUP_35
 70
     0
 10
0.0
 20
0.0
 30
0.0
  3
DC_GROUP_35
  1

  0
LINE
  5
21A
  8
LAYER0001
  6
CONTINUOUS
 62
     7
 10
320.0374233216789
 20
74.8092667837698
 30
0.0
 11
320.5733228565766
 21
76.80926519140046
 31
0.0
  0
LINE
  5
21B
  8
LAYER0001
  6
CONTINUOUS
 62
     7
 10
320.5733228565766
 20
76.80926519140046
 30
0.0
 11
321.1092223914742
 21
74.8092667837698
 31
0.0
  0
LINE
  5
21C
  8
LAYER0001
  6
CONTINUOUS
 62
     7
 10
320.5733228565766
 20
76.80926519140046
 30
0.0
 11
320.5733228565766
 21
74.8092667837698
 31
0.0
  0
ENDBLK
  5
B4
  8
0
  0
BLOCK
  8
0
  2
DC_GROUP_36
 70
     0
 10
0.0
 20
0.0
 30
0.0
  3
DC_GROUP_36
  1

  0
LINE
  5
21D
  8
LAYER0001
  6
CONTINUOUS
 62
     7
 10
320.5733228565766
 20
76.80926519140046
 30
0.0
 11
320.5733228565766
 21
141.3092651914005
 31
0.0
  0
LINE
  5
21E
  8
LAYER0001
  6
CONTINUOUS
 62
     7
 10
261.8124195362641
 20
76.80926519140046
 30
0.0
 11
321.5733228565766
 21
76.80926519140046
 31
0.0
  0
LINE
  5
21F
  8
LAYER0001
  6
CONTINUOUS
 62
     7
 10
261.8124195362641
 20
141.3092651914005
 30
0.0
 11
321.5733228565766
 21
141.3092651914005
 31
0.0
  0
INSERT
  5
220
  8
LAYER0001
  6
CONTINUOUS
  2
DC_GROUP_37
 10
0.0
 20
0.0
 30
0.0
  0
INSERT
  5
221
  8
LAYER0001
  6
CONTINUOUS
  2
DC_GROUP_38
 10
0.0
 20
0.0
 30
0.0
  0
TEXT
  5
222
  8
LAYER0001
 62
     7
 10
318.9733228565766
 20
103.1164075444583
 30
0.0
 40
4.0
  1
64.5
 50
90.0
 41
0.5999999999999979
  7
FDASTYLE1
 72
     5
 11
318.9733228565766
 21
112.7164075444583
 31
0.0
  0
ENDBLK
  5
B7
  8
0
  0
BLOCK
  8
0
  2
DC_GROUP_37
 70
     0
 10
0.0
 20
0.0
 30
0.0
  3
DC_GROUP_37
  1

  0
LINE
  5
223
  8
LAYER0001
  6
CONTINUOUS
 62
     7
 10
321.1092223914742
 20
78.80926359903113
 30
0.0
 11
320.5733228565766
 21
76.80926519140046
 31
0.0
  0
LINE
  5
224
  8
LAYER0001
  6
CONTINUOUS
 62
     7
 10
320.5733228565766
 20
76.80926519140046
 30
0.0
 11
320.0374233216789
 21
78.80926359903113
 31
0.0
  0
LINE
  5
225
  8
LAYER0001
  6
CONTINUOUS
 62
     7
 10
320.5733228565766
 20
76.80926519140046
 30
0.0
 11
320.5733228565766
 21
78.80926359903113
 31
0.0
  0
ENDBLK
  5
BA
  8
0
  0
BLOCK
  8
0
  2
DC_GROUP_38
 70
     0
 10
0.0
 20
0.0
 30
0.0
  3
DC_GROUP_38
  1

  0
LINE
  5
226
  8
LAYER0001
  6
CONTINUOUS
 62
     7
 10
320.0374233216789
 20
139.3092667837698
 30
0.0
 11
320.5733228565766
 21
141.3092651914005
 31
0.0
  0
LINE
  5
227
  8
LAYER0001
  6
CONTINUOUS
 62
     7
 10
320.5733228565766
 20
141.3092651914005
 30
0.0
 11
321.1092223914742
 21
139.3092667837698
 31
0.0
  0
LINE
  5
228
  8
LAYER0001
  6
CONTINUOUS
 62
     7
 10
320.5733228565766
 20
141.3092651914005
 30
0.0
 11
320.5733228565766
 21
139.3092667837698
 31
0.0
  0
ENDBLK
  5
BD
  8
0
  0
BLOCK
  8
0
  2
DC_GROUP_39
 70
     0
 10
0.0
 20
0.0
 30
0.0
  3
DC_GROUP_39
  1

  0
LINE
  5
229
  8
LAYER0001
  6
CONTINUOUS
 62
     7
 10
257.7724195362641
 20
25.19901487793455
 30
0.0
 11
260.2724195362641
 21
25.19901487793455
 31
0.0
  0
LINE
  5
22A
  8
LAYER0001
  6
CONTINUOUS
 62
     7
 10
257.7724195362641
 20
25.19901487793455
 30
0.0
 11
251.4224195362641
 21
25.19901487793455
 31
0.0
  0
LINE
  5
22B
  8
LAYER0001
  6
CONTINUOUS
 62
     7
 10
272.6656192322425
 20
25.19901487793455
 30
0.0
 11
260.2724195362641
 21
25.19901487793455
 31
0.0
  0
INSERT
  5
22C
  8
LAYER0001
  6
CONTINUOUS
  2
DC_GROUP_40
 10
0.0
 20
0.0
 30
0.0
  0
INSERT
  5
22D
  8
LAYER0001
  6
CONTINUOUS
  2
DC_GROUP_41
 10
0.0
 20
0.0
 30
0.0
  0
TEXT
  5
22E
  8
LAYER0001
 62
     7
 10
263.0730165468343
 20
26.80659215363608
 30
0.0
 40
4.0
  1
2.5
 50
-0.1000000000000078
 41
0.5587301587301553
  7
FDASTYLE1
 72
     5
 11
269.7777682396624
 21
26.7948901424971
 31
0.0
  0
ENDBLK
  5
C0
  8
0
  0
BLOCK
  8
0
  2
DC_GROUP_40
 70
     0
 10
0.0
 20
0.0
 30
0.0
  3
DC_GROUP_40
  1

  0
LINE
  5
22F
  8
LAYER0001
  6
CONTINUOUS
 62
     7
 10
255.7724211286334
 20
25.73491441283216
 30
0.0
 11
257.7724195362641
 21
25.19901487793455
 31
0.0
  0
LINE
  5
230
  8
LAYER0001
  6
CONTINUOUS
 62
     7
 10
257.7724195362641
 20
25.19901487793455
 30
0.0
 11
255.7724211286334
 21
24.66311534303695
 31
0.0
  0
LINE
  5
231
  8
LAYER0001
  6
CONTINUOUS
 62
     7
 10
257.7724195362641
 20
25.19901487793455
 30
0.0
 11
255.7724211286334
 21
25.19901487793455
 31
0.0
  0
ENDBLK
  5
C3
  8
0
  0
BLOCK
  8
0
  2
DC_GROUP_41
 70
     0
 10
0.0
 20
0.0
 30
0.0
  3
DC_GROUP_41
  1

  0
LINE
  5
232
  8
LAYER0001
  6
CONTINUOUS
 62
     7
 10
262.2724179438948
 20
24.66311534303695
 30
0.0
 11
260.2724195362641
 21
25.19901487793455
 31
0.0
  0
LINE
  5
233
  8
LAYER0001
  6
CONTINUOUS
 62
     7
 10
260.2724195362641
 20
25.19901487793455
 30
0.0
 11
262.2724179438948
 21
25.73491441283216
 31
0.0
  0
LINE
  5
234
  8
LAYER0001
  6
CONTINUOUS
 62
     7
 10
260.2724195362641
 20
25.19901487793455
 30
0.0
 11
262.2724179438948
 21
25.19901487793455
 31
0.0
  0
ENDBLK
  5
C6
  8
0
  0
BLOCK
  8
0
  2
DC_GROUP_42
 70
     0
 10
0.0
 20
0.0
 30
0.0
  3
DC_GROUP_42
  1

  0
LINE
  5
235
  8
LAYER0001
  6
CONTINUOUS
 62
     7
 10
196.3893018604829
 20
73.04926213964264
 30
0.0
 11
196.3893018604829
 21
164.9212952206974
 31
0.0
  0
LINE
  5
236
  8
LAYER0001
  6
CONTINUOUS
 62
     7
 10
187.4724317432954
 20
132.0492621396427
 30
0.0
 11
187.4724317432954
 21
164.9212952206974
 31
0.0
  0
LINE
  5
237
  8
LAYER0001
  6
CONTINUOUS
 62
     7
 10
196.3893018604829
 20
162.6352997372989
 30
0.0
 11
187.4724317432954
 21
162.6352997372989
 31
0.0
  0
LINE
  5
238
  8
LAYER0001
  6
CONTINUOUS
 62
     7
 10
196.3893018604829
 20
162.6352997372989
 30
0.0
 11
202.7393018604828
 21
162.6352997372989
 31
0.0
  0
LINE
  5
239
  8
LAYER0001
  6
CONTINUOUS
 62
     7
 10
181.1224317432954
 20
162.6352997372989
 30
0.0
 11
187.4724317432954
 21
162.6352997372989
 31
0.0
  0
INSERT
  5
23A
  8
LAYER0001
  6
CONTINUOUS
  2
DC_GROUP_43
 10
0.0
 20
0.0
 30
0.0
  0
INSERT
  5
23B
  8
LAYER0001
  6
CONTINUOUS
  2
DC_GROUP_44
 10
0.0
 20
0.0
 30
0.0
  0
TEXT
  5
23C
  8
LAYER0001
 62
     7
 10
162.3089808346345
 20
164.2352997372989
 30
0.0
 40
4.0
  1
MAX20.8
 41
0.6802721088435371
  7
FDASTYLE1
 72
     5
 11
181.3565998822535
 21
164.2352997372989
 31
0.0
  0
ENDBLK
  5
C9
  8
0
  0
BLOCK
  8
0
  2
DC_GROUP_43
 70
     0
 10
0.0
 20
0.0
 30
0.0
  3
DC_GROUP_43
  1

  0
LINE
  5
23D
  8
LAYER0001
  6
CONTINUOUS
 62
     7
 10
198.3893002681136
 20
162.0994002024013
 30
0.0
 11
196.3893018604829
 21
162.6352997372989
 31
0.0
  0
LINE
  5
23E
  8
LAYER0001
  6
CONTINUOUS
 62
     7
 10
196.3893018604829
 20
162.6352997372989
 30
0.0
 11
198.3893002681136
 21
163.1711992721965
 31
0.0
  0
LINE
  5
23F
  8
LAYER0001
  6
CONTINUOUS
 62
     7
 10
196.3893018604829
 20
162.6352997372989
 30
0.0
 11
198.3893002681136
 21
162.6352997372989
 31
0.0
  0
ENDBLK
  5
CC
  8
0
  0
BLOCK
  8
0
  2
DC_GROUP_44
 70
     0
 10
0.0
 20
0.0
 30
0.0
  3
DC_GROUP_44
  1

  0
LINE
  5
240
  8
LAYER0001
  6
CONTINUOUS
 62
     7
 10
185.4724333356647
 20
163.1711992721965
 30
0.0
 11
187.4724317432954
 21
162.6352997372989
 31
0.0
  0
LINE
  5
241
  8
LAYER0001
  6
CONTINUOUS
 62
     7
 10
187.4724317432954
 20
162.6352997372989
 30
0.0
 11
185.4724333356647
 21
162.0994002024013
 31
0.0
  0
LINE
  5
242
  8
LAYER0001
  6
CONTINUOUS
 62
     7
 10
187.4724317432954
 20
162.6352997372989
 30
0.0
 11
185.4724333356647
 21
162.6352997372989
 31
0.0
  0
ENDBLK
  5
CF
  8
0
  0
BLOCK
  8
0
  2
DC_GROUP_45
 70
     0
 10
0.0
 20
0.0
 30
0.0
  3
DC_GROUP_45
  1

  0
LINE
  5
243
  8
LAYER0001
  6
CONTINUOUS
 62
     7
 10
260.2724195362641
 20
142.5492621396426
 30
0.0
 11
260.2724195362641
 21
164.8209534238224
 31
0.0
  0
LINE
  5
244
  8
LAYER0001
  6
CONTINUOUS
 62
     7
 10
259.2724195362641
 20
143.8492651914004
 30
0.0
 11
259.2724195362641
 21
164.8209534238224
 31
0.0
  0
LINE
  5
245
  8
LAYER0001
  6
CONTINUOUS
 62
     7
 10
260.2724195362641
 20
162.5349579404239
 30
0.0
 11
259.2724195362641
 21
162.5349579404239
 31
0.0
  0
LINE
  5
246
  8
LAYER0001
  6
CONTINUOUS
 62
     7
 10
260.2724195362641
 20
162.5349579404239
 30
0.0
 11
266.6224195362641
 21
162.5349579404239
 31
0.0
  0
LINE
  5
247
  8
LAYER0001
  6
CONTINUOUS
 62
     7
 10
252.9224195362641
 20
162.5349579404239
 30
0.0
 11
259.2724195362641
 21
162.5349579404239
 31
0.0
  0
INSERT
  5
248
  8
LAYER0001
  6
CONTINUOUS
  2
DC_GROUP_46
 10
0.0
 20
0.0
 30
0.0
  0
INSERT
  5
249
  8
LAYER0001
  6
CONTINUOUS
  2
DC_GROUP_47
 10
0.0
 20
0.0
 30
0.0
  0
TEXT
  5
24A
  8
LAYER0001
 62
     7
 10
253.4596247555329
 20
164.1349579404239
 30
0.0
 40
4.0
  1
1
 41
0.1904761904761898
  7
FDASTYLE1
 72
     5
 11
254.2215295174377
 21
164.1349579404239
 31
0.0
  0
ENDBLK
  5
D2
  8
0
  0
BLOCK
  8
0
  2
DC_GROUP_46
 70
     0
 10
0.0
 20
0.0
 30
0.0
  3
DC_GROUP_46
  1

  0
LINE
  5
24B
  8
LAYER0001
  6
CONTINUOUS
 62
     7
 10
262.2724179438948
 20
161.9990584055263
 30
0.0
 11
260.2724195362641
 21
162.5349579404239
 31
0.0
  0
LINE
  5
24C
  8
LAYER0001
  6
CONTINUOUS
 62
     7
 10
260.2724195362641
 20
162.5349579404239
 30
0.0
 11
262.2724179438948
 21
163.0708574753215
 31
0.0
  0
LINE
  5
24D
  8
LAYER0001
  6
CONTINUOUS
 62
     7
 10
260.2724195362641
 20
162.5349579404239
 30
0.0
 11
262.2724179438948
 21
162.5349579404239
 31
0.0
  0
ENDBLK
  5
D5
  8
0
  0
BLOCK
  8
0
  2
DC_GROUP_47
 70
     0
 10
0.0
 20
0.0
 30
0.0
  3
DC_GROUP_47
  1

  0
LINE
  5
24E
  8
LAYER0001
  6
CONTINUOUS
 62
     7
 10
257.2724211286334
 20
163.0708574753215
 30
0.0
 11
259.2724195362641
 21
162.5349579404239
 31
0.0
  0
LINE
  5
24F
  8
LAYER0001
  6
CONTINUOUS
 62
     7
 10
259.2724195362641
 20
162.5349579404239
 30
0.0
 11
257.2724211286334
 21
161.9990584055263
 31
0.0
  0
LINE
  5
250
  8
LAYER0001
  6
CONTINUOUS
 62
     7
 10
259.2724195362641
 20
162.5349579404239
 30
0.0
 11
257.2724211286334
 21
162.5349579404239
 31
0.0
  0
ENDBLK
  5
D8
  8
0
  0
BLOCK
  8
0
  2
DC_GROUP_48
 70
     0
 10
0.0
 20
0.0
 30
0.0
  3
DC_GROUP_48
  1

  0
LINE
  5
251
  8
LAYER0001
  6
CONTINUOUS
 62
     7
 10
259.2883819973979
 20
136.6119826512428
 30
0.0
 11
285.4522257245419
 21
167.4541326106825
 31
0.0
  0
LINE
  5
252
  8
LAYER0001
  6
CONTINUOUS
 62
     7
 10
285.452221477182
 20
167.4541473935489
 30
0.0
 11
332.0818906666352
 21
167.4541473935489
 31
0.0
  0
INSERT
  5
253
  8
LAYER0001
  6
CONTINUOUS
  2
DC_GROUP_49
 10
0.0
 20
0.0
 30
0.0
  0
TEXT
  5
254
  8
LAYER0001
 62
     7
 10
285.9720502735688
 20
169.0541473935489
 30
0.0
 40
4.0
  1
ｾﾚｰｼｮﾝP1.5山60ﾟ
 41
0.6332076968855386
  7
FDASTYLE1
 72
     5
 11
321.9382474566673
 21
169.0541473935489
 31
0.0
  0
ENDBLK
  5
DB
  8
0
  0
BLOCK
  8
0
  2
DC_GROUP_49
 70
     0
 10
0.0
 20
0.0
 30
0.0
  3
DC_GROUP_49
  1

  0
LINE
  5
255
  8
LAYER0001
  6
CONTINUOUS
 62
     7
 10
260.9908474482628
 20
137.7904534105915
 30
0.0
 11
259.2883819973979
 21
136.6119826512428
 31
0.0
  0
LINE
  5
256
  8
LAYER0001
  6
CONTINUOUS
 62
     7
 10
259.2883819973979
 20
136.6119826512428
 30
0.0
 11
260.1735221936222
 21
138.483802294012
 31
0.0
  0
LINE
  5
257
  8
LAYER0001
  6
CONTINUOUS
 62
     7
 10
259.2883819973979
 20
136.6119826512428
 30
0.0
 11
260.5821848209425
 21
138.1371278523018
 31
0.0
  0
ENDBLK
  5
DE
  8
0
  0
BLOCK
  8
0
  2
DC_GROUP_50
 70
     0
 10
0.0
 20
0.0
 30
0.0
  3
DC_GROUP_50
  1

  0
LINE
  5
258
  8
LAYER0001
  6
CONTINUOUS
 62
     7
 10
164.7324195362641
 20
-26.16574091211517
 30
0.0
 11
151.3716627003266
 21
-26.16574091211517
 31
0.0
  0
LINE
  5
259
  8
LAYER0001
  6
CONTINUOUS
 62
     7
 10
164.7324195362641
 20
-38.16574091211517
 30
0.0
 11
151.3716627003266
 21
-38.16574091211517
 31
0.0
  0
LINE
  5
25A
  8
LAYER0001
  6
CONTINUOUS
 62
     7
 10
153.6576734425141
 20
-26.16574091211517
 30
0.0
 11
153.6576734425141
 21
-38.16574091211517
 31
0.0
  0
INSERT
  5
25B
  8
LAYER0001
  6
CONTINUOUS
  2
DC_GROUP_51
 10
0.0
 20
0.0
 30
0.0
  0
INSERT
  5
25C
  8
LAYER0001
  6
CONTINUOUS
  2
DC_GROUP_52
 10
0.0
 20
0.0
 30
0.0
  0
TEXT
  5
25D
  8
LAYER0001
 62
     7
 10
152.0500961668126
 20
-36.5057994191231
 30
0.0
 40
4.0
  1
M12
 50
89.90000000000001
 41
0.7238095238095257
  7
FDASTYLE1
 72
     5
 11
152.0652555903335
 21
-27.82009836250481
 31
0.0
  0
ENDBLK
  5
E1
  8
0
  0
BLOCK
  8
0
  2
DC_GROUP_51
 70
     0
 10
0.0
 20
0.0
 30
0.0
  3
DC_GROUP_51
  1

  0
LINE
  5
25E
  8
LAYER0001
  6
CONTINUOUS
 62
     7
 10
153.1217739076165
 20
-28.16573931974583
 30
0.0
 11
153.6576734425141
 21
-26.16574091211517
 31
0.0
  0
LINE
  5
25F
  8
LAYER0001
  6
CONTINUOUS
 62
     7
 10
153.6576734425141
 20
-26.16574091211517
 30
0.0
 11
154.1935729774117
 21
-28.16573931974583
 31
0.0
  0
LINE
  5
260
  8
LAYER0001
  6
CONTINUOUS
 62
     7
 10
153.6576734425141
 20
-26.16574091211517
 30
0.0
 11
153.6576734425141
 21
-28.16573931974583
 31
0.0
  0
ENDBLK
  5
E4
  8
0
  0
BLOCK
  8
0
  2
DC_GROUP_52
 70
     0
 10
0.0
 20
0.0
 30
0.0
  3
DC_GROUP_52
  1

  0
LINE
  5
261
  8
LAYER0001
  6
CONTINUOUS
 62
     7
 10
154.1935729774117
 20
-36.16574250448451
 30
0.0
 11
153.6576734425141
 21
-38.16574091211517
 31
0.0
  0
LINE
  5
262
  8
LAYER0001
  6
CONTINUOUS
 62
     7
 10
153.6576734425141
 20
-38.16574091211517
 30
0.0
 11
153.1217739076165
 21
-36.16574250448451
 31
0.0
  0
LINE
  5
263
  8
LAYER0001
  6
CONTINUOUS
 62
     7
 10
153.6576734425141
 20
-38.16574091211517
 30
0.0
 11
153.6576734425141
 21
-36.16574250448451
 31
0.0
  0
ENDBLK
  5
E7
  8
0
  0
BLOCK
  8
0
  2
DC_GROUP_53
 70
     0
 10
0.0
 20
0.0
 30
0.0
  3
DC_GROUP_53
  1

  0
LINE
  5
264
  8
LAYER0001
  6
CONTINUOUS
 62
     7
 10
274.612077355406
 20
126.2030641219616
 30
0.0
 11
293.6164442674851
 21
153.2092826832656
 31
0.0
  0
LINE
  5
265
  8
LAYER0001
  6
CONTINUOUS
 62
     7
 10
293.6164441944672
 20
153.2092743466739
 30
0.0
 11
305.6310659290863
 21
153.2092743466739
 31
0.0
  0
INSERT
  5
266
  8
LAYER0001
  6
CONTINUOUS
  2
DC_GROUP_54
 10
0.0
 20
0.0
 30
0.0
  0
TEXT
  5
267
  8
LAYER0001
 62
     7
 10
295.1167798878266
 20
154.8092743466739
 30
0.0
 40
4.0
  1
M10
 41
0.723809523809526
  7
FDASTYLE1
 72
     5
 11
303.8024941735409
 21
154.8092743466739
 31
0.0
  0
ENDBLK
  5
EA
  8
0
  0
BLOCK
  8
0
  2
DC_GROUP_54
 70
     0
 10
0.0
 20
0.0
 30
0.0
  3
DC_GROUP_54
  1

  0
LINE
  5
268
  8
LAYER0001
  6
CONTINUOUS
 62
     7
 10
276.2013250315842
 20
127.5302693682557
 30
0.0
 11
274.612077355406
 21
126.2030641219616
 31
0.0
  0
LINE
  5
269
  8
LAYER0001
  6
CONTINUOUS
 62
     7
 10
274.612077355406
 20
126.2030641219616
 30
0.0
 11
275.3248007329079
 21
128.1470824678603
 31
0.0
  0
LINE
  5
26A
  8
LAYER0001
  6
CONTINUOUS
 62
     7
 10
274.612077355406
 20
126.2030641219616
 30
0.0
 11
275.7630628822461
 21
127.838675918058
 31
0.0
  0
ENDBLK
  5
ED
  8
0
  0
BLOCK
  8
0
  2
DC_GROUP_55
 70
     0
 10
0.0
 20
0.0
 30
0.0
  3
DC_GROUP_55
  1

  0
LINE
  5
26B
  8
LAYER0001
  6
CONTINUOUS
 62
     7
 10
523.6849378259798
 20
-97.95452585474212
 30
0.0
 11
523.6849378259798
 21
-87.22563547388275
 31
0.0
  0
LINE
  5
26C
  8
LAYER0001
  6
CONTINUOUS
 62
     7
 10
541.6849378259798
 20
-97.95452585474212
 30
0.0
 11
541.6849378259798
 21
-87.22563547388275
 31
0.0
  0
LINE
  5
26D
  8
LAYER0001
  6
CONTINUOUS
 62
     7
 10
523.6849378259798
 20
-88.22563547388275
 30
0.0
 11
541.6849378259798
 21
-88.22563547388275
 31
0.0
  0
INSERT
  5
26E
  8
LAYER0001
  6
CONTINUOUS
  2
DC_GROUP_56
 10
0.0
 20
0.0
 30
0.0
  0
INSERT
  5
26F
  8
LAYER0001
  6
CONTINUOUS
  2
DC_GROUP_57
 10
0.0
 20
0.0
 30
0.0
  0
TEXT
  5
270
  8
LAYER0001
 62
     7
 10
527.8849378259798
 20
-86.62563547388275
 30
0.0
 40
4.0
  1
φ18
 41
0.6093750000000053
  7
FDASTYLE1
 72
     5
 11
535.6849378259799
 21
-86.62563547388275
 31
0.0
  0
ENDBLK
  5
F0
  8
0
  0
BLOCK
  8
0
  2
DC_GROUP_56
 70
     0
 10
0.0
 20
0.0
 30
0.0
  3
DC_GROUP_56
  1

  0
LINE
  5
271
  8
LAYER0001
  6
CONTINUOUS
 62
     7
 10
525.6849362336104
 20
-88.76153500878036
 30
0.0
 11
523.6849378259798
 21
-88.22563547388275
 31
0.0
  0
LINE
  5
272
  8
LAYER0001
  6
CONTINUOUS
 62
     7
 10
523.6849378259798
 20
-88.22563547388275
 30
0.0
 11
525.6849362336104
 21
-87.68973593898514
 31
0.0
  0
LINE
  5
273
  8
LAYER0001
  6
CONTINUOUS
 62
     7
 10
523.6849378259798
 20
-88.22563547388275
 30
0.0
 11
525.6849362336104
 21
-88.22563547388275
 31
0.0
  0
ENDBLK
  5
F3
  8
0
  0
BLOCK
  8
0
  2
DC_GROUP_57
 70
     0
 10
0.0
 20
0.0
 30
0.0
  3
DC_GROUP_57
  1

  0
LINE
  5
274
  8
LAYER0001
  6
CONTINUOUS
 62
     7
 10
539.6849394183491
 20
-87.68973593898514
 30
0.0
 11
541.6849378259798
 21
-88.22563547388275
 31
0.0
  0
LINE
  5
275
  8
LAYER0001
  6
CONTINUOUS
 62
     7
 10
541.6849378259798
 20
-88.22563547388275
 30
0.0
 11
539.6849394183491
 21
-88.76153500878036
 31
0.0
  0
LINE
  5
276
  8
LAYER0001
  6
CONTINUOUS
 62
     7
 10
541.6849378259798
 20
-88.22563547388275
 30
0.0
 11
539.6849394183491
 21
-88.22563547388275
 31
0.0
  0
ENDBLK
  5
F6
  8
0
  0
BLOCK
  8
0
  2
DC_GROUP_58
 70
     0
 10
0.0
 20
0.0
 30
0.0
  3
DC_GROUP_58
  1

  0
LINE
  5
277
  8
LAYER0001
  6
CONTINUOUS
 62
     7
 10
485.6849378259798
 20
-74.83074854150969
 30
0.0
 11
485.6849378259798
 21
-96.49073404566009
 31
0.0
  0
LINE
  5
278
  8
LAYER0001
  6
CONTINUOUS
 62
     7
 10
499.6849378259798
 20
-74.83074854150969
 30
0.0
 11
499.6849378259798
 21
-96.49073404566009
 31
0.0
  0
LINE
  5
279
  8
LAYER0001
  6
CONTINUOUS
 62
     7
 10
485.6849378259798
 20
-95.49073404566009
 30
0.0
 11
499.6849378259798
 21
-95.49073404566009
 31
0.0
  0
LINE
  5
27A
  8
LAYER0001
  6
CONTINUOUS
 62
     7
 10
485.6849378259798
 20
-95.49073404566009
 30
0.0
 11
479.3349378259799
 21
-95.49073404566009
 31
0.0
  0
LINE
  5
27B
  8
LAYER0001
  6
CONTINUOUS
 62
     7
 10
506.0349378259798
 20
-95.49073404566009
 30
0.0
 11
499.6849378259798
 21
-95.49073404566009
 31
0.0
  0
INSERT
  5
27C
  8
LAYER0001
  6
CONTINUOUS
  2
DC_GROUP_59
 10
0.0
 20
0.0
 30
0.0
  0
INSERT
  5
27D
  8
LAYER0001
  6
CONTINUOUS
  2
DC_GROUP_60
 10
0.0
 20
0.0
 30
0.0
  0
TEXT
  5
27E
  8
LAYER0001
 62
     7
 10
486.2849378259798
 20
-93.8907340456601
 30
0.0
 40
4.0
  1
14H8
 41
0.6952380952380963
  7
FDASTYLE1
 72
     5
 11
497.4087473497893
 21
-93.8907340456601
 31
0.0
  0
ENDBLK
  5
F9
  8
0
  0
BLOCK
  8
0
  2
DC_GROUP_59
 70
     0
 10
0.0
 20
0.0
 30
0.0
  3
DC_GROUP_59
  1

  0
LINE
  5
27F
  8
LAYER0001
  6
CONTINUOUS
 62
     7
 10
483.6849394183491
 20
-94.95483451076248
 30
0.0
 11
485.6849378259798
 21
-95.49073404566009
 31
0.0
  0
LINE
  5
280
  8
LAYER0001
  6
CONTINUOUS
 62
     7
 10
485.6849378259798
 20
-95.49073404566009
 30
0.0
 11
483.6849394183491
 21
-96.0266335805577
 31
0.0
  0
LINE
  5
281
  8
LAYER0001
  6
CONTINUOUS
 62
     7
 10
485.6849378259798
 20
-95.49073404566009
 30
0.0
 11
483.6849394183491
 21
-95.49073404566009
 31
0.0
  0
ENDBLK
  5
FC
  8
0
  0
BLOCK
  8
0
  2
DC_GROUP_60
 70
     0
 10
0.0
 20
0.0
 30
0.0
  3
DC_GROUP_60
  1

  0
LINE
  5
282
  8
LAYER0001
  6
CONTINUOUS
 62
     7
 10
501.6849362336104
 20
-96.0266335805577
 30
0.0
 11
499.6849378259798
 21
-95.49073404566009
 31
0.0
  0
LINE
  5
283
  8
LAYER0001
  6
CONTINUOUS
 62
     7
 10
499.6849378259798
 20
-95.49073404566009
 30
0.0
 11
501.6849362336104
 21
-94.95483451076248
 31
0.0
  0
LINE
  5
284
  8
LAYER0001
  6
CONTINUOUS
 62
     7
 10
499.6849378259798
 20
-95.49073404566009
 30
0.0
 11
501.6849362336104
 21
-95.49073404566009
 31
0.0
  0
ENDBLK
  5
FF
  8
0
  0
BLOCK
  8
0
  2
DC_GROUP_61
 70
     0
 10
0.0
 20
0.0
 30
0.0
  3
DC_GROUP_61
  1

  0
LINE
  5
285
  8
LAYER0001
  6
CONTINUOUS
 62
     7
 10
475.1849378259798
 20
-74.83074854150969
 30
0.0
 11
475.1849378259798
 21
-106.4907340456601
 31
0.0
  0
LINE
  5
286
  8
LAYER0001
  6
CONTINUOUS
 62
     7
 10
510.1849378259798
 20
-74.83074854150969
 30
0.0
 11
510.1849378259798
 21
-106.4907340456601
 31
0.0
  0
LINE
  5
287
  8
LAYER0001
  6
CONTINUOUS
 62
     7
 10
475.1849378259798
 20
-105.4907340456601
 30
0.0
 11
510.1849378259798
 21
-105.4907340456601
 31
0.0
  0
INSERT
  5
288
  8
LAYER0001
  6
CONTINUOUS
  2
DC_GROUP_62
 10
0.0
 20
0.0
 30
0.0
  0
INSERT
  5
289
  8
LAYER0001
  6
CONTINUOUS
  2
DC_GROUP_63
 10
0.0
 20
0.0
 30
0.0
  0
TEXT
  5
28A
  8
LAYER0001
 62
     7
 10
489.4849378259799
 20
-103.8907340456601
 30
0.0
 40
4.0
  1
35
 41
0.6476190476190453
  7
FDASTYLE1
 72
     5
 11
494.6658902069323
 21
-103.8907340456601
 31
0.0
  0
ENDBLK
  5
102
  8
0
  0
BLOCK
  8
0
  2
DC_GROUP_62
 70
     0
 10
0.0
 20
0.0
 30
0.0
  3
DC_GROUP_62
  1

  0
LINE
  5
28B
  8
LAYER0001
  6
CONTINUOUS
 62
     7
 10
477.1849362336104
 20
-106.0266335805577
 30
0.0
 11
475.1849378259798
 21
-105.4907340456601
 31
0.0
  0
LINE
  5
28C
  8
LAYER0001
  6
CONTINUOUS
 62
     7
 10
475.1849378259798
 20
-105.4907340456601
 30
0.0
 11
477.1849362336104
 21
-104.9548345107625
 31
0.0
  0
LINE
  5
28D
  8
LAYER0001
  6
CONTINUOUS
 62
     7
 10
475.1849378259798
 20
-105.4907340456601
 30
0.0
 11
477.1849362336104
 21
-105.4907340456601
 31
0.0
  0
ENDBLK
  5
105
  8
0
  0
BLOCK
  8
0
  2
DC_GROUP_63
 70
     0
 10
0.0
 20
0.0
 30
0.0
  3
DC_GROUP_63
  1

  0
LINE
  5
28E
  8
LAYER0001
  6
CONTINUOUS
 62
     7
 10
508.1849394183491
 20
-104.9548345107625
 30
0.0
 11
510.1849378259798
 21
-105.4907340456601
 31
0.0
  0
LINE
  5
28F
  8
LAYER0001
  6
CONTINUOUS
 62
     7
 10
510.1849378259798
 20
-105.4907340456601
 30
0.0
 11
508.1849394183491
 21
-106.0266335805577
 31
0.0
  0
LINE
  5
290
  8
LAYER0001
  6
CONTINUOUS
 62
     7
 10
510.1849378259798
 20
-105.4907340456601
 30
0.0
 11
508.1849394183491
 21
-105.4907340456601
 31
0.0
  0
ENDBLK
  5
108
  8
0
  0
BLOCK
  8
0
  2
DC_GROUP_64
 70
     0
 10
0.0
 20
0.0
 30
0.0
  3
DC_GROUP_64
  1

  0
LINE
  5
291
  8
LAYER0001
  6
CONTINUOUS
 62
     7
 10
492.6849378259798
 20
152.6280623410586
 30
0.0
 11
492.6849378259798
 21
156.3888283322696
 31
0.0
  0
LINE
  5
292
  8
LAYER0001
  6
CONTINUOUS
 62
     7
 10
452.6849378259798
 20
124.8904829953555
 30
0.0
 11
452.6849378259798
 21
156.3888283322696
 31
0.0
  0
LINE
  5
293
  8
LAYER0001
  6
CONTINUOUS
 62
     7
 10
492.6849378259798
 20
155.3888283322696
 30
0.0
 11
452.6849378259798
 21
155.3888283322696
 31
0.0
  0
INSERT
  5
294
  8
LAYER0001
  6
CONTINUOUS
  2
DC_GROUP_65
 10
0.0
 20
0.0
 30
0.0
  0
INSERT
  5
295
  8
LAYER0001
  6
CONTINUOUS
  2
DC_GROUP_66
 10
0.0
 20
0.0
 30
0.0
  0
TEXT
  5
296
  8
LAYER0001
 62
     7
 10
469.4849378259798
 20
156.9888283322696
 30
0.0
 40
4.0
  1
40
 41
0.6476190476190524
  7
FDASTYLE1
 72
     5
 11
474.6658902069322
 21
156.9888283322696
 31
0.0
  0
ENDBLK
  5
10B
  8
0
  0
BLOCK
  8
0
  2
DC_GROUP_65
 70
     0
 10
0.0
 20
0.0
 30
0.0
  3
DC_GROUP_65
  1

  0
LINE
  5
297
  8
LAYER0001
  6
CONTINUOUS
 62
     7
 10
490.6849394183491
 20
155.9247278671672
 30
0.0
 11
492.6849378259798
 21
155.3888283322696
 31
0.0
  0
LINE
  5
298
  8
LAYER0001
  6
CONTINUOUS
 62
     7
 10
492.6849378259798
 20
155.3888283322696
 30
0.0
 11
490.6849394183491
 21
154.852928797372
 31
0.0
  0
LINE
  5
299
  8
LAYER0001
  6
CONTINUOUS
 62
     7
 10
492.6849378259798
 20
155.3888283322696
 30
0.0
 11
490.6849394183491
 21
155.3888283322696
 31
0.0
  0
ENDBLK
  5
10E
  8
0
  0
BLOCK
  8
0
  2
DC_GROUP_66
 70
     0
 10
0.0
 20
0.0
 30
0.0
  3
DC_GROUP_66
  1

  0
LINE
  5
29A
  8
LAYER0001
  6
CONTINUOUS
 62
     7
 10
454.6849362336105
 20
154.852928797372
 30
0.0
 11
452.6849378259798
 21
155.3888283322696
 31
0.0
  0
LINE
  5
29B
  8
LAYER0001
  6
CONTINUOUS
 62
     7
 10
452.6849378259798
 20
155.3888283322696
 30
0.0
 11
454.6849362336105
 21
155.9247278671672
 31
0.0
  0
LINE
  5
29C
  8
LAYER0001
  6
CONTINUOUS
 62
     7
 10
452.6849378259798
 20
155.3888283322696
 30
0.0
 11
454.6849362336105
 21
155.3888283322696
 31
0.0
  0
ENDBLK
  5
111
  8
0
  0
BLOCK
  8
0
  2
DC_GROUP_67
 70
     0
 10
0.0
 20
0.0
 30
0.0
  3
DC_GROUP_67
  1

  0
LINE
  5
29D
  8
LAYER0001
  6
CONTINUOUS
 62
     7
 10
407.6951926477572
 20
109.0092659543399
 30
0.0
 11
355.6819952638766
 21
109.0092659543399
 31
0.0
  0
LINE
  5
29E
  8
LAYER0001
  6
CONTINUOUS
 62
     7
 10
370.1449387796541
 20
34.50926213964264
 30
0.0
 11
355.6819952638766
 21
34.50926213964264
 31
0.0
  0
LINE
  5
29F
  8
LAYER0001
  6
CONTINUOUS
 62
     7
 10
356.6819952638766
 20
109.0092659543399
 30
0.0
 11
356.6819952638766
 21
34.50926213964264
 31
0.0
  0
INSERT
  5
2A0
  8
LAYER0001
  6
CONTINUOUS
  2
DC_GROUP_68
 10
0.0
 20
0.0
 30
0.0
  0
INSERT
  5
2A1
  8
LAYER0001
  6
CONTINUOUS
  2
DC_GROUP_69
 10
0.0
 20
0.0
 30
0.0
  0
TEXT
  5
2A2
  8
LAYER0001
 62
     7
 10
355.0819952638765
 20
65.3592659543399
 30
0.0
 40
4.0
  1
74.5
 50
90.0
 41
0.6095238095238109
  7
FDASTYLE1
 72
     5
 11
355.0819952638765
 21
75.11164690672088
 31
0.0
  0
ENDBLK
  5
114
  8
0
  0
BLOCK
  8
0
  2
DC_GROUP_68
 70
     0
 10
0.0
 20
0.0
 30
0.0
  3
DC_GROUP_68
  1

  0
LINE
  5
2A3
  8
LAYER0001
  6
CONTINUOUS
 62
     7
 10
356.1460957289789
 20
107.0092675467092
 30
0.0
 11
356.6819952638766
 21
109.0092659543399
 31
0.0
  0
LINE
  5
2A4
  8
LAYER0001
  6
CONTINUOUS
 62
     7
 10
356.6819952638766
 20
109.0092659543399
 30
0.0
 11
357.2178947987742
 21
107.0092675467092
 31
0.0
  0
LINE
  5
2A5
  8
LAYER0001
  6
CONTINUOUS
 62
     7
 10
356.6819952638766
 20
109.0092659543399
 30
0.0
 11
356.6819952638766
 21
107.0092675467092
 31
0.0
  0
ENDBLK
  5
117
  8
0
  0
BLOCK
  8
0
  2
DC_GROUP_69
 70
     0
 10
0.0
 20
0.0
 30
0.0
  3
DC_GROUP_69
  1

  0
LINE
  5
2A6
  8
LAYER0001
  6
CONTINUOUS
 62
     7
 10
357.2178947987742
 20
36.5092605472733
 30
0.0
 11
356.6819952638766
 21
34.50926213964264
 31
0.0
  0
LINE
  5
2A7
  8
LAYER0001
  6
CONTINUOUS
 62
     7
 10
356.6819952638766
 20
34.50926213964264
 30
0.0
 11
356.1460957289789
 21
36.5092605472733
 31
0.0
  0
LINE
  5
2A8
  8
LAYER0001
  6
CONTINUOUS
 62
     7
 10
356.6819952638766
 20
34.50926213964264
 30
0.0
 11
356.6819952638766
 21
36.5092605472733
 31
0.0
  0
ENDBLK
  5
11A
  8
0
  0
BLOCK
  8
0
  2
DC_GROUP_70
 70
     0
 10
0.0
 20
0.0
 30
0.0
  3
DC_GROUP_70
  1

  0
LINE
  5
2A9
  8
LAYER0001
  6
CONTINUOUS
 62
     7
 10
419.7526022856664
 20
76.61676099770297
 30
0.0
 11
382.9722633296566
 21
97.8518764099221
 31
0.0
  0
LINE
  5
2AA
  8
LAYER0001
  6
CONTINUOUS
 62
     7
 10
373.9596201689363
 20
34.50922626764867
 30
0.0
 11
365.9996692828961
 21
34.50934181182858
 31
0.0
  0
ARC
  5
2AB
  8
LAYER0001
  6
CONTINUOUS
 62
     7
 10
492.684968343558
 20
34.50926213964264
 30
0.0
 40
125.685302734375
 50
150.0000110043195
 51
179.9999776881997
  0
INSERT
  5
2AC
  8
LAYER0001
  6
CONTINUOUS
  2
DC_GROUP_71
 10
0.0
 20
0.0
 30
0.0
  0
INSERT
  5
2AD
  8
LAYER0001
  6
CONTINUOUS
  2
DC_GROUP_72
 10
0.0
 20
0.0
 30
0.0
  0
TEXT
  5
2AE
  8
LAYER0001
 62
     7
 10
368.4944828373642
 20
62.81668709898828
 30
0.0
 40
4.0
  1
30ﾟ
 50
75.0
 41
0.4499999999999991
  7
FDASTYLE1
 72
     5
 11
369.8921056809178
 21
68.03268656094923
 31
0.0
  0
ENDBLK
  5
11D
  8
0
  0
BLOCK
  8
0
  2
DC_GROUP_71
 70
     0
 10
0.0
 20
0.0
 30
0.0
  3
DC_GROUP_71
  1

  0
LINE
  5
2AF
  8
LAYER0001
  6
CONTINUOUS
 62
     7
 10
382.3858848371477
 20
95.87619018215726
 30
0.0
 11
383.8382912235929
 21
97.35189260156366
 31
0.0
  0
LINE
  5
2B0
  8
LAYER0001
  6
CONTINUOUS
 62
     7
 10
383.8382912235929
 20
97.35189260156366
 30
0.0
 11
383.3183245543751
 21
95.34769285978861
 31
0.0
  0
LINE
  5
2B1
  8
LAYER0001
  6
CONTINUOUS
 62
     7
 10
383.8382912235929
 20
97.35189260156366
 30
0.0
 11
382.8521046957614
 21
95.61194152097293
 31
0.0
  0
ENDBLK
  5
120
  8
0
  0
BLOCK
  8
0
  2
DC_GROUP_72
 70
     0
 10
0.0
 20
0.0
 30
0.0
  3
DC_GROUP_72
  1

  0
LINE
  5
2B2
  8
LAYER0001
  6
CONTINUOUS
 62
     7
 10
367.5514615292674
 20
36.50498219965256
 30
0.0
 11
366.9996656091925
 21
34.50931108330666
 31
0.0
  0
LINE
  5
2B3
  8
LAYER0001
  6
CONTINUOUS
 62
     7
 10
366.9996656091925
 20
34.50931108330666
 30
0.0
 11
366.4796963871496
 21
36.51351016277876
 31
0.0
  0
LINE
  5
2B4
  8
LAYER0001
  6
CONTINUOUS
 62
     7
 10
366.9996656091925
 20
34.50931108330666
 30
0.0
 11
367.0155789582086
 21
36.50924618121566
 31
0.0
  0
ENDBLK
  5
123
  8
0
  0
BLOCK
  8
0
  2
DC_GROUP_73
 70
     0
 10
0.0
 20
0.0
 30
0.0
  3
DC_GROUP_73
  1

  0
LINE
  5
2B5
  8
LAYER0001
  6
CONTINUOUS
 62
     7
 10
533.2950845945129
 20
8.320241200320353
 30
0.0
 11
573.1177155556929
 21
-52.3729988228268
 31
0.0
  0
LINE
  5
2B6
  8
LAYER0001
  6
CONTINUOUS
 62
     7
 10
573.1177228601595
 20
-52.37298959985931
 30
0.0
 11
616.5473951013705
 21
-52.37298959985931
 31
0.0
  0
INSERT
  5
2B7
  8
LAYER0001
  6
CONTINUOUS
  2
DC_GROUP_74
 10
0.0
 20
0.0
 30
0.0
  0
TEXT
  5
2B8
  8
LAYER0001
 62
     7
 10
573.8030408533236
 20
-50.77298959985931
 30
0.0
 40
4.0
  1
4-M8×15 PCD90
 41
0.6326905417814526
  7
FDASTYLE1
 72
     5
 11
607.2091014593843
 21
-50.77298959985931
 31
0.0
  0
ENDBLK
  5
126
  8
0
  0
BLOCK
  8
0
  2
DC_GROUP_74
 70
     0
 10
0.0
 20
0.0
 30
0.0
  3
DC_GROUP_74
  1

  0
LINE
  5
2B9
  8
LAYER0001
  6
CONTINUOUS
 62
     7
 10
533.9441934360115
 20
6.354067338751378
 30
0.0
 11
533.2950845945129
 21
8.320241200320353
 31
0.0
  0
LINE
  5
2BA
  8
LAYER0001
  6
CONTINUOUS
 62
     7
 10
533.2950845945129
 20
8.320241200320353
 30
0.0
 11
534.840318299315
 21
6.942041381871576
 31
0.0
  0
LINE
  5
2BB
  8
LAYER0001
  6
CONTINUOUS
 62
     7
 10
533.2950845945129
 20
8.320241200320353
 30
0.0
 11
534.3922558676632
 21
6.648054360311477
 31
0.0
  0
ENDBLK
  5
129
  8
0
  0
BLOCK
  8
0
  2
DC_GROUP_75
 70
     0
 10
0.0
 20
0.0
 30
0.0
  3
DC_GROUP_75
  1

  0
LINE
  5
2BC
  8
LAYER0001
  6
CONTINUOUS
 62
     7
 10
432.2152208005165
 20
-8.725914730254957
 30
0.0
 11
404.6849384153431
 21
-95.49073768727961
 31
0.0
  0
LINE
  5
2BD
  8
LAYER0001
  6
CONTINUOUS
 62
     7
 10
404.6849378259798
 20
-95.49073404566009
 30
0.0
 11
374.0552676828524
 21
-95.49073404566009
 31
0.0
  0
INSERT
  5
2BE
  8
LAYER0001
  6
CONTINUOUS
  2
DC_GROUP_76
 10
0.0
 20
0.0
 30
0.0
  0
TEXT
  5
2BF
  8
LAYER0001
 62
     7
 10
375.1996312769076
 20
-93.8907340456601
 30
0.0
 40
4.0
  1
PCD133.35
 41
0.7026455026455033
  7
FDASTYLE1
 72
     5
 11
400.4948693721457
 21
-93.8907340456601
 31
0.0
  0
ENDBLK
  5
12C
  8
0
  0
BLOCK
  8
0
  2
DC_GROUP_76
 70
     0
 10
0.0
 20
0.0
 30
0.0
  3
DC_GROUP_76
  1

  0
LINE
  5
2C0
  8
LAYER0001
  6
CONTINUOUS
 62
     7
 10
431.0995417778494
 20
-10.47017453326866
 30
0.0
 11
432.2152208005165
 21
-8.725914730254957
 31
0.0
  0
LINE
  5
2C1
  8
LAYER0001
  6
CONTINUOUS
 62
     7
 10
432.2152208005165
 20
-8.725914730254957
 30
0.0
 11
432.1211473687475
 21
-10.79432768019118
 31
0.0
  0
LINE
  5
2C2
  8
LAYER0001
  6
CONTINUOUS
 62
     7
 10
432.2152208005165
 20
-8.725914730254957
 30
0.0
 11
431.6103445732985
 21
-10.63225110672992
 31
0.0
  0
ENDBLK
  5
12F
  8
0
  0
BLOCK
  8
0
  2
DC_GROUP_77
 70
     0
 10
0.0
 20
0.0
 30
0.0
  3
DC_GROUP_77
  1

  0
LINE
  5
2C3
  8
LAYER0001
  6
CONTINUOUS
 62
     7
 10
611.3534626062533
 20
34.50924688085358
 30
0.0
 11
619.3701947839877
 21
34.50924688085358
 31
0.0
  0
LINE
  5
2C4
  8
LAYER0001
  6
CONTINUOUS
 62
     7
 10
565.6172985271629
 20
76.61678588121708
 30
0.0
 11
602.3975897150729
 21
97.85187098731483
 31
0.0
  0
ARC
  5
2C5
  8
LAYER0001
  6
CONTINUOUS
 62
     7
 10
492.6849225671908
 20
34.50926213964264
 30
0.0
 40
125.6852645874023
 50
359.99999304402
 51
389.9999905895423
  0
INSERT
  5
2C6
  8
LAYER0001
  6
CONTINUOUS
  2
DC_GROUP_78
 10
0.0
 20
0.0
 30
0.0
  0
INSERT
  5
2C7
  8
LAYER0001
  6
CONTINUOUS
  2
DC_GROUP_79
 10
0.0
 20
0.0
 30
0.0
  0
TEXT
  5
2C8
  8
LAYER0001
 62
     7
 10
614.3907213985424
 20
72.08955214317976
 30
0.0
 40
4.0
  1
30ﾟ
 50
-75.00000000000003
 41
0.4499999999999961
  7
FDASTYLE1
 72
     5
 11
615.788344242096
 21
66.87355268121883
 31
0.0
  0
ENDBLK
  5
132
  8
0
  0
BLOCK
  8
0
  2
DC_GROUP_78
 70
     0
 10
0.0
 20
0.0
 30
0.0
  3
DC_GROUP_78
  1

  0
LINE
  5
2C9
  8
LAYER0001
  6
CONTINUOUS
 62
     7
 10
618.8901573955783
 20
36.51344569597139
 30
0.0
 11
618.3701871545923
 21
34.50924688085412
 31
0.0
  0
LINE
  5
2CA
  8
LAYER0001
  6
CONTINUOUS
 62
     7
 10
618.3701871545923
 20
34.50924688085412
 30
0.0
 11
617.8183922491251
 21
36.50491827773516
 31
0.0
  0
LINE
  5
2CB
  8
LAYER0001
  6
CONTINUOUS
 62
     7
 10
618.3701871545923
 20
34.50924688085412
 30
0.0
 11
618.3542748223517
 21
36.50918198685327
 31
0.0
  0
ENDBLK
  5
135
  8
0
  0
BLOCK
  8
0
  2
DC_GROUP_79
 70
     0
 10
0.0
 20
0.0
 30
0.0
  3
DC_GROUP_79
  1

  0
LINE
  5
2CC
  8
LAYER0001
  6
CONTINUOUS
 62
     7
 10
602.0515316228716
 20
95.34767682742812
 30
0.0
 11
601.5315649027405
 21
97.3518765559943
 31
0.0
  0
LINE
  5
2CD
  8
LAYER0001
  6
CONTINUOUS
 62
     7
 10
601.5315649027405
 20
97.3518765559943
 30
0.0
 11
602.9839713266733
 21
95.87617417348379
 31
0.0
  0
LINE
  5
2CE
  8
LAYER0001
  6
CONTINUOUS
 62
     7
 10
601.5315649027405
 20
97.3518765559943
 30
0.0
 11
602.5177514747725
 21
95.61192550045597
 31
0.0
  0
ENDBLK
  5
138
  8
0
  0
BLOCK
  8
0
  2
DC_GROUP_80
 70
     0
 10
0.0
 20
0.0
 30
0.0
  3
DC_GROUP_80
  1

  0
LINE
  5
2CF
  8
0
  6
CONTINUOUS
 62
     9
 10
260.2724195362641
 20
76.80926519140046
 30
0.0
 11
295.0706092337786
 21
76.80926519140046
 31
0.0
  0
LINE
  5
2D0
  8
0
  6
CONTINUOUS
 62
     9
 10
285.67450388685
 20
91.30926519140046
 30
0.0
 11
295.0706092337786
 21
91.30926519140046
 31
0.0
  0
LINE
  5
2D1
  8
0
  6
CONTINUOUS
 62
     9
 10
285.9471250416352
 20
121.3092651914005
 30
0.0
 11
295.0706092337786
 21
121.3092651914005
 31
0.0
  0
LINE
  5
2D2
  8
0
  6
CONTINUOUS
 62
     9
 10
294.0706092337786
 20
76.80926519140046
 30
0.0
 11
294.0706092337786
 21
91.30926519140046
 31
0.0
  0
LINE
  5
2D3
  8
0
  6
CONTINUOUS
 62
     9
 10
294.0706092337786
 20
91.30926519140046
 30
0.0
 11
294.0706092337786
 21
121.3092651914005
 31
0.0
  0
INSERT
  5
2D4
  8
0
  6
CENTER
  2
DC_GROUP_81
 10
0.0
 20
0.0
 30
0.0
  0
INSERT
  5
2D5
  8
0
  6
CENTER
  2
DC_GROUP_82
 10
0.0
 20
0.0
 30
0.0
  0
INSERT
  5
2D6
  8
0
  6
CENTER
  2
DC_GROUP_83
 10
0.0
 20
0.0
 30
0.0
  0
INSERT
  5
2D7
  8
0
  6
CENTER
  2
DC_GROUP_84
 10
0.0
 20
0.0
 30
0.0
  0
TEXT
  5
2D8
  8
0
 62
     7
 10
293.0706092337786
 20
80.85926519140047
 30
0.0
 40
4.0
  1
10
 50
90.0
 41
0.5904761904761884
  7
FDASTYLE1
 72
     5
 11
293.0706092337786
 21
85.58307471520998
 31
0.0
  0
TEXT
  5
2D9
  8
0
 62
     7
 10
293.0706092337786
 20
103.1092651914005
 30
0.0
 40
4.0
  1
30
 50
90.0
 41
0.6476190476190453
  7
FDASTYLE1
 72
     5
 11
293.0706092337786
 21
108.2902175723529
 31
0.0
  0
ENDBLK
  5
13B
  8
0
  0
BLOCK
  8
0
  2
DC_GROUP_81
 70
     0
 10
0.0
 20
0.0
 30
0.0
  3
DC_GROUP_81
  1

  0
LINE
  5
2DA
  8
0
  6
CONTINUOUS
 62
     9
 10
294.6065087686762
 20
78.80926359903113
 30
0.0
 11
294.0706092337786
 21
76.80926519140046
 31
0.0
  0
LINE
  5
2DB
  8
0
  6
CONTINUOUS
 62
     9
 10
294.0706092337786
 20
76.80926519140046
 30
0.0
 11
293.534709698881
 21
78.80926359903113
 31
0.0
  0
LINE
  5
2DC
  8
0
  6
CONTINUOUS
 62
     9
 10
294.0706092337786
 20
76.80926519140046
 30
0.0
 11
294.0706092337786
 21
78.80926359903113
 31
0.0
  0
ENDBLK
  5
13E
  8
0
  0
BLOCK
  8
0
  2
DC_GROUP_82
 70
     0
 10
0.0
 20
0.0
 30
0.0
  3
DC_GROUP_82
  1

  0
LINE
  5
2DD
  8
0
  6
CONTINUOUS
 62
     9
 10
293.534709698881
 20
89.30926678376979
 30
0.0
 11
294.0706092337786
 21
91.30926519140046
 31
0.0
  0
LINE
  5
2DE
  8
0
  6
CONTINUOUS
 62
     9
 10
294.0706092337786
 20
91.30926519140046
 30
0.0
 11
294.6065087686762
 21
89.30926678376979
 31
0.0
  0
LINE
  5
2DF
  8
0
  6
CONTINUOUS
 62
     9
 10
294.0706092337786
 20
91.30926519140046
 30
0.0
 11
294.0706092337786
 21
89.30926678376979
 31
0.0
  0
ENDBLK
  5
141
  8
0
  0
BLOCK
  8
0
  2
DC_GROUP_83
 70
     0
 10
0.0
 20
0.0
 30
0.0
  3
DC_GROUP_83
  1

  0
LINE
  5
2E0
  8
0
  6
CONTINUOUS
 62
     9
 10
294.6065087686762
 20
93.30926359903111
 30
0.0
 11
294.0706092337786
 21
91.30926519140046
 31
0.0
  0
LINE
  5
2E1
  8
0
  6
CONTINUOUS
 62
     9
 10
294.0706092337786
 20
91.30926519140046
 30
0.0
 11
293.534709698881
 21
93.30926359903111
 31
0.0
  0
LINE
  5
2E2
  8
0
  6
CONTINUOUS
 62
     9
 10
294.0706092337786
 20
91.30926519140046
 30
0.0
 11
294.0706092337786
 21
93.30926359903111
 31
0.0
  0
ENDBLK
  5
144
  8
0
  0
BLOCK
  8
0
  2
DC_GROUP_84
 70
     0
 10
0.0
 20
0.0
 30
0.0
  3
DC_GROUP_84
  1

  0
LINE
  5
2E3
  8
0
  6
CONTINUOUS
 62
     9
 10
293.534709698881
 20
119.3092667837698
 30
0.0
 11
294.0706092337786
 21
121.3092651914005
 31
0.0
  0
LINE
  5
2E4
  8
0
  6
CONTINUOUS
 62
     9
 10
294.0706092337786
 20
121.3092651914005
 30
0.0
 11
294.6065087686762
 21
119.3092667837698
 31
0.0
  0
LINE
  5
2E5
  8
0
  6
CONTINUOUS
 62
     9
 10
294.0706092337786
 20
121.3092651914005
 30
0.0
 11
294.0706092337786
 21
119.3092667837698
 31
0.0
  0
ENDBLK
  5
147
  8
0
  0
BLOCK
  8
0
  2
DC_GROUP_85
 70
     0
 10
0.0
 20
0.0
 30
0.0
  3
DC_GROUP_85
  1

  0
LINE
  5
2E6
  8
0
  6
CONTINUOUS
 62
     9
 10
307.0379224659516
 20
81.30926519140046
 30
0.0
 11
307.0379224659516
 21
131.3092651914005
 31
0.0
  0
LINE
  5
2E7
  8
0
  6
CONTINUOUS
 62
     9
 10
261.7724195362641
 20
131.3092651914005
 30
0.0
 11
308.0379224659516
 21
131.3092651914005
 31
0.0
  0
LINE
  5
2E8
  8
0
  6
CONTINUOUS
 62
     9
 10
261.7724195362641
 20
81.30926519140046
 30
0.0
 11
283.3386498191997
 21
81.30926519140046
 31
0.0
  0
LINE
  5
2E9
  8
0
  6
CONTINUOUS
 62
     9
 10
296.2481082454326
 20
81.30926519140046
 30
0.0
 11
308.0379224659516
 21
81.30926519140046
 31
0.0
  0
INSERT
  5
2EA
  8
0
  6
CONTINUOUS
  2
DC_GROUP_86
 10
0.0
 20
0.0
 30
0.0
  0
INSERT
  5
2EB
  8
0
  6
CONTINUOUS
  2
DC_GROUP_87
 10
0.0
 20
0.0
 30
0.0
  0
TEXT
  5
2EC
  8
0
 62
     7
 10
306.0379224659516
 20
103.1092651914005
 30
0.0
 40
4.0
  1
50
 50
90.0
 41
0.6476190476190453
  7
FDASTYLE1
 72
     5
 11
306.0379224659516
 21
108.2902175723529
 31
0.0
  0
ENDBLK
  5
14A
  8
0
  0
BLOCK
  8
0
  2
DC_GROUP_86
 70
     0
 10
0.0
 20
0.0
 30
0.0
  3
DC_GROUP_86
  1

  0
LINE
  5
2ED
  8
0
  6
CONTINUOUS
 62
     9
 10
307.5738220008492
 20
83.30926359903111
 30
0.0
 11
307.0379224659516
 21
81.30926519140046
 31
0.0
  0
LINE
  5
2EE
  8
0
  6
CONTINUOUS
 62
     9
 10
307.0379224659516
 20
81.30926519140046
 30
0.0
 11
306.5020229310539
 21
83.30926359903111
 31
0.0
  0
LINE
  5
2EF
  8
0
  6
CONTINUOUS
 62
     9
 10
307.0379224659516
 20
81.30926519140046
 30
0.0
 11
307.0379224659516
 21
83.30926359903111
 31
0.0
  0
ENDBLK
  5
14D
  8
0
  0
BLOCK
  8
0
  2
DC_GROUP_87
 70
     0
 10
0.0
 20
0.0
 30
0.0
  3
DC_GROUP_87
  1

  0
LINE
  5
2F0
  8
0
  6
CONTINUOUS
 62
     9
 10
306.5020229310539
 20
129.3092667837699
 30
0.0
 11
307.0379224659516
 21
131.3092651914005
 31
0.0
  0
LINE
  5
2F1
  8
0
  6
CONTINUOUS
 62
     9
 10
307.0379224659516
 20
131.3092651914005
 30
0.0
 11
307.5738220008492
 21
129.3092667837699
 31
0.0
  0
LINE
  5
2F2
  8
0
  6
CONTINUOUS
 62
     9
 10
307.0379224659516
 20
131.3092651914005
 30
0.0
 11
307.0379224659516
 21
129.3092667837699
 31
0.0
  0
ENDBLK
  5
150
  8
0
  0
BLOCK
  8
0
  2
DC_GROUP_88
 70
     0
 10
0.0
 20
0.0
 30
0.0
  3
DC_GROUP_88
  1

  0
LINE
  5
2F3
  8
0
  6
CONTINUOUS
 62
     9
 10
195.3893018604829
 20
9.509262139642644
 30
0.0
 11
163.8557388242407
 21
9.509262139642644
 31
0.0
  0
LINE
  5
2F4
  8
0
  6
CONTINUOUS
 62
     9
 10
195.3893018604829
 20
59.50926213964264
 30
0.0
 11
163.8557388242407
 21
59.50926213964264
 31
0.0
  0
LINE
  5
2F5
  8
0
  6
CONTINUOUS
 62
     9
 10
164.8557388242407
 20
9.509262139642644
 30
0.0
 11
164.8557388242407
 21
59.50926213964264
 31
0.0
  0
INSERT
  5
2F6
  8
0
  6
CONTINUOUS
  2
DC_GROUP_89
 10
0.0
 20
0.0
 30
0.0
  0
INSERT
  5
2F7
  8
0
  6
CONTINUOUS
  2
DC_GROUP_90
 10
0.0
 20
0.0
 30
0.0
  0
TEXT
  5
2F8
  8
0
 62
     7
 10
163.8557388242407
 20
25.68926213964264
 30
0.0
 40
4.0
  1
φ50
 50
90.0
 41
0.6093750000000006
  7
FDASTYLE1
 72
     5
 11
163.8557388242407
 21
33.48926213964265
 31
0.0
  0
TEXT
  5
2F9
  8
0
 62
     7
 10
161.6557388242407
 20
36.28926213964266
 30
0.0
 40
2.2
  1
+0.5
 50
90.0
 41
0.657142857142855
  7
FDASTYLE1
 72
     5
 11
161.6557388242407
 21
42.07211928249978
 31
0.0
  0
TEXT
  5
2FA
  8
0
 62
     7
 10
164.0557388242407
 20
36.28926213964266
 30
0.0
 40
2.2
  1
 0
 50
90.0
 41
0.2666666666666696
  7
FDASTYLE1
 72
     5
 11
164.0557388242407
 21
37.46259547297601
 31
0.0
  0
ENDBLK
  5
153
  8
0
  0
BLOCK
  8
0
  2
DC_GROUP_89
 70
     0
 10
0.0
 20
0.0
 30
0.0
  3
DC_GROUP_89
  1

  0
LINE
  5
2FB
  8
0
  6
CONTINUOUS
 62
     9
 10
165.3916383591383
 20
11.50926054727331
 30
0.0
 11
164.8557388242407
 21
9.509262139642644
 31
0.0
  0
LINE
  5
2FC
  8
0
  6
CONTINUOUS
 62
     9
 10
164.8557388242407
 20
9.509262139642644
 30
0.0
 11
164.3198392893431
 21
11.50926054727331
 31
0.0
  0
LINE
  5
2FD
  8
0
  6
CONTINUOUS
 62
     9
 10
164.8557388242407
 20
9.509262139642644
 30
0.0
 11
164.8557388242407
 21
11.50926054727331
 31
0.0
  0
ENDBLK
  5
156
  8
0
  0
BLOCK
  8
0
  2
DC_GROUP_90
 70
     0
 10
0.0
 20
0.0
 30
0.0
  3
DC_GROUP_90
  1

  0
LINE
  5
2FE
  8
0
  6
CONTINUOUS
 62
     9
 10
164.3198392893431
 20
57.50926373201197
 30
0.0
 11
164.8557388242407
 21
59.50926213964264
 31
0.0
  0
LINE
  5
2FF
  8
0
  6
CONTINUOUS
 62
     9
 10
164.8557388242407
 20
59.50926213964264
 30
0.0
 11
165.3916383591383
 21
57.50926373201197
 31
0.0
  0
LINE
  5
300
  8
0
  6
CONTINUOUS
 62
     9
 10
164.8557388242407
 20
59.50926213964264
 30
0.0
 11
164.8557388242407
 21
57.50926373201197
 31
0.0
  0
ENDBLK
  5
159
  8
0
  0
BLOCK
  8
0
  2
DC_GROUP_91
 70
     0
 10
0.0
 20
0.0
 30
0.0
  3
DC_GROUP_91
  1

  0
LINE
  5
301
  8
0
  6
CONTINUOUS
 62
     9
 10
226.3893018604829
 20
3.259262139642644
 30
0.0
 11
152.5203933308965
 21
3.259262139642644
 31
0.0
  0
LINE
  5
302
  8
0
  6
CONTINUOUS
 62
     9
 10
226.3893018604829
 20
65.75926213964264
 30
0.0
 11
152.5203933308965
 21
65.75926213964264
 31
0.0
  0
LINE
  5
303
  8
0
  6
CONTINUOUS
 62
     9
 10
153.5203933308965
 20
3.259262139642644
 30
0.0
 11
153.5203933308965
 21
65.75926213964264
 31
0.0
  0
INSERT
  5
304
  8
0
  6
DASHEDX2
  2
DC_GROUP_92
 10
0.0
 20
0.0
 30
0.0
  0
INSERT
  5
305
  8
0
  6
DASHEDX2
  2
DC_GROUP_93
 10
0.0
 20
0.0
 30
0.0
  0
TEXT
  5
306
  8
0
 62
     7
 10
152.5203933308965
 20
23.30926213964266
 30
0.0
 40
4.0
  1
φ62.5H7
 50
90.0
 41
0.6265432098765423
  7
FDASTYLE1
 72
     5
 11
152.5203933308965
 21
41.35370658408708
 31
0.0
  0
ENDBLK
  5
15C
  8
0
  0
BLOCK
  8
0
  2
DC_GROUP_92
 70
     0
 10
0.0
 20
0.0
 30
0.0
  3
DC_GROUP_92
  1

  0
LINE
  5
307
  8
0
  6
CONTINUOUS
 62
     9
 10
154.0562928657941
 20
5.259260547273307
 30
0.0
 11
153.5203933308965
 21
3.259262139642644
 31
0.0
  0
LINE
  5
308
  8
0
  6
CONTINUOUS
 62
     9
 10
153.5203933308965
 20
3.259262139642644
 30
0.0
 11
152.9844937959989
 21
5.259260547273307
 31
0.0
  0
LINE
  5
309
  8
0
  6
CONTINUOUS
 62
     9
 10
153.5203933308965
 20
3.259262139642644
 30
0.0
 11
153.5203933308965
 21
5.259260547273307
 31
0.0
  0
ENDBLK
  5
15F
  8
0
  0
BLOCK
  8
0
  2
DC_GROUP_93
 70
     0
 10
0.0
 20
0.0
 30
0.0
  3
DC_GROUP_93
  1

  0
LINE
  5
30A
  8
0
  6
CONTINUOUS
 62
     9
 10
152.9844937959989
 20
63.75926373201198
 30
0.0
 11
153.5203933308965
 21
65.75926213964264
 31
0.0
  0
LINE
  5
30B
  8
0
  6
CONTINUOUS
 62
     9
 10
153.5203933308965
 20
65.75926213964264
 30
0.0
 11
154.0562928657941
 21
63.75926373201198
 31
0.0
  0
LINE
  5
30C
  8
0
  6
CONTINUOUS
 62
     9
 10
153.5203933308965
 20
65.75926213964264
 30
0.0
 11
153.5203933308965
 21
63.75926373201198
 31
0.0
  0
ENDBLK
  5
162
  8
0
  0
BLOCK
  8
0
  2
DC_GROUP_94
 70
     0
 10
0.0
 20
0.0
 30
0.0
  3
DC_GROUP_94
  1

  0
LINE
  5
30D
  8
0
  6
CONTINUOUS
 62
     9
 10
187.4724317432954
 20
-61.49073786035736
 30
0.0
 11
187.4724317432954
 21
-97.65292337675716
 31
0.0
  0
LINE
  5
30E
  8
0
  6
CONTINUOUS
 62
     9
 10
167.2724195362641
 20
-39.16574091211517
 30
0.0
 11
167.2724195362641
 21
-97.65292337675716
 31
0.0
  0
LINE
  5
30F
  8
0
  6
CONTINUOUS
 62
     9
 10
167.2724195362641
 20
-96.65292337675716
 30
0.0
 11
187.4724317432954
 21
-96.65292337675716
 31
0.0
  0
LINE
  5
310
  8
0
  6
CONTINUOUS
 62
     9
 10
150.5405695362641
 20
-96.65292337675716
 30
0.0
 11
167.2724195362641
 21
-96.65292337675716
 31
0.0
  0
LINE
  5
311
  8
0
  6
CONTINUOUS
 62
     9
 10
192.4724317432954
 20
-96.65292337675716
 30
0.0
 11
187.4724317432954
 21
-96.65292337675716
 31
0.0
  0
INSERT
  5
312
  8
0
  6
CONTINUOUS
  2
DC_GROUP_95
 10
0.0
 20
0.0
 30
0.0
  0
INSERT
  5
313
  8
0
  6
CONTINUOUS
  2
DC_GROUP_96
 10
0.0
 20
0.0
 30
0.0
  0
TEXT
  5
314
  8
0
 62
     7
 10
151.5405695362641
 20
-95.65292337675716
 30
0.0
 40
4.0
  1
20.2
 41
0.6095238095238091
  7
FDASTYLE1
 72
     5
 11
161.292950488645
 21
-95.65292337675716
 31
0.0
  0
ENDBLK
  5
165
  8
0
  0
BLOCK
  8
0
  2
DC_GROUP_95
 70
     0
 10
0.0
 20
0.0
 30
0.0
  3
DC_GROUP_95
  1

  0
LINE
  5
315
  8
0
  6
CONTINUOUS
 62
     9
 10
165.2724211286334
 20
-96.11702384185955
 30
0.0
 11
167.2724195362641
 21
-96.65292337675716
 31
0.0
  0
LINE
  5
316
  8
0
  6
CONTINUOUS
 62
     9
 10
167.2724195362641
 20
-96.65292337675716
 30
0.0
 11
165.2724211286334
 21
-97.18882291165477
 31
0.0
  0
LINE
  5
317
  8
0
  6
CONTINUOUS
 62
     9
 10
167.2724195362641
 20
-96.65292337675716
 30
0.0
 11
165.2724211286334
 21
-96.65292337675716
 31
0.0
  0
ENDBLK
  5
168
  8
0
  0
BLOCK
  8
0
  2
DC_GROUP_96
 70
     0
 10
0.0
 20
0.0
 30
0.0
  3
DC_GROUP_96
  1

  0
LINE
  5
318
  8
0
  6
CONTINUOUS
 62
     9
 10
189.4724301509261
 20
-97.18882291165477
 30
0.0
 11
187.4724317432954
 21
-96.65292337675716
 31
0.0
  0
LINE
  5
319
  8
0
  6
CONTINUOUS
 62
     9
 10
187.4724317432954
 20
-96.65292337675716
 30
0.0
 11
189.4724301509261
 21
-96.11702384185955
 31
0.0
  0
LINE
  5
31A
  8
0
  6
CONTINUOUS
 62
     9
 10
187.4724317432954
 20
-96.65292337675716
 30
0.0
 11
189.4724301509261
 21
-96.65292337675716
 31
0.0
  0
ENDBLK
  5
16B
  8
0
  0
BLOCK
  8
0
  2
DC_GROUP_97
 70
     0
 10
0.0
 20
0.0
 30
0.0
  3
DC_GROUP_97
  1

  0
LINE
  5
31B
  8
0
  6
CONTINUOUS
 62
     7
 10
223.3596902664806
 20
-72.99073786035736
 30
0.0
 11
238.3028035770243
 21
-88.03336989515442
 31
0.0
  0
LINE
  5
31C
  8
0
  6
CONTINUOUS
 62
     7
 10
238.3028035770243
 20
-88.03336989515442
 30
0.0
 11
254.3028035770243
 21
-88.03336989515442
 31
0.0
  0
INSERT
  5
31D
  8
0
  6
CONTINUOUS
  2
DC_GROUP_98
 10
0.0
 20
0.0
 30
0.0
  0
TEXT
  5
31E
  8
0
 62
     7
 10
238.3028035770243
 20
-88.03336989515442
 30
0.0
 40
4.0
  1
M8×16
 41
0.6213017751479295
  7
FDASTYLE1
 72
     5
 11
251.2258805001012
 21
-88.03336989515442
 31
0.0
  0
ENDBLK
  5
16E
  8
0
  0
BLOCK
  8
0
  2
DC_GROUP_98
 70
     0
 10
0.0
 20
0.0
 30
0.0
  3
DC_GROUP_98
  1

  0
LINE
  5
31F
  8
0
  6
CONTINUOUS
 62
     7
 10
224.3890076089623
 20
-74.78731453573057
 30
0.0
 11
223.3596902664806
 21
-72.99073786035736
 31
0.0
  0
LINE
  5
320
  8
0
  6
CONTINUOUS
 62
     7
 10
223.3596902664806
 20
-72.99073786035736
 30
0.0
 11
225.149395103043
 21
-74.03195759701907
 31
0.0
  0
LINE
  5
321
  8
0
  6
CONTINUOUS
 62
     7
 10
223.3596902664806
 20
-72.99073786035736
 30
0.0
 11
224.7692013560026
 21
-74.40963606637482
 31
0.0
  0
ENDBLK
  5
171
  8
0
  0
BLOCK
  8
0
  2
DC_GROUP_99
 70
     0
 10
0.0
 20
0.0
 30
0.0
  3
DC_GROUP_99
  1

  0
LINE
  5
322
  8
0
  6
CONTINUOUS
 62
     9
 10
223.2724195362641
 20
-77.00853372820356
 30
0.0
 11
223.2724195362641
 21
-85.26229408365076
 31
0.0
  0
LINE
  5
323
  8
0
  6
CONTINUOUS
 62
     9
 10
187.4724317432954
 20
-61.49073786035736
 30
0.0
 11
187.4724317432954
 21
-85.26229408365076
 31
0.0
  0
LINE
  5
324
  8
0
  6
CONTINUOUS
 62
     9
 10
187.4724317432954
 20
-84.26229408365076
 30
0.0
 11
223.2724195362641
 21
-84.26229408365076
 31
0.0
  0
INSERT
  5
325
  8
0
  6
CONTINUOUS
  2
DC_GROUP_100
 10
0.0
 20
0.0
 30
0.0
  0
INSERT
  5
326
  8
0
  6
CONTINUOUS
  2
DC_GROUP_101
 10
0.0
 20
0.0
 30
0.0
  0
TEXT
  5
327
  8
0
 62
     7
 10
198.9724256397797
 20
-83.26229408365076
 30
0.0
 40
4.0
  1
35.8
 41
0.6095238095238091
  7
FDASTYLE1
 72
     5
 11
208.7248065921606
 21
-83.26229408365076
 31
0.0
  0
ENDBLK
  5
174
  8
0
  0
BLOCK
  8
0
  2
DC_GROUP_100
 70
     0
 10
0.0
 20
0.0
 30
0.0
  3
DC_GROUP_100
  1

  0
LINE
  5
328
  8
0
  6
CONTINUOUS
 62
     9
 10
189.4724301509261
 20
-84.79819361854837
 30
0.0
 11
187.4724317432954
 21
-84.26229408365076
 31
0.0
  0
LINE
  5
329
  8
0
  6
CONTINUOUS
 62
     9
 10
187.4724317432954
 20
-84.26229408365076
 30
0.0
 11
189.4724301509261
 21
-83.72639454875315
 31
0.0
  0
LINE
  5
32A
  8
0
  6
CONTINUOUS
 62
     9
 10
187.4724317432954
 20
-84.26229408365076
 30
0.0
 11
189.4724301509261
 21
-84.26229408365076
 31
0.0
  0
ENDBLK
  5
177
  8
0
  0
BLOCK
  8
0
  2
DC_GROUP_101
 70
     0
 10
0.0
 20
0.0
 30
0.0
  3
DC_GROUP_101
  1

  0
LINE
  5
32B
  8
0
  6
CONTINUOUS
 62
     9
 10
221.2724211286334
 20
-83.72639454875315
 30
0.0
 11
223.2724195362641
 21
-84.26229408365076
 31
0.0
  0
LINE
  5
32C
  8
0
  6
CONTINUOUS
 62
     9
 10
223.2724195362641
 20
-84.26229408365076
 30
0.0
 11
221.2724211286334
 21
-84.79819361854837
 31
0.0
  0
LINE
  5
32D
  8
0
  6
CONTINUOUS
 62
     9
 10
223.2724195362641
 20
-84.26229408365076
 30
0.0
 11
221.2724211286334
 21
-84.26229408365076
 31
0.0
  0
ENDBLK
  5
17A
  8
0
  0
BLOCK
  8
0
  2
DC_GROUP_102
 70
     0
 10
0.0
 20
0.0
 30
0.0
  3
DC_GROUP_102
  1

  0
LINE
  5
32E
  8
0
  6
CONTINUOUS
 62
     9
 10
293.8953793562628
 20
2.009262139642644
 30
0.0
 11
293.8953793562628
 21
67.00926213964264
 31
0.0
  0
LINE
  5
32F
  8
0
  6
CONTINUOUS
 62
     9
 10
247.3893018604829
 20
2.009262139642644
 30
0.0
 11
294.8953793562628
 21
2.009262139642644
 31
0.0
  0
LINE
  5
330
  8
0
  6
CONTINUOUS
 62
     9
 10
247.3893018604829
 20
67.00926213964264
 30
0.0
 11
294.8953793562628
 21
67.00926213964264
 31
0.0
  0
INSERT
  5
331
  8
0
  6
CONTINUOUS
  2
DC_GROUP_103
 10
0.0
 20
0.0
 30
0.0
  0
INSERT
  5
332
  8
0
  6
CONTINUOUS
  2
DC_GROUP_104
 10
0.0
 20
0.0
 30
0.0
  0
TEXT
  5
333
  8
0
 62
     7
 10
292.8953793562628
 20
20.10926213964265
 30
0.0
 40
4.0
  1
M65×P1.25
 50
90.0
 41
0.6294896030245746
  7
FDASTYLE1
 72
     5
 11
292.8953793562628
 21
43.27447953094699
 31
0.0
  0
ENDBLK
  5
17D
  8
0
  0
BLOCK
  8
0
  2
DC_GROUP_103
 70
     0
 10
0.0
 20
0.0
 30
0.0
  3
DC_GROUP_103
  1

  0
LINE
  5
334
  8
0
  6
CONTINUOUS
 62
     9
 10
294.4312788911605
 20
4.009260547273307
 30
0.0
 11
293.8953793562628
 21
2.009262139642644
 31
0.0
  0
LINE
  5
335
  8
0
  6
CONTINUOUS
 62
     9
 10
293.8953793562628
 20
2.009262139642644
 30
0.0
 11
293.3594798213652
 21
4.009260547273307
 31
0.0
  0
LINE
  5
336
  8
0
  6
CONTINUOUS
 62
     9
 10
293.8953793562628
 20
2.009262139642644
 30
0.0
 11
293.8953793562628
 21
4.009260547273307
 31
0.0
  0
ENDBLK
  5
180
  8
0
  0
BLOCK
  8
0
  2
DC_GROUP_104
 70
     0
 10
0.0
 20
0.0
 30
0.0
  3
DC_GROUP_104
  1

  0
LINE
  5
337
  8
0
  6
CONTINUOUS
 62
     9
 10
293.3594798213652
 20
65.00926373201199
 30
0.0
 11
293.8953793562628
 21
67.00926213964264
 31
0.0
  0
LINE
  5
338
  8
0
  6
CONTINUOUS
 62
     9
 10
293.8953793562628
 20
67.00926213964264
 30
0.0
 11
294.4312788911605
 21
65.00926373201199
 31
0.0
  0
LINE
  5
339
  8
0
  6
CONTINUOUS
 62
     9
 10
293.8953793562628
 20
67.00926213964264
 30
0.0
 11
293.8953793562628
 21
65.00926373201199
 31
0.0
  0
ENDBLK
  5
183
  8
0
  0
BLOCK
  8
0
  2
DC_GROUP_105
 70
     0
 10
0.0
 20
0.0
 30
0.0
  3
DC_GROUP_105
  1

  0
LINE
  5
33A
  8
0
  6
CONTINUOUS
 62
     9
 10
465.6849378259798
 20
40.50926213964264
 30
0.0
 11
465.6849378259798
 21
47.20555773677095
 31
0.0
  0
LINE
  5
33B
  8
0
  6
CONTINUOUS
 62
     9
 10
519.6849378259798
 20
40.50926213964264
 30
0.0
 11
519.6849378259798
 21
47.20555773677095
 31
0.0
  0
LINE
  5
33C
  8
0
  6
CONTINUOUS
 62
     9
 10
465.6849378259798
 20
46.20555773677095
 30
0.0
 11
519.6849378259798
 21
46.20555773677095
 31
0.0
  0
INSERT
  5
33D
  8
0
  6
CONTINUOUS
  2
DC_GROUP_106
 10
0.0
 20
0.0
 30
0.0
  0
INSERT
  5
33E
  8
0
  6
CONTINUOUS
  2
DC_GROUP_107
 10
0.0
 20
0.0
 30
0.0
  0
TEXT
  5
33F
  8
0
 62
     7
 10
484.6849378259798
 20
47.20555773677095
 30
0.0
 40
4.0
  1
PCD54
 41
0.7390476190476193
  7
FDASTYLE1
 72
     5
 11
499.4658902069322
 21
47.20555773677095
 31
0.0
  0
ENDBLK
  5
186
  8
0
  0
BLOCK
  8
0
  2
DC_GROUP_106
 70
     0
 10
0.0
 20
0.0
 30
0.0
  3
DC_GROUP_106
  1

  0
LINE
  5
340
  8
0
  6
CONTINUOUS
 62
     9
 10
467.6849362336104
 20
45.66965820187333
 30
0.0
 11
465.6849378259798
 21
46.20555773677095
 31
0.0
  0
LINE
  5
341
  8
0
  6
CONTINUOUS
 62
     9
 10
465.6849378259798
 20
46.20555773677095
 30
0.0
 11
467.6849362336104
 21
46.74145727166856
 31
0.0
  0
LINE
  5
342
  8
0
  6
CONTINUOUS
 62
     9
 10
465.6849378259798
 20
46.20555773677095
 30
0.0
 11
467.6849362336104
 21
46.20555773677095
 31
0.0
  0
ENDBLK
  5
189
  8
0
  0
BLOCK
  8
0
  2
DC_GROUP_107
 70
     0
 10
0.0
 20
0.0
 30
0.0
  3
DC_GROUP_107
  1

  0
LINE
  5
343
  8
0
  6
CONTINUOUS
 62
     9
 10
517.6849394183491
 20
46.74145727166856
 30
0.0
 11
519.6849378259798
 21
46.20555773677095
 31
0.0
  0
LINE
  5
344
  8
0
  6
CONTINUOUS
 62
     9
 10
519.6849378259798
 20
46.20555773677095
 30
0.0
 11
517.6849394183491
 21
45.66965820187333
 31
0.0
  0
LINE
  5
345
  8
0
  6
CONTINUOUS
 62
     9
 10
519.6849378259798
 20
46.20555773677095
 30
0.0
 11
517.6849394183491
 21
46.20555773677095
 31
0.0
  0
ENDBLK
  5
18C
  8
0
  0
BLOCK
  8
0
  2
DC_GROUP_108
 70
     0
 10
0.0
 20
0.0
 30
0.0
  3
DC_GROUP_108
  1

  0
LINE
  5
346
  8
0
  6
CONTINUOUS
 62
     7
 10
464.3664513927041
 20
36.80797776478375
 30
0.0
 11
425.2134965679695
 21
136.3019674562665
 31
0.0
  0
LINE
  5
347
  8
0
  6
CONTINUOUS
 62
     7
 10
425.2134965679695
 20
136.3019674562665
 30
0.0
 11
406.0134965679695
 21
136.3019674562665
 31
0.0
  0
INSERT
  5
348
  8
0
  6
CONTINUOUS
  2
DC_GROUP_109
 10
0.0
 20
0.0
 30
0.0
  0
TEXT
  5
349
  8
0
 62
     7
 10
406.0134965679695
 20
136.3019674562665
 30
0.0
 40
4.0
  1
2-φ5.3
 41
0.6243496357960464
  7
FDASTYLE1
 72
     5
 11
421.4973675357114
 21
136.3019674562665
 31
0.0
  0
ENDBLK
  5
18F
  8
0
  0
BLOCK
  8
0
  2
DC_GROUP_109
 70
     0
 10
0.0
 20
0.0
 30
0.0
  3
DC_GROUP_109
  1

  0
LINE
  5
34A
  8
0
  6
CONTINUOUS
 62
     7
 10
464.1327539388295
 20
38.86529821675063
 30
0.0
 11
464.3664513927041
 21
36.80797776478375
 31
0.0
  0
LINE
  5
34B
  8
0
  6
CONTINUOUS
 62
     7
 10
464.3664513927041
 20
36.80797776478375
 30
0.0
 11
463.1354007857316
 21
38.47281900198964
 31
0.0
  0
LINE
  5
34C
  8
0
  6
CONTINUOUS
 62
     7
 10
464.3664513927041
 20
36.80797776478375
 30
0.0
 11
463.6340773622806
 21
38.66905860937013
 31
0.0
  0
ENDBLK
  5
192
  8
0
  0
ENDSEC
  0
SECTION
  2
ENTITIES
  0
LINE
  5
34D
  8
LAYER0002
  6
CONTINUOUS
 62
     3
 10
79.57239374547669
 20
-190.0
 30
0.0
 11
79.57239374547669
 21
190.0
 31
0.0
  0
LINE
  5
34E
  8
LAYER0002
  6
CONTINUOUS
 62
     3
 10
633.5723937454767
 20
-190.0
 30
0.0
 11
633.5723937454767
 21
190.0
 31
0.0
  0
LINE
  5
34F
  8
LAYER0002
  6
CONTINUOUS
 62
     3
 10
79.57239374547669
 20
-190.0
 30
0.0
 11
633.5723937454767
 21
-190.0
 31
0.0
  0
LINE
  5
350
  8
LAYER0002
  6
CONTINUOUS
 62
     3
 10
79.57239374547669
 20
189.9999999999999
 30
0.0
 11
633.5723937454767
 21
189.9999999999999
 31
0.0
  0
LINE
  5
351
  8
LAYER0002
  6
CONTINUOUS
 62
     3
 10
453.5723937454767
 20
-190.0
 30
0.0
 11
453.5723937454767
 21
-130.0
 31
0.0
  0
LINE
  5
352
  8
LAYER0002
  6
CONTINUOUS
 62
     3
 10
453.5723937454767
 20
-176.0
 30
0.0
 11
633.5723937454767
 21
-176.0
 31
0.0
  0
LINE
  5
353
  8
LAYER0002
  6
CONTINUOUS
 62
     3
 10
502.5723937454767
 20
-162.0
 30
0.0
 11
633.5723937454767
 21
-162.0
 31
0.0
  0
LINE
  5
354
  8
LAYER0002
  6
CONTINUOUS
 62
     3
 10
502.5723937454767
 20
-148.0
 30
0.0
 11
633.5723937454767
 21
-148.0
 31
0.0
  0
LINE
  5
355
  8
LAYER0002
  6
CONTINUOUS
 62
     3
 10
502.5723937454767
 20
-138.0
 30
0.0
 11
633.5723937454767
 21
-138.0
 31
0.0
  0
LINE
  5
356
  8
LAYER0002
  6
CONTINUOUS
 62
     3
 10
502.5723937454767
 20
-176.0
 30
0.0
 11
502.5723937454767
 21
-130.0
 31
0.0
  0
LINE
  5
357
  8
LAYER0002
  6
CONTINUOUS
 62
     3
 10
611.5723937454767
 20
-176.0
 30
0.0
 11
611.5723937454767
 21
-130.0
 31
0.0
  0
LINE
  5
358
  8
LAYER0002
  6
CONTINUOUS
 62
     3
 10
527.5723937454767
 20
-190.0
 30
0.0
 11
527.5723937454767
 21
-176.0
 31
0.0
  0
LINE
  5
359
  8
LAYER0002
  6
CONTINUOUS
 62
     3
 10
618.5723937454767
 20
-188.0
 30
0.0
 11
628.5723937454767
 21
-188.0
 31
0.0
  0
LINE
  5
35A
  8
LAYER0002
  6
CONTINUOUS
 62
     3
 10
623.5723937454767
 20
-178.0
 30
0.0
 11
618.5723937454767
 21
-188.0
 31
0.0
  0
LINE
  5
35B
  8
LAYER0002
  6
CONTINUOUS
 62
     3
 10
623.5723937454767
 20
-178.0
 30
0.0
 11
628.5723937454767
 21
-188.0
 31
0.0
  0
LINE
  5
35C
  8
LAYER0002
  6
CONTINUOUS
 62
     3
 10
453.5723937454767
 20
-130.0
 30
0.0
 11
633.5723937454767
 21
-130.0
 31
0.0
  0
LINE
  5
35D
  8
LAYER0002
  6
CONTINUOUS
 62
     3
 10
582.5723937454767
 20
-176.0
 30
0.0
 11
582.5723937454767
 21
-148.0
 31
0.0
  0
LINE
  5
35E
  8
LAYER0002
  6
CONTINUOUS
 62
     4
 10
461.5723937454767
 20
-172.0
 30
0.0
 11
461.5723937454767
 21
-130.0
 31
0.0
  0
LINE
  5
35F
  8
LAYER0002
  6
CONTINUOUS
 62
     4
 10
465.5723937454767
 20
-172.0
 30
0.0
 11
465.5723937454767
 21
-130.0
 31
0.0
  0
LINE
  5
360
  8
LAYER0002
  6
CONTINUOUS
 62
     4
 10
478.0723937454767
 20
-176.0
 30
0.0
 11
478.0723937454767
 21
-130.0
 31
0.0
  0
LINE
  5
361
  8
LAYER0002
  6
CONTINUOUS
 62
     4
 10
453.5723937454767
 20
-137.0
 30
0.0
 11
502.5723937454767
 21
-137.0
 31
0.0
  0
LINE
  5
362
  8
LAYER0002
  6
CONTINUOUS
 62
     4
 10
453.5723937454767
 20
-144.0
 30
0.0
 11
502.5723937454767
 21
-144.0
 31
0.0
  0
LINE
  5
363
  8
LAYER0002
  6
CONTINUOUS
 62
     4
 10
453.5723937454767
 20
-165.0
 30
0.0
 11
502.5723937454767
 21
-165.0
 31
0.0
  0
LINE
  5
364
  8
LAYER0002
  6
CONTINUOUS
 62
     4
 10
453.5723937454767
 20
-172.0
 30
0.0
 11
502.5723937454767
 21
-172.0
 31
0.0
  0
LINE
  5
365
  8
LAYER0002
  6
CONTINUOUS
 62
     4
 10
611.5723937454767
 20
-166.0
 30
0.0
 11
633.5723937454767
 21
-166.0
 31
0.0
  0
LINE
  5
366
  8
LAYER0002
  6
CONTINUOUS
 62
     4
 10
509.5723937454767
 20
-139.5
 30
0.0
 11
509.5723937454767
 21
-130.0
 31
0.0
  0
LINE
  5
367
  8
LAYER0002
  6
CONTINUOUS
 62
     4
 10
558.5723937454767
 20
-148.0
 30
0.0
 11
558.5723937454767
 21
-146.5
 31
0.0
  0
LINE
  5
368
  8
LAYER0002
  6
CONTINUOUS
 62
     4
 10
582.5723937454767
 20
-148.0
 30
0.0
 11
582.5723937454767
 21
-146.5
 31
0.0
  0
LINE
  5
369
  8
LAYER0002
  6
CONTINUOUS
 62
     4
 10
599.5723937454767
 20
-148.0
 30
0.0
 11
599.5723937454767
 21
-146.5
 31
0.0
  0
LINE
  5
36A
  8
LAYER0002
  6
CONTINUOUS
 62
     4
 10
558.5723937454767
 20
-139.5
 30
0.0
 11
558.5723937454767
 21
-130.0
 31
0.0
  0
LINE
  5
36B
  8
LAYER0002
  6
CONTINUOUS
 62
     4
 10
582.5723937454767
 20
-139.5
 30
0.0
 11
582.5723937454767
 21
-130.0
 31
0.0
  0
LINE
  5
36C
  8
LAYER0002
  6
CONTINUOUS
 62
     4
 10
599.5723937454767
 20
-139.5
 30
0.0
 11
599.5723937454767
 21
-130.0
 31
0.0
  0
LINE
  5
36D
  8
LAYER0002
  6
CONTINUOUS
 62
     4
 10
453.5723937454767
 20
-151.0
 30
0.0
 11
502.5723937454767
 21
-151.0
 31
0.0
  0
LINE
  5
36E
  8
LAYER0002
  6
CONTINUOUS
 62
     4
 10
453.5723937454767
 20
-158.0
 30
0.0
 11
502.5723937454767
 21
-158.0
 31
0.0
  0
LINE
  5
36F
  8
LAYER0002
  6
CONTINUOUS
 62
     4
 10
457.5723937454767
 20
-130.5
 30
0.0
 11
454.5723937454767
 21
-136.5
 31
0.0
  0
LINE
  5
370
  8
LAYER0002
  6
CONTINUOUS
 62
     4
 10
457.5723937454767
 20
-130.5
 30
0.0
 11
460.5723937454767
 21
-136.5
 31
0.0
  0
LINE
  5
371
  8
LAYER0002
  6
CONTINUOUS
 62
     4
 10
454.5723937454767
 20
-136.5
 30
0.0
 11
460.5723937454767
 21
-136.5
 31
0.0
  0
LINE
  5
372
  8
LAYER0002
  6
CONTINUOUS
 62
     4
 10
457.5723937454767
 20
-158.5
 30
0.0
 11
454.5723937454767
 21
-164.5
 31
0.0
  0
LINE
  5
373
  8
LAYER0002
  6
CONTINUOUS
 62
     4
 10
457.5723937454767
 20
-158.5
 30
0.0
 11
460.5723937454767
 21
-164.5
 31
0.0
  0
LINE
  5
374
  8
LAYER0002
  6
CONTINUOUS
 62
     4
 10
454.5723937454767
 20
-164.5
 30
0.0
 11
460.5723937454767
 21
-164.5
 31
0.0
  0
LINE
  5
375
  8
LAYER0002
  6
CONTINUOUS
 62
     4
 10
457.5723937454767
 20
-151.5
 30
0.0
 11
454.5723937454767
 21
-157.5
 31
0.0
  0
LINE
  5
376
  8
LAYER0002
  6
CONTINUOUS
 62
     4
 10
457.5723937454767
 20
-151.5
 30
0.0
 11
460.5723937454767
 21
-157.5
 31
0.0
  0
LINE
  5
377
  8
LAYER0002
  6
CONTINUOUS
 62
     4
 10
454.5723937454767
 20
-157.5
 30
0.0
 11
460.5723937454767
 21
-157.5
 31
0.0
  0
LINE
  5
378
  8
LAYER0002
  6
CONTINUOUS
 62
     4
 10
457.5723937454767
 20
-144.5
 30
0.0
 11
454.5723937454767
 21
-150.5
 31
0.0
  0
LINE
  5
379
  8
LAYER0002
  6
CONTINUOUS
 62
     4
 10
457.5723937454767
 20
-144.5
 30
0.0
 11
460.5723937454767
 21
-150.5
 31
0.0
  0
LINE
  5
37A
  8
LAYER0002
  6
CONTINUOUS
 62
     4
 10
454.5723937454767
 20
-150.5
 30
0.0
 11
460.5723937454767
 21
-150.5
 31
0.0
  0
LINE
  5
37B
  8
LAYER0002
  6
CONTINUOUS
 62
     4
 10
457.5723937454767
 20
-137.5
 30
0.0
 11
454.5723937454767
 21
-143.5
 31
0.0
  0
LINE
  5
37C
  8
LAYER0002
  6
CONTINUOUS
 62
     4
 10
457.5723937454767
 20
-137.5
 30
0.0
 11
460.5723937454767
 21
-143.5
 31
0.0
  0
LINE
  5
37D
  8
LAYER0002
  6
CONTINUOUS
 62
     4
 10
454.5723937454767
 20
-143.5
 30
0.0
 11
460.5723937454767
 21
-143.5
 31
0.0
  0
LINE
  5
37E
  8
LAYER0002
  6
CONTINUOUS
 62
     4
 10
529.2390604121433
 20
-176.0
 30
0.0
 11
529.2390604121433
 21
-162.0
 31
0.0
  0
LINE
  5
37F
  8
LAYER0002
  6
CONTINUOUS
 62
     4
 10
555.90572707881
 20
-176.0
 30
0.0
 11
555.90572707881
 21
-161.9509415757253
 31
0.0
  0
LINE
  5
380
  8
LAYER0002
  6
CONTINUOUS
 62
     4
 10
569.2390604121433
 20
-167.5
 30
0.0
 11
569.2390604121433
 21
-161.9509415757253
 31
0.0
  0
LINE
  5
381
  8
LAYER0002
  6
CONTINUOUS
 62
     4
 10
582.5723937454767
 20
-155.0
 30
0.0
 11
611.5723937454767
 21
-155.0
 31
0.0
  0
LINE
  5
382
  8
LAYER0002
  6
CONTINUOUS
 62
     4
 10
502.5723937454767
 20
-166.0
 30
0.0
 11
582.5723937454767
 21
-166.0
 31
0.0
  0
TEXT
  5
384
  8
LAYER0002
 62
     7
 10
503.5661518929514
 20
-130.821188728956
 30
0.0
 40
2.44248928
  1
符号
 41
0.8
  7
FDASTYLE0
  0
TEXT
  5
385
  8
LAYER0002
 62
     7
 10
518.9865248673825
 20
-135.8245525019963
 30
0.0
 40
4.0
  1
品       名
 41
0.6192847442281572
  7
FDASTYLE1
 72
     5
 11
542.2716312503612
 21
-135.8245525019963
 31
0.0
  0
TEXT
  5
386
  8
LAYER0002
 62
     7
 10
563.8055501867863
 20
-135.8245525019963
 30
0.0
 40
4.0
  1
材  料
 41
0.5950413223140509
  7
FDASTYLE1
 72
     5
 11
574.2782774595136
 21
-135.8245525019963
 31
0.0
  0
TEXT
  5
387
  8
LAYER0002
 62
     7
 10
586.0884554303317
 20
-135.8245525019963
 30
0.0
 40
4.0
  1
個 数
 41
0.5813148788927315
  7
FDASTYLE1
 72
     5
 11
593.9943377832728
 21
-135.8245525019963
 31
0.0
  0
TEXT
  5
388
  8
LAYER0002
 62
     7
 10
602.2942046983646
 20
-133.5649080050572
 30
0.0
 40
2.5
  1
単重量
 41
0.6666666666666666
  7
FDASTYLE1
 72
     5
 11
608.2942046983646
 21
-133.5649080050572
 31
0.0
  0
TEXT
  5
389
  8
LAYER0002
 62
     7
 10
601.2813453691126
 20
-137.3631304897525
 30
0.0
 40
2.5
  1
(kg)
 41
0.5333333333333371
  7
FDASTYLE1
 72
     5
 11
606.614678702446
 21
-137.3631304897525
 31
0.0
  0
TEXT
  5
38A
  8
LAYER0002
 62
     7
 10
615.7145908109544
 20
-135.8245525019963
 30
0.0
 40
4.0
  1
記  事
 41
0.5950413223140509
  7
FDASTYLE1
 72
     5
 11
626.1873180836817
 21
-135.8245525019963
 31
0.0
  0
TEXT
  5
38B
  8
LAYER0002
 62
     7
 10
615.4174732006412
 20
-165.4873041997729
 30
0.0
 40
3.0
  1
コード番号
 41
0.6666666666666666
  7
FDASTYLE1
 72
     5
 11
627.4174732006412
 21
-165.4873041997729
 31
0.0
  0
TEXT
  5
38C
  8
LAYER0002
 62
     7
 10
458.4843857613084
 20
-175.1879010540338
 30
0.0
 40
2.5
  1
訂 正 来 歴
 41
0.5890861275476669
  7
FDASTYLE1
 72
     5
 11
469.9715652484879
 21
-175.1879010540338
 31
0.0
  0
TEXT
  5
38D
  8
LAYER0002
 62
     7
 10
482.4627285922417
 20
-175.2166697391651
 30
0.0
 40
2.5
  1
工 事 番 号
 41
0.5890861275476669
  7
FDASTYLE1
 72
     5
 11
493.9499080794212
 21
-175.2166697391651
 31
0.0
  0
TEXT
  5
38E
  8
LAYER0002
 62
     7
 10
455.5063940920796
 20
-165.9634530565915
 30
0.0
 40
1.90819475
  1
記号
 41
0.8
  7
FDASTYLE0
  0
TEXT
  5
38F
  8
LAYER0002
 62
     7
 10
461.4457811522385
 20
-165.9634530565915
 30
0.0
 40
1.90819475
  1
理由
 41
0.8
  7
FDASTYLE0
  0
TEXT
  5
390
  8
LAYER0002
 62
     7
 10
468.191760536461
 20
-169.8786046700178
 30
0.0
 40
3.0
  1
日 付
 41
0.5813148788927344
  7
FDASTYLE1
 72
     5
 11
474.1211723011669
 21
-169.8786046700178
 31
0.0
  0
TEXT
  5
391
  8
LAYER0002
 62
     7
 10
510.0205627274419
 20
-165.7187911464244
 30
0.0
 40
3.0
  1
承   認
 41
0.6035665294924586
  7
FDASTYLE1
 72
     5
 11
519.7983405052197
 21
-165.7187911464244
 31
0.0
  0
TEXT
  5
392
  8
LAYER0002
 62
     7
 10
536.4356217787107
 20
-165.4873041997729
 30
0.0
 40
3.0
  1
検   図
 41
0.6035665294924586
  7
FDASTYLE1
 72
     5
 11
546.2133995564885
 21
-165.4873041997729
 31
0.0
  0
TEXT
  5
393
  8
LAYER0002
 62
     7
 10
558.0495858438518
 20
-165.4873041997729
 30
0.0
 40
3.0
  1
担  当
 41
0.5950413223140511
  7
FDASTYLE1
 72
     5
 11
565.9041312983973
 21
-165.4873041997729
 31
0.0
  0
TEXT
  5
394
  8
LAYER0002
 62
     7
 10
571.2494512295879
 20
-165.4873041997729
 30
0.0
 40
3.0
  1
製  図
 41
0.5950413223140511
  7
FDASTYLE1
 72
     5
 11
579.1039966841333
 21
-165.4873041997729
 31
0.0
  0
TEXT
  5
395
  8
LAYER0002
 62
     7
 10
583.5186309758966
 20
-153.2184960272417
 30
0.0
 40
3.0
  1
作図
 41
0.6666666666666762
  7
FDASTYLE1
 72
     5
 11
588.3186309758967
 21
-153.2184960272417
 31
0.0
  0
TEXT
  5
396
  8
LAYER0002
 62
     7
 10
584.6760657091543
 20
-160.2371566401815
 30
0.0
 40
4.0
  1
第 三 角 法
 41
0.5890861275476675
  7
FDASTYLE1
 72
     5
 11
603.0555528886415
 21
-160.2371566401815
 31
0.0
  0
TEXT
  5
397
  8
LAYER0002
 62
     7
 10
583.9816048691997
 20
-166.413251986379
 30
0.0
 40
3.0
  1
尺度
 41
0.6666666666666762
  7
FDASTYLE1
 72
     5
 11
588.7816048691998
 21
-166.413251986379
 31
0.0
  0
TEXT
  5
399
  8
LAYER0002
 62
     3
 10
461.9515481155107
 20
-185.9272077185017
 30
0.0
 40
7.0
  1
株式会社 野村製作所
 41
0.5976394989045255
  7
FDASTYLE2
 72
     5
 11
517.8344271000773
 21
-185.9272077185017
 31
0.0
  0
TEXT
  5
39B
  8
LAYER0002
 62
     3
 10
533.6311292844923
 20
-187.1216685584563
 30
0.0
 40
8.0
  1
２－
 41
0.7699296059137625
  7
FDASTYLE3
 72
     5
 11
547.5206593751766
 21
-187.1216685584563
 31
0.0
  0
TEXT
  5
39C
  8
LAYER0002
 62
     3
 10
550.5430869088992
 20
-187.1216685584563
 30
0.0
 40
8.0
  1
9308075
 41
1.375217071789327
  7
FDASTYLE3
 72
     5
 11
605.716795829087
 21
-187.1216685584563
 31
0.0
  0
TEXT
  5
39D
  8
LAYER0002
 62
     4
 10
590.1032971299989
 20
-145.0216474852281
 30
0.0
 40
3.0
  1
1式
 41
0.520661157024785
  7
FDASTYLE1
 72
     5
 11
593.5396607663624
 21
-145.0216474852281
 31
0.0
  0
TEXT
  5
39E
  8
LAYER0002
 62
     4
 10
595.8735726361166
 20
-172.297487439201
 30
0.0
 40
3.0
  1
1/1
 41
0.5222222222222273
  7
FDASTYLE1
 72
     5
 11
600.5735726361166
 21
-172.297487439201
 31
0.0
  0
TEXT
  5
39F
  8
LAYER0002
 62
     6
 10
521.6085333514537
 20
-145.7243747487088
 30
0.0
 40
5.0
  1
外　形　図
 41
0.5833333333333334
  7
FDASTYLE1
 72
     5
 11
539.1085333514537
 21
-145.7243747487088
 31
0.0
  0
TEXT
  5
3A0
  8
LAYER0002
 62
     6
 10
508.9768756015056
 20
-154.3920863201719
 30
0.0
 40
5.0
  1
日鋼プレシジォン
 41
0.5833333333333322
  7
FDASTYLE1
 72
     5
 11
536.9768756015055
 21
-154.3920863201719
 31
0.0
  0
TEXT
  5
3A1
  8
LAYER0002
 62
     6
 10
517.4424132567851
 20
-160.8053724226564
 30
0.0
 40
5.0
  1
  HF2-8型 ﾁｬｯｸ
 41
0.553604224058769
  7
FDASTYLE1
 72
     5
 11
553.9802920446639
 21
-160.8053724226564
 31
0.0
  0
CIRCLE
  5
3A2
  8
0
  6
CONTINUOUS
 62
     3
 10
465.6849378259798
 20
34.50926213964264
 30
0.0
 40
2.65
  0
CIRCLE
  5
3A3
  8
0
  6
CONTINUOUS
 62
     3
 10
519.6849378259798
 20
34.50926213964264
 30
0.0
 40
2.65
  0
LINE
  5
3A4
  8
0
  6
CONTINUOUS
 62
     3
 10
260.2724195362641
 20
140.0092621396427
 30
0.0
 11
260.2724195362641
 21
131.3092651914005
 31
0.0
  0
LINE
  5
3A5
  8
0
  6
CONTINUOUS
 62
     3
 10
183.2724195362641
 20
142.0092621396427
 30
0.0
 11
183.2724195362641
 21
76.0190544675235
 31
0.0
  0
LINE
  5
3A6
  8
0
  6
CONTINUOUS
 62
     3
 10
183.2724195362641
 20
-72.99073786035736
 30
0.0
 11
258.2724195362641
 21
-72.99073786035736
 31
0.0
  0
LINE
  5
3A7
  8
0
  6
CONTINUOUS
 62
     3
 10
183.2724195362641
 20
129.5092621396427
 30
0.0
 11
187.4724317432954
 21
129.5092621396427
 31
0.0
  0
LINE
  5
3A8
  8
0
  6
CONTINUOUS
 62
     3
 10
183.2724195362641
 20
-60.49073786035736
 30
0.0
 11
187.4724317432954
 21
-60.49073786035736
 31
0.0
  0
LINE
  5
3A9
  8
0
  6
CONTINUOUS
 62
     3
 10
257.7724195362641
 20
-5.490737860357356
 30
0.0
 11
260.2724195362641
 21
-5.490737860357356
 31
0.0
  0
LINE
  5
3AA
  8
0
  6
CONTINUOUS
 62
     3
 10
187.4724317432954
 20
129.5092621396427
 30
0.0
 11
187.4724317432954
 21
-60.49073786035736
 31
0.0
  0
LINE
  5
3AB
  8
0
  6
CONTINUOUS
 62
     3
 10
257.7724195362641
 20
73.50925832494538
 30
0.0
 11
257.7724195362641
 21
-5.490737860357356
 31
0.0
  0
LINE
  5
3AC
  8
0
  6
CONTINUOUS
 62
     3
 10
239.6724439503266
 20
76.15926748021882
 30
0.0
 11
239.6724439503266
 21
71.50926213964264
 31
0.0
  0
LINE
  5
3AD
  8
0
  6
CONTINUOUS
 62
     3
 10
232.1724439503266
 20
76.15926748021882
 30
0.0
 11
232.1724439503266
 21
71.50926213964264
 31
0.0
  0
LINE
  5
3AE
  8
0
  6
CONTINUOUS
 62
     3
 10
232.1724286915375
 20
-7.140739386236263
 30
0.0
 11
239.6724286915375
 21
-7.140739386236263
 31
0.0
  0
LINE
  5
3AF
  8
0
  6
CONTINUOUS
 62
     3
 10
232.1724286915375
 20
76.15925222142975
 30
0.0
 11
239.6724286915375
 21
76.15925222142975
 31
0.0
  0
LINE
  5
3B0
  8
0
  6
CONTINUOUS
 62
     3
 10
259.2724303371369
 20
141.0092489240801
 30
0.0
 11
260.2724313987264
 21
140.0092478624906
 31
0.0
  0
LINE
  5
3B1
  8
0
  6
CONTINUOUS
 62
     3
 10
260.2724182489099
 20
-70.99075258601344
 30
0.0
 11
258.2724215205274
 21
-72.99074931439593
 31
0.0
  0
LINE
  5
3B2
  8
0
  6
CONTINUOUS
 62
     3
 10
232.1724439503266
 20
-2.490737860357356
 30
0.0
 11
232.1724439503266
 21
-7.140739386236263
 31
0.0
  0
LINE
  5
3B3
  8
0
  6
CONTINUOUS
 62
     3
 10
239.6724439503266
 20
-2.490737860357356
 30
0.0
 11
239.6724439503266
 21
-7.140739386236263
 31
0.0
  0
LINE
  5
3B4
  8
0
  6
CONTINUOUS
 62
     3
 10
187.4724317432954
 20
71.50926213964264
 30
0.0
 11
205.3893018604829
 21
71.50926213964264
 31
0.0
  0
LINE
  5
3B5
  8
0
  6
CONTINUOUS
 62
     3
 10
187.4724317432954
 20
-2.490737860357356
 30
0.0
 11
206.3893018604829
 21
-2.490737860357356
 31
0.0
  0
LINE
  5
3B6
  8
0
  6
CONTINUOUS
 62
     3
 10
207.7724195362641
 20
142.0092621396427
 30
0.0
 11
207.7724195362641
 21
115.435867364252
 31
0.0
  0
LINE
  5
3B7
  8
0
  6
CONTINUOUS
 62
     3
 10
242.2724195362641
 20
-13.84073633447845
 30
0.0
 11
260.2724195362641
 21
-13.84073633447845
 31
0.0
  0
LINE
  5
3B8
  8
0
  6
CONTINUOUS
 62
     3
 10
242.2724195362641
 20
-7.140739386236263
 30
0.0
 11
260.2724195362641
 21
-7.140739386236263
 31
0.0
  0
LINE
  5
3B9
  8
0
  6
CONTINUOUS
 62
     3
 10
242.2724195362641
 20
-7.140739386236263
 30
0.0
 11
242.2724195362641
 21
-13.84073633447845
 31
0.0
  0
LINE
  5
3BA
  8
0
  6
CONTINUOUS
 62
     3
 10
240.3382915292102
 20
-10.49070801133242
 30
0.0
 11
242.2724043086025
 21
-7.1407268693318
 31
0.0
  0
LINE
  5
3BB
  8
0
  6
CONTINUOUS
 62
     3
 10
240.3382621657533
 20
-10.49075863068727
 30
0.0
 11
242.2723825745411
 21
-13.84075298718661
 31
0.0
  0
LINE
  5
3BC
  8
0
  6
CONTINUOUS
 62
     3
 10
196.3893018604829
 20
70.50926213964264
 30
0.0
 11
196.3893018604829
 21
-1.490737860357356
 31
0.0
  0
LINE
  5
3BD
  8
0
  6
CONTINUOUS
 62
     3
 10
246.3893018604829
 20
70.50926213964264
 30
0.0
 11
246.3893018604829
 21
-1.490737860357356
 31
0.0
  0
LINE
  5
3BE
  8
0
  6
CONTINUOUS
 62
     3
 10
196.3893018604829
 20
9.509262139642644
 30
0.0
 11
225.3893018604829
 21
9.509262139642644
 31
0.0
  0
LINE
  5
3BF
  8
0
  6
CONTINUOUS
 62
     3
 10
196.3893018604829
 20
59.50926213964264
 30
0.0
 11
225.3893018604829
 21
59.50926213964264
 31
0.0
  0
LINE
  5
3C0
  8
0
  6
CONTINUOUS
 62
     3
 10
205.3893018604829
 20
71.50926213964264
 30
0.0
 11
245.3893018604829
 21
71.50926213964264
 31
0.0
  0
LINE
  5
3C1
  8
0
  6
CONTINUOUS
 62
     3
 10
225.3893018604829
 20
66.00926213964264
 30
0.0
 11
225.3893018604829
 21
3.009262139642644
 31
0.0
  0
LINE
  5
3C2
  8
0
  6
CONTINUOUS
 62
     3
 10
227.3893018604829
 20
66.00926213964264
 30
0.0
 11
227.3893018604829
 21
57.25926213964264
 31
0.0
  0
LINE
  5
3C3
  8
0
  6
CONTINUOUS
 62
     3
 10
235.3893018604829
 20
67.50926213964264
 30
0.0
 11
235.3893018604829
 21
1.509262139642644
 31
0.0
  0
LINE
  5
3C4
  8
0
  6
CONTINUOUS
 62
     3
 10
237.3893018604829
 20
67.50926213964264
 30
0.0
 11
237.3893018604829
 21
1.509262139642644
 31
0.0
  0
LINE
  5
3C5
  8
0
  6
CONTINUOUS
 62
     3
 10
225.3893018604829
 20
3.009262139642644
 30
0.0
 11
227.3893018604829
 21
3.009262139642644
 31
0.0
  0
LINE
  5
3C6
  8
0
  6
CONTINUOUS
 62
     3
 10
225.3893018604829
 20
66.00926213964264
 30
0.0
 11
227.3893018604829
 21
66.00926213964264
 31
0.0
  0
LINE
  5
3C7
  8
0
  6
CONTINUOUS
 62
     3
 10
227.3893018604829
 20
11.75926213964264
 30
0.0
 11
227.3893018604829
 21
3.009262139642644
 31
0.0
  0
LINE
  5
3C8
  8
0
  6
CONTINUOUS
 62
     3
 10
227.3893018604829
 20
65.75926213964264
 30
0.0
 11
235.3893018604829
 21
65.75926213964264
 31
0.0
  0
LINE
  5
3C9
  8
0
  6
CONTINUOUS
 62
     3
 10
235.3893018604829
 20
1.509262139642644
 30
0.0
 11
237.3893018604829
 21
1.509262139642644
 31
0.0
  0
LINE
  5
3CA
  8
0
  6
CONTINUOUS
 62
     3
 10
235.3893018604829
 20
67.50926213964264
 30
0.0
 11
237.3893018604829
 21
67.50926213964264
 31
0.0
  0
LINE
  5
3CB
  8
0
  6
CONTINUOUS
 62
     3
 10
206.3893018604829
 20
-2.490737860357356
 30
0.0
 11
257.7724195362641
 21
-2.490737860357356
 31
0.0
  0
LINE
  5
3CC
  8
0
  6
CONTINUOUS
 62
     3
 10
196.389287579311
 20
70.50925770136625
 30
0.0
 11
197.3892886409005
 21
71.50925876295575
 31
0.0
  0
LINE
  5
3CD
  8
0
  6
CONTINUOUS
 62
     3
 10
246.3893325665913
 20
70.50924960917148
 30
0.0
 11
245.3893315050018
 21
71.50925067076098
 31
0.0
  0
LINE
  5
3CE
  8
0
  6
CONTINUOUS
 62
     3
 10
246.3893460535826
 20
-1.490770179909148
 30
0.0
 11
245.3893449919931
 21
-2.490771241498649
 31
0.0
  0
LINE
  5
3CF
  8
0
  6
CONTINUOUS
 62
     3
 10
196.3893199480901
 20
-1.490732416333529
 30
0.0
 11
197.3893210096796
 21
-2.49073347792303
 31
0.0
  0
LINE
  5
3D0
  8
0
  6
CONTINUOUS
 62
     3
 10
251.2724195362641
 20
141.3092651914005
 30
0.0
 11
251.2724195362641
 21
131.3092651914005
 31
0.0
  0
LINE
  5
3D1
  8
0
  6
CONTINUOUS
 62
     3
 10
246.5724073292329
 20
76.80926519140046
 30
0.0
 11
246.5724073292329
 21
71.50926213964264
 31
0.0
  0
LINE
  5
3D2
  8
0
  6
CONTINUOUS
 62
     3
 10
232.2724195362641
 20
78.70925908788483
 30
0.0
 11
239.6724286915375
 21
78.70925908788483
 31
0.0
  0
LINE
  5
3D3
  8
0
  6
CONTINUOUS
 62
     3
 10
239.6724439503266
 20
78.70925908788483
 30
0.0
 11
239.6724439503266
 21
76.15926748021882
 31
0.0
  0
LINE
  5
3D4
  8
0
  6
CONTINUOUS
 62
     3
 10
239.6724286915375
 20
73.50925832494538
 30
0.0
 11
246.5724225880219
 21
73.50925832494538
 31
0.0
  0
LINE
  5
3D5
  8
0
  6
CONTINUOUS
 62
     3
 10
257.7724195362641
 20
73.50925832494538
 30
0.0
 11
260.2724195362641
 21
73.50925832494538
 31
0.0
  0
LINE
  5
3D6
  8
0
  6
CONTINUOUS
 62
     3
 10
244.2724195362641
 20
141.3092651914005
 30
0.0
 11
244.2724195362641
 21
73.50925832494538
 31
0.0
  0
LINE
  5
3D7
  8
0
  6
CONTINUOUS
 62
     3
 10
247.3781324268891
 20
70.19097905858796
 30
0.0
 11
257.7724195362641
 21
70.19097905858796
 31
0.0
  0
LINE
  5
3D8
  8
0
  6
CONTINUOUS
 62
     3
 10
232.2724195362641
 20
92.50926213964264
 30
0.0
 11
232.2724195362641
 21
77.07167058690827
 31
0.0
  0
LINE
  5
3D9
  8
0
  6
CONTINUOUS
 62
     3
 10
183.2724195362641
 20
142.0092621396427
 30
0.0
 11
207.7724195362641
 21
142.0092621396427
 31
0.0
  0
LINE
  5
3DA
  8
0
  6
CONTINUOUS
 62
     3
 10
245.2724195362641
 20
131.3092651914005
 30
0.0
 11
260.7724195362641
 21
131.3092651914005
 31
0.0
  0
LINE
  5
3DB
  8
0
  6
CONTINUOUS
 62
     3
 10
245.2724195362641
 20
81.30926519140046
 30
0.0
 11
260.7724195362641
 21
81.30926519140046
 31
0.0
  0
LINE
  5
3DC
  8
0
  6
CONTINUOUS
 62
     3
 10
245.2724195362641
 20
131.3092651914005
 30
0.0
 11
245.2724195362641
 21
101.3092651914005
 31
0.0
  0
LINE
  5
3DD
  8
0
  6
CONTINUOUS
 62
     3
 10
260.7724195362641
 20
131.3092651914005
 30
0.0
 11
260.7724195362641
 21
126.3092651914005
 31
0.0
  0
LINE
  5
3DE
  8
0
  6
CONTINUOUS
 62
     3
 10
251.2724195362641
 20
81.30926519140046
 30
0.0
 11
251.2724195362641
 21
76.80926519140046
 31
0.0
  0
LINE
  5
3DF
  8
0
  6
CONTINUOUS
 62
     3
 10
245.2724195362641
 20
101.3092651914005
 30
0.0
 11
245.2724195362641
 21
81.30926519140046
 31
0.0
  0
LINE
  5
3E0
  8
0
  6
CONTINUOUS
 62
     3
 10
260.7724195362641
 20
101.3092651914005
 30
0.0
 11
260.7724195362641
 21
96.30926519140046
 31
0.0
  0
LINE
  5
3E1
  8
0
  6
CONTINUOUS
 62
     3
 10
260.2724195362641
 20
81.30926519140046
 30
0.0
 11
260.2724195362641
 21
-70.99073786035736
 31
0.0
  0
LINE
  5
3E2
  8
0
  6
CONTINUOUS
 62
     3
 10
260.7724195362641
 20
116.3092651914005
 30
0.0
 11
260.7724195362641
 21
101.3092651914005
 31
0.0
  0
LINE
  5
3E3
  8
0
  6
CONTINUOUS
 62
     3
 10
260.7724195362641
 20
86.30926519140046
 30
0.0
 11
260.7724195362641
 21
81.30926519140046
 31
0.0
  0
LINE
  5
3E4
  8
0
  6
CONTINUOUS
 62
     3
 10
268.2724195362641
 20
129.3092651914005
 30
0.0
 11
268.2724195362641
 21
113.3092651914005
 31
0.0
  0
LINE
  5
3E5
  8
0
  6
CONTINUOUS
 62
     3
 10
245.2724195362641
 20
116.3092651914005
 30
0.0
 11
268.2724195362641
 21
116.3092651914005
 31
0.0
  0
LINE
  5
3E6
  8
0
  6
CONTINUOUS
 62
     3
 10
245.2724195362641
 20
126.3092651914005
 30
0.0
 11
268.2724195362641
 21
126.3092651914005
 31
0.0
  0
LINE
  5
3E7
  8
0
  6
CONTINUOUS
 62
     3
 10
245.2724195362641
 20
96.30926519140046
 30
0.0
 11
268.2724195362641
 21
96.30926519140046
 31
0.0
  0
LINE
  5
3E8
  8
0
  6
CONTINUOUS
 62
     3
 10
245.2724195362641
 20
86.30926519140046
 30
0.0
 11
268.2724195362641
 21
86.30926519140046
 31
0.0
  0
LINE
  5
3E9
  8
0
  6
CONTINUOUS
 62
     3
 10
268.2724195362641
 20
99.30926519140046
 30
0.0
 11
268.2724195362641
 21
83.30926519140046
 31
0.0
  0
LINE
  5
3EA
  8
0
  6
CONTINUOUS
 62
     3
 10
278.2724195362641
 20
129.3092651914005
 30
0.0
 11
278.2724195362641
 21
113.3092651914005
 31
0.0
  0
LINE
  5
3EB
  8
0
  6
CONTINUOUS
 62
     3
 10
268.2724195362641
 20
129.3092651914005
 30
0.0
 11
278.2724195362641
 21
129.3092651914005
 31
0.0
  0
LINE
  5
3EC
  8
0
  6
CONTINUOUS
 62
     3
 10
268.2724195362641
 20
113.3092651914005
 30
0.0
 11
278.2724195362641
 21
113.3092651914005
 31
0.0
  0
LINE
  5
3ED
  8
0
  6
CONTINUOUS
 62
     3
 10
268.2724195362641
 20
83.30926519140046
 30
0.0
 11
278.2724195362641
 21
83.30926519140046
 31
0.0
  0
LINE
  5
3EE
  8
0
  6
CONTINUOUS
 62
     3
 10
268.2724195362641
 20
99.30926519140046
 30
0.0
 11
278.2724195362641
 21
99.30926519140046
 31
0.0
  0
LINE
  5
3EF
  8
0
  6
CONTINUOUS
 62
     3
 10
278.2724195362641
 20
99.30926519140046
 30
0.0
 11
278.2724195362641
 21
83.30926519140046
 31
0.0
  0
LINE
  5
3F0
  8
0
  6
CONTINUOUS
 62
     3
 10
248.2724195362641
 20
126.3092651914005
 30
0.0
 11
248.2724195362641
 21
116.3092651914005
 31
0.0
  0
LINE
  5
3F1
  8
0
  6
CONTINUOUS
 62
     3
 10
248.2724195362641
 20
96.30926519140046
 30
0.0
 11
248.2724195362641
 21
86.30926519140046
 31
0.0
  0
LINE
  5
3F2
  8
0
  6
CONTINUOUS
 62
     3
 10
207.7724195362641
 20
141.3092651914005
 30
0.0
 11
259.2724195362641
 21
141.3092651914005
 31
0.0
  0
LINE
  5
3F3
  8
0
  6
CONTINUOUS
 62
     3
 10
246.5724073292329
 20
76.80926519140046
 30
0.0
 11
259.2724195362641
 21
76.80926519140046
 31
0.0
  0
LINE
  5
3F4
  8
0
  6
CONTINUOUS
 62
     3
 10
183.2724195362641
 20
34.50926213964264
 30
0.0
 11
183.2724195362641
 21
-72.99073786035736
 31
0.0
  0
LINE
  5
3F5
  8
0
  6
CONTINUOUS
 62
     3
 10
241.3893018604829
 20
63.50926213964264
 30
0.0
 11
241.3893018604829
 21
59.50926213964264
 31
0.0
  0
LINE
  5
3F6
  8
0
  6
CONTINUOUS
 62
     3
 10
245.3893018604829
 20
63.50926213964264
 30
0.0
 11
245.3893018604829
 21
59.50926213964264
 31
0.0
  0
LINE
  5
3F7
  8
0
  6
CONTINUOUS
 62
     3
 10
237.3893018604829
 20
67.00926213964264
 30
0.0
 11
246.3893018604829
 21
67.00926213964264
 31
0.0
  0
LINE
  5
3F8
  8
0
  6
CONTINUOUS
 62
     3
 10
237.3893018604829
 20
59.50926213964264
 30
0.0
 11
246.3893018604829
 21
59.50926213964264
 31
0.0
  0
LINE
  5
3F9
  8
0
  6
CONTINUOUS
 62
     3
 10
237.3893018604829
 20
63.50926213964264
 30
0.0
 11
246.3893018604829
 21
63.50926213964264
 31
0.0
  0
LINE
  5
3FA
  8
0
  6
CONTINUOUS
 62
     3
 10
237.3893018604829
 20
58.50926213964264
 30
0.0
 11
246.3893018604829
 21
58.50926213964264
 31
0.0
  0
LINE
  5
3FB
  8
0
  6
CONTINUOUS
 62
     3
 10
237.3893018604829
 20
2.009262139642644
 30
0.0
 11
246.3893018604829
 21
2.009262139642644
 31
0.0
  0
LINE
  5
3FC
  8
0
  6
CONTINUOUS
 62
     3
 10
237.3893018604829
 20
10.50926213964264
 30
0.0
 11
246.3893018604829
 21
10.50926213964264
 31
0.0
  0
LINE
  5
3FD
  8
0
  6
CONTINUOUS
 62
     3
 10
227.3893018604829
 20
3.259262139642644
 30
0.0
 11
235.3893018604829
 21
3.259262139642644
 31
0.0
  0
LINE
  5
3FE
  8
0
  6
CONTINUOUS
 62
     3
 10
446.9849328903605
 20
109.009259405592
 30
0.0
 11
449.8349319128442
 21
104.0729133524014
 31
0.0
  0
LINE
  5
3FF
  8
0
  6
CONTINUOUS
 62
     3
 10
449.8349349762
 20
104.0729190819595
 30
0.0
 11
455.5349319244422
 21
104.0729166977745
 31
0.0
  0
LINE
  5
400
  8
0
  6
CONTINUOUS
 62
     3
 10
455.5349337417742
 20
104.0729163857806
 30
0.0
 11
458.3849356133582
 21
109.0092564173757
 31
0.0
  0
LINE
  5
401
  8
0
  6
CONTINUOUS
 62
     3
 10
458.3849380838698
 20
109.0092616867675
 30
0.0
 11
455.534939571006
 21
113.9456084194512
 31
0.0
  0
LINE
  5
402
  8
0
  6
CONTINUOUS
 62
     3
 10
455.534934675765
 20
113.9456057683118
 30
0.0
 11
449.8349377275229
 21
113.9456067219857
 31
0.0
  0
LINE
  5
403
  8
0
  6
CONTINUOUS
 62
     3
 10
449.8349383979507
 20
113.9456065903539
 30
0.0
 11
446.9849389045907
 21
109.0092648600272
 31
0.0
  0
LINE
  5
404
  8
0
  6
CONTINUOUS
 62
     3
 10
515.1849378259798
 20
-100.4945258547421
 30
0.0
 11
549.251145711722
 21
-100.4945258547421
 31
0.0
  0
LINE
  5
405
  8
0
  6
CONTINUOUS
 62
     3
 10
523.6849378259798
 20
-113.4945258547421
 30
0.0
 11
523.6849378259798
 21
-100.4945258547421
 31
0.0
  0
LINE
  5
406
  8
0
  6
CONTINUOUS
 62
     3
 10
541.6849378259798
 20
-113.4945258547421
 30
0.0
 11
541.6849378259798
 21
-100.4945258547421
 31
0.0
  0
LINE
  5
407
  8
0
  6
CONTINUOUS
 62
     3
 10
523.6849378259798
 20
-113.4945258547421
 30
0.0
 11
541.6849378259798
 21
-113.4945258547421
 31
0.0
  0
LINE
  5
408
  8
0
  6
CONTINUOUS
 62
     3
 10
535.0849317224642
 20
-101.4945258547421
 30
0.0
 11
530.2849286707065
 21
-101.4945258547421
 31
0.0
  0
LINE
  5
409
  8
0
  6
CONTINUOUS
 62
     3
 10
526.9849408777377
 20
-109.9332770754453
 30
0.0
 11
526.9849408777377
 21
-113.055774634039
 31
0.0
  0
LINE
  5
40A
  8
0
  6
CONTINUOUS
 62
     3
 10
538.384934774222
 20
-109.9332770754453
 30
0.0
 11
538.384934774222
 21
-113.055774634039
 31
0.0
  0
LINE
  5
40B
  8
0
  6
CONTINUOUS
 62
     3
 10
529.3849307415196
 20
-104.1945201605204
 30
0.0
 11
530.2849313702742
 21
-101.4945179349808
 31
0.0
  0
LINE
  5
40C
  8
0
  6
CONTINUOUS
 62
     3
 10
535.9849342595107
 20
-104.1945302104339
 30
0.0
 11
535.0849329427806
 21
-101.4945261754245
 31
0.0
  0
LINE
  5
40D
  8
0
  6
CONTINUOUS
 62
     3
 10
537.134934774222
 20
-109.4945258547421
 30
0.0
 11
528.2349408777377
 21
-109.4945258547421
 31
0.0
  0
LINE
  5
40E
  8
0
  6
CONTINUOUS
 62
     3
 10
535.5785993250033
 20
-110.2384147097226
 30
0.0
 11
535.5785993250033
 21
-112.7506369997617
 31
0.0
  0
LINE
  5
40F
  8
0
  6
CONTINUOUS
 62
     3
 10
529.7912763269565
 20
-110.2384147097226
 30
0.0
 11
529.7912763269565
 21
-112.7506369997617
 31
0.0
  0
LINE
  5
410
  8
0
  6
CONTINUOUS
 62
     3
 10
485.6849378259798
 20
-7.7907485415097
 30
0.0
 11
485.6849378259798
 21
-18.41776651636322
 31
0.0
  0
LINE
  5
411
  8
0
  6
CONTINUOUS
 62
     3
 10
499.6849378259798
 20
-7.7907485415097
 30
0.0
 11
499.6849378259798
 21
-18.41776651636322
 31
0.0
  0
LINE
  5
412
  8
0
  6
CONTINUOUS
 62
     3
 10
475.1849149377963
 20
-7.7907485415097
 30
0.0
 11
485.6849378259798
 21
-7.7907485415097
 31
0.0
  0
LINE
  5
413
  8
0
  6
CONTINUOUS
 62
     3
 10
485.6849378259798
 20
81.30925374730866
 30
0.0
 11
499.6849378259798
 21
81.30925374730866
 31
0.0
  0
LINE
  5
414
  8
0
  6
CONTINUOUS
 62
     3
 10
499.6849378259798
 20
141.3092537473087
 30
0.0
 11
499.6849378259798
 21
125.1822395871524
 31
0.0
  0
LINE
  5
415
  8
0
  6
CONTINUOUS
 62
     3
 10
475.1849149377963
 20
141.3092537473087
 30
0.0
 11
510.184968343558
 21
141.3092537473087
 31
0.0
  0
LINE
  5
416
  8
0
  6
CONTINUOUS
 62
     3
 10
510.1849586332859
 20
141.3091644498183
 30
0.0
 11
520.1849285777748
 21
139.5458998913838
 31
0.0
  0
LINE
  5
417
  8
0
  6
CONTINUOUS
 62
     3
 10
465.184937268325
 20
139.5459529097372
 30
0.0
 11
475.1849222397872
 21
141.3092201178326
 31
0.0
  0
LINE
  5
418
  8
0
  6
CONTINUOUS
 62
     3
 10
465.1849378259798
 20
139.5459786008243
 30
0.0
 11
465.1849378259798
 21
138.4323158810977
 31
0.0
  0
LINE
  5
419
  8
0
  6
CONTINUOUS
 62
     3
 10
520.1849378259798
 20
139.5459480832462
 30
0.0
 11
520.1849378259798
 21
138.4323158810977
 31
0.0
  0
LINE
  5
41A
  8
0
  6
CONTINUOUS
 62
     3
 10
485.6849378259798
 20
141.3092537473087
 30
0.0
 11
485.6849378259798
 21
125.1822395871524
 31
0.0
  0
LINE
  5
41B
  8
0
  6
CONTINUOUS
 62
     3
 10
520.1849378259798
 20
139.5459480832462
 30
0.0
 11
520.1849378259798
 21
138.4323158810977
 31
0.0
  0
LINE
  5
41C
  8
0
  6
CONTINUOUS
 62
     3
 10
475.1849149377963
 20
76.80925374730866
 30
0.0
 11
485.6849378259798
 21
76.80925374730866
 31
0.0
  0
LINE
  5
41D
  8
0
  6
CONTINUOUS
 62
     3
 10
510.1849378259798
 20
141.3092537473087
 30
0.0
 11
510.1849378259798
 21
67.10910421117585
 31
0.0
  0
LINE
  5
41E
  8
0
  6
CONTINUOUS
 62
     3
 10
485.6849378259798
 20
131.3092537473087
 30
0.0
 11
499.6849378259798
 21
131.3092537473087
 31
0.0
  0
LINE
  5
41F
  8
0
  6
CONTINUOUS
 62
     3
 10
465.1849378259798
 20
139.5459786008243
 30
0.0
 11
465.1849378259798
 21
138.4323158810977
 31
0.0
  0
LINE
  5
420
  8
0
  6
CONTINUOUS
 62
     3
 10
482.9349378259798
 20
76.80925374730866
 30
0.0
 11
482.9349378259798
 21
72.27084737523835
 31
0.0
  0
LINE
  5
421
  8
0
  6
CONTINUOUS
 62
     3
 10
502.4349378259798
 20
76.80925374730866
 30
0.0
 11
502.4349378259798
 21
72.27084737523835
 31
0.0
  0
LINE
  5
422
  8
0
  6
CONTINUOUS
 62
     3
 10
499.6849378259798
 20
76.80925374730866
 30
0.0
 11
510.184968343558
 21
76.80925374730866
 31
0.0
  0
LINE
  5
423
  8
0
  6
CONTINUOUS
 62
     3
 10
475.1849378259798
 20
141.3092537473087
 30
0.0
 11
475.1849378259798
 21
67.10910421117585
 31
0.0
  0
LINE
  5
424
  8
0
  6
CONTINUOUS
 62
     3
 10
485.6849378259798
 20
-56.16373438135345
 30
0.0
 11
485.6849378259798
 21
-72.2907485415097
 31
0.0
  0
LINE
  5
425
  8
0
  6
CONTINUOUS
 62
     3
 10
499.6849378259798
 20
-7.7907485415097
 30
0.0
 11
510.184968343558
 21
-7.7907485415097
 31
0.0
  0
LINE
  5
426
  8
0
  6
CONTINUOUS
 62
     3
 10
485.6849378259798
 20
-12.2907485415097
 30
0.0
 11
499.6849378259798
 21
-12.2907485415097
 31
0.0
  0
LINE
  5
427
  8
0
  6
CONTINUOUS
 62
     3
 10
485.6849378259798
 20
-62.2907485415097
 30
0.0
 11
499.6849378259798
 21
-62.2907485415097
 31
0.0
  0
LINE
  5
428
  8
0
  6
CONTINUOUS
 62
     3
 10
482.9349378259798
 20
-3.252326910650325
 30
0.0
 11
482.9349378259798
 21
-7.7907485415097
 31
0.0
  0
LINE
  5
429
  8
0
  6
CONTINUOUS
 62
     3
 10
502.4349378259798
 20
-3.252326910650325
 30
0.0
 11
502.4349378259798
 21
-7.7907485415097
 31
0.0
  0
LINE
  5
42A
  8
0
  6
CONTINUOUS
 62
     3
 10
499.6849378259798
 20
-26.16373056665618
 30
0.0
 11
499.6849378259798
 21
-48.41776270166595
 31
0.0
  0
LINE
  5
42B
  8
0
  6
CONTINUOUS
 62
     3
 10
499.6849378259798
 20
-56.16373438135345
 30
0.0
 11
499.6849378259798
 21
-72.2907485415097
 31
0.0
  0
LINE
  5
42C
  8
0
  6
CONTINUOUS
 62
     3
 10
465.1849337729077
 20
-70.52747369210995
 30
0.0
 11
475.1849187443699
 21
-72.29074090020534
 31
0.0
  0
LINE
  5
42D
  8
0
  6
CONTINUOUS
 62
     3
 10
510.1849537258822
 20
-72.29072544928552
 30
0.0
 11
520.1849386973444
 21
-70.52745824119013
 31
0.0
  0
LINE
  5
42E
  8
0
  6
CONTINUOUS
 62
     3
 10
485.6849378259798
 20
87.43628316625397
 30
0.0
 11
485.6849378259798
 21
76.80925374730866
 31
0.0
  0
LINE
  5
42F
  8
0
  6
CONTINUOUS
 62
     3
 10
485.6849378259798
 20
117.4362679074649
 30
0.0
 11
485.6849378259798
 21
95.18223958715241
 31
0.0
  0
LINE
  5
430
  8
0
  6
CONTINUOUS
 62
     3
 10
499.6849378259798
 20
117.4362679074649
 30
0.0
 11
499.6849378259798
 21
95.18223958715241
 31
0.0
  0
LINE
  5
431
  8
0
  6
CONTINUOUS
 62
     3
 10
499.6849378259798
 20
87.43628316625397
 30
0.0
 11
499.6849378259798
 21
76.80925374730866
 31
0.0
  0
LINE
  5
432
  8
0
  6
CONTINUOUS
 62
     3
 10
475.1849149377963
 20
-72.2907485415097
 30
0.0
 11
510.184968343558
 21
-72.2907485415097
 31
0.0
  0
LINE
  5
433
  8
0
  6
CONTINUOUS
 62
     3
 10
510.1849378259798
 20
1.909416253412175
 30
0.0
 11
510.1849378259798
 21
-72.2907485415097
 31
0.0
  0
LINE
  5
434
  8
0
  6
CONTINUOUS
 62
     3
 10
520.1849378259798
 20
-69.41378778711517
 30
0.0
 11
520.1849378259798
 21
-70.52748102441986
 31
0.0
  0
LINE
  5
435
  8
0
  6
CONTINUOUS
 62
     3
 10
475.1849378259798
 20
1.909416253412175
 30
0.0
 11
475.1849378259798
 21
-72.2907485415097
 31
0.0
  0
LINE
  5
436
  8
0
  6
CONTINUOUS
 62
     3
 10
465.1849378259798
 20
-69.41378778711517
 30
0.0
 11
465.1849378259798
 21
-70.52748102441986
 31
0.0
  0
LINE
  5
437
  8
0
  6
CONTINUOUS
 62
     3
 10
485.6849378259798
 20
-26.16373056665618
 30
0.0
 11
485.6849378259798
 21
-48.41776270166595
 31
0.0
  0
LINE
  5
438
  8
0
  6
CONTINUOUS
 62
     3
 10
535.5349355146997
 20
-44.92707871065552
 30
0.0
 11
538.384936915409
 21
-39.99073367670447
 31
0.0
  0
LINE
  5
439
  8
0
  6
CONTINUOUS
 62
     3
 10
529.8349317224642
 20
-44.92709726587493
 30
0.0
 11
535.5349439294955
 21
-44.92709726587493
 31
0.0
  0
LINE
  5
43A
  8
0
  6
CONTINUOUS
 62
     3
 10
526.9849375439083
 20
-39.99073566570571
 30
0.0
 11
529.8349379641194
 21
-44.92708570201496
 31
0.0
  0
LINE
  5
43B
  8
0
  6
CONTINUOUS
 62
     3
 10
529.8349375938883
 20
-35.05439520643616
 30
0.0
 11
526.9849357223042
 21
-39.99073523803129
 31
0.0
  0
LINE
  5
43C
  8
0
  6
CONTINUOUS
 62
     3
 10
535.5349439294955
 20
-35.0544318606015
 30
0.0
 11
529.8349469812533
 21
-35.0544318606015
 31
0.0
  0
LINE
  5
43D
  8
0
  6
CONTINUOUS
 62
     3
 10
538.3849333618159
 20
-39.9907359746838
 30
0.0
 11
535.53493624668
 21
-35.05439322511832
 31
0.0
  0
CIRCLE
  5
43E
  8
0
  6
CONTINUOUS
 62
     3
 10
452.6849378259798
 20
109.0092659543399
 30
0.0
 40
9.0
  0
CIRCLE
  5
43F
  8
0
  6
CONTINUOUS
 62
     3
 10
452.6849378259798
 20
109.0092659543399
 30
0.0
 40
0.75
  0
CIRCLE
  5
440
  8
0
  6
CONTINUOUS
 62
     3
 10
452.6849378259798
 20
109.0092659543399
 30
0.0
 40
2.400000095367432
  0
CIRCLE
  5
441
  8
0
  6
CONTINUOUS
 62
     3
 10
452.6849378259798
 20
109.0092659543399
 30
0.0
 40
3.299999952316284
  0
ARC
  5
442
  8
0
  6
CONTINUOUS
 62
     3
 10
532.6849378259798
 20
-104.1945228029843
 30
0.0
 40
3.299999952316284
 50
343.4828250301777
 51
359.9999846699699
  0
ARC
  5
443
  8
0
  6
CONTINUOUS
 62
     3
 10
532.6849378259798
 20
-104.1945228029843
 30
0.0
 40
3.299999952316284
 50
180.0000223118003
 51
196.517181913697
  0
ARC
  5
444
  8
0
  6
CONTINUOUS
 62
     3
 10
537.134934774222
 20
-111.4945258547421
 30
0.0
 40
2.0
 50
270.0000043257107
 51
308.6821932938098
  0
ARC
  5
445
  8
0
  6
CONTINUOUS
 62
     3
 10
528.2349408777377
 20
-111.4945258547421
 30
0.0
 40
2.0
 50
270.0000043257107
 51
321.0931661100998
  0
ARC
  5
446
  8
0
  6
CONTINUOUS
 62
     3
 10
532.6849378259798
 20
-107.4945258547421
 30
0.0
 40
6.0
 50
270.000004325711
 51
298.8342353031886
  0
ARC
  5
447
  8
0
  6
CONTINUOUS
 62
     3
 10
532.6849378259798
 20
-115.4945258547421
 30
0.0
 40
6.0
 50
61.16577152700082
 51
118.8342129913882
  0
ARC
  5
448
  8
0
  6
CONTINUOUS
 62
     3
 10
532.6849378259798
 20
-107.4945258547421
 30
0.0
 40
6.0
 50
241.1657596878553
 51
270.000004325711
  0
ARC
  5
449
  8
0
  6
CONTINUOUS
 62
     3
 10
537.134934774222
 20
-111.4945258547421
 30
0.0
 40
2.0
 50
218.9068425413222
 51
269.9999974955215
  0
ARC
  5
44A
  8
0
  6
CONTINUOUS
 62
     3
 10
537.134934774222
 20
-111.4945258547421
 30
0.0
 40
2.0
 50
51.31783061185255
 51
141.093116477543
  0
ARC
  5
44B
  8
0
  6
CONTINUOUS
 62
     3
 10
528.2349408777377
 20
-111.4945258547421
 30
0.0
 40
2.0
 50
38.90685779556247
 51
128.6821573216305
  0
ARC
  5
44C
  8
0
  6
CONTINUOUS
 62
     3
 10
528.2349408777377
 20
-111.4945258547421
 30
0.0
 40
2.0
 50
231.3178153576123
 51
269.9999974955215
  0
ARC
  5
44D
  8
0
  6
CONTINUOUS
 62
     3
 10
541.4849408777377
 20
-105.5277213503476
 30
0.0
 40
5.650000095367432
 50
175.9910937775089
 51
225.0592547371508
  0
ARC
  5
44E
  8
0
  6
CONTINUOUS
 62
     3
 10
523.884934774222
 20
-105.5277289797421
 30
0.0
 40
5.650000095367432
 50
314.9407502718058
 51
364.0089061088054
  0
ARC
  5
44F
  8
0
  6
CONTINUOUS
 62
     3
 10
532.6849378259798
 20
-102.1945228029843
 30
0.0
 40
1.5
 50
27.8181532535261
 51
152.1818466327883
  0
ARC
  5
450
  8
0
  6
CONTINUOUS
 62
     3
 10
492.6849378259798
 20
34.50926213964264
 30
0.0
 40
107.5
 50
279.368913338515
 51
440.631086661485
  0
ARC
  5
451
  8
0
  6
CONTINUOUS
 62
     3
 10
492.6849378259798
 20
34.50926213964264
 30
0.0
 40
40.0
 50
115.9444965573391
 51
244.0554998001952
  0
CIRCLE
  5
452
  8
0
  6
CONTINUOUS
 62
     3
 10
492.6849378259798
 20
34.50926213964264
 30
0.0
 40
37.0
  0
ARC
  5
453
  8
0
  6
CONTINUOUS
 62
     3
 10
492.6849378259798
 20
34.50926213964264
 30
0.0
 40
105.5
 50
99.54819032261662
 51
260.451778714161
  0
CIRCLE
  5
454
  8
0
  6
CONTINUOUS
 62
     3
 10
434.9426892908236
 20
1.171768243158269
 30
0.0
 40
7.0
  0
ARC
  5
455
  8
0
  6
CONTINUOUS
 62
     3
 10
492.6849378259798
 20
34.50926213964264
 30
0.0
 40
40.0
 50
295.9444778880044
 51
424.0555221119955
  0
ARC
  5
456
  8
0
  6
CONTINUOUS
 62
     3
 10
492.6849378259798
 20
34.50926213964264
 30
0.0
 40
39.0
 50
63.33854349444097
 51
116.6614751748937
  0
CIRCLE
  5
457
  8
0
  6
CONTINUOUS
 62
     3
 10
492.6849378259798
 20
34.50926213964264
 30
0.0
 40
31.82341766357422
  0
ARC
  5
458
  8
0
  6
CONTINUOUS
 62
     3
 10
492.6849378259798
 20
34.50926213964264
 30
0.0
 40
39.0
 50
243.3385248251063
 51
296.6614701659374
  0
ARC
  5
459
  8
0
  6
CONTINUOUS
 62
     3
 10
432.6849378259798
 20
104.5592690060977
 30
0.0
 40
2.0
 50
321.3178110319012
 51
360.0
  0
CIRCLE
  5
45A
  8
0
  6
CONTINUOUS
 62
     3
 10
550.4272016199252
 20
1.1717758725528
 30
0.0
 40
10.0
  0
CIRCLE
  5
45B
  8
0
  6
CONTINUOUS
 62
     3
 10
550.4271863611361
 20
67.84676748021882
 30
0.0
 40
10.0
  0
CIRCLE
  5
45C
  8
0
  6
CONTINUOUS
 62
     3
 10
434.9426969202181
 20
67.84677510961335
 30
0.0
 40
10.0
  0
CIRCLE
  5
45D
  8
0
  6
CONTINUOUS
 62
     3
 10
434.9426892908236
 20
1.171768243158269
 30
0.0
 40
10.0
  0
CIRCLE
  5
45E
  8
0
  6
CONTINUOUS
 62
     3
 10
434.9426969202181
 20
67.84677510961335
 30
0.0
 40
7.0
  0
CIRCLE
  5
45F
  8
0
  6
CONTINUOUS
 62
     3
 10
550.4271863611361
 20
67.84676748021882
 30
0.0
 40
7.0
  0
ARC
  5
460
  8
0
  6
CONTINUOUS
 62
     3
 10
492.6849378259798
 20
34.50926213964264
 30
0.0
 40
105.5
 50
279.5481716532819
 51
440.4518283467181
  0
CIRCLE
  5
461
  8
0
  6
CONTINUOUS
 62
     3
 10
532.6849378259798
 20
-39.99073786035736
 30
0.0
 40
9.0
  0
CIRCLE
  5
462
  8
0
  6
CONTINUOUS
 62
     3
 10
532.6849378259798
 20
-39.99073786035736
 30
0.0
 40
3.299999952316284
  0
CIRCLE
  5
463
  8
0
  6
CONTINUOUS
 62
     3
 10
532.6849378259798
 20
-39.99073786035736
 30
0.0
 40
2.400000095367432
  0
CIRCLE
  5
464
  8
0
  6
CONTINUOUS
 62
     3
 10
532.6849378259798
 20
-39.99073786035736
 30
0.0
 40
0.75
  0
CIRCLE
  5
465
  8
0
  6
CONTINUOUS
 62
     3
 10
492.6849378259798
 20
34.50926213964264
 30
0.0
 40
23.99999809265137
  0
CIRCLE
  5
466
  8
0
  6
CONTINUOUS
 62
     3
 10
492.6849378259798
 20
61.50926595433991
 30
0.0
 40
2.0
  0
CIRCLE
  5
467
  8
0
  6
CONTINUOUS
 62
     3
 10
469.3022473962923
 20
21.00925832494538
 30
0.0
 40
2.0
  0
CIRCLE
  5
468
  8
0
  6
CONTINUOUS
 62
     3
 10
516.0676282556673
 20
21.00926213964264
 30
0.0
 40
2.0
  0
LINE
  5
469
  8
0
  6
CONTINUOUS
 62
     3
 10
528.5594905779273
 20
-123.4945246375178
 30
0.0
 11
528.3849400417935
 21
-113.4945295178942
 31
0.0
  0
LINE
  5
46A
  8
0
  6
CONTINUOUS
 62
     3
 10
536.8103814289384
 20
-123.4945252308952
 30
0.0
 11
536.9849321699942
 21
-113.4945301112715
 31
0.0
  0
ARC
  5
46B
  8
0
  6
CONTINUOUS
 62
     3
 10
492.6849378259798
 20
34.50926213964264
 30
0.0
 40
107.5
 50
99.36893200784964
 51
260.6310575194955
  0
LINE
  5
46C
  8
0
  6
CENTER
 62
     7
 10
174.9997144581391
 20
34.50926213964264
 30
0.0
 11
264.2310290361274
 21
34.50926213964264
 31
0.0
  0
LINE
  5
46D
  8
0
  6
CENTER
 62
     7
 10
236.5139051319672
 20
-10.49073786035736
 30
0.0
 11
263.5139051319673
 21
-10.49073786035736
 31
0.0
  0
LINE
  5
46E
  8
0
  6
CENTER
 62
     7
 10
161.6340528370454
 20
-32.16574091211517
 30
0.0
 11
263.8472486378266
 21
-32.16574091211517
 31
0.0
  0
LINE
  5
46F
  8
0
  6
CENTER
 62
     7
 10
243.272404277475
 20
121.3092651914005
 30
0.0
 11
284.9471250416352
 21
121.3092651914005
 31
0.0
  0
LINE
  5
470
  8
0
  6
CENTER
 62
     7
 10
243.272404277475
 20
91.30926519140046
 30
0.0
 11
284.67450388685
 21
91.30926519140046
 31
0.0
  0
LINE
  5
471
  8
0
  6
CENTER
 62
     7
 10
372.6849378259798
 20
34.50926213964264
 30
0.0
 11
612.6849378259798
 21
34.50926213964264
 31
0.0
  0
LINE
  5
472
  8
0
  6
CENTER
 62
     7
 10
234.4749952198579
 20
61.50926213964264
 30
0.0
 11
247.7712751270844
 21
61.50926213964264
 31
0.0
  0
LINE
  5
473
  8
0
  6
CENTER
 62
     7
 10
223.2724195362641
 20
-49.09090668661516
 30
0.0
 11
223.2724195362641
 21
-76.00853372820356
 31
0.0
  0
LINE
  5
474
  8
0
  6
CENTER
 62
     7
 10
492.6849378259798
 20
154.5092621396427
 30
0.0
 11
492.6849378259798
 21
52.65497535226631
 31
0.0
  0
LINE
  5
475
  8
0
  6
CENTER
 62
     7
 10
492.6849378259798
 20
45.32609169829431
 30
0.0
 11
492.6849378259798
 21
-80.01167291895111
 31
0.0
  0
LINE
  5
476
  8
0
  6
CENTER
 62
     7
 10
452.6849378259798
 20
122.3504829953555
 30
0.0
 11
452.6849378259798
 21
95.73936849340241
 31
0.0
  0
LINE
  5
477
  8
0
  6
CENTER
 62
     7
 10
410.2351926477572
 20
109.0092659543399
 30
0.0
 11
466.8442853601595
 21
109.0092659543399
 31
0.0
  0
LINE
  5
478
  8
0
  6
CENTER
 62
     7
 10
421.9523166970654
 20
75.34678381752188
 30
0.0
 11
459.7077064104576
 21
53.54870181143001
 31
0.0
  0
LINE
  5
479
  8
0
  6
CENTER
 62
     7
 10
421.9523085314443
 20
-6.328239095496272
 30
0.0
 11
474.2472174061234
 21
23.86423728482343
 31
0.0
  0
LINE
  5
47A
  8
0
  6
CENTER
 62
     7
 10
480.2820523889681
 20
91.30925374730866
 30
0.0
 11
504.8650525720736
 21
91.30925374730866
 31
0.0
  0
LINE
  5
47B
  8
0
  6
CENTER
 62
     7
 10
465.6849378259798
 20
39.50926213964264
 30
0.0
 11
465.6849378259798
 21
29.50926213964264
 31
0.0
  0
LINE
  5
47C
  8
0
  6
CENTER
 62
     7
 10
519.6849378259798
 20
39.50926213964264
 30
0.0
 11
519.6849378259798
 21
29.50926213964264
 31
0.0
  0
LINE
  5
47D
  8
0
  6
CENTER
 62
     7
 10
480.2820523889681
 20
121.3092537473087
 30
0.0
 11
504.8650525720736
 21
121.3092537473087
 31
0.0
  0
LINE
  5
47E
  8
0
  6
CENTER
 62
     7
 10
526.0565198483466
 20
53.77634869161982
 30
0.0
 11
563.4175971517991
 21
75.34677434684015
 31
0.0
  0
LINE
  5
47F
  8
0
  6
CENTER
 62
     7
 10
512.1730195615089
 20
23.25784248714528
 30
0.0
 11
563.4176135764826
 21
-6.328234393185838
 31
0.0
  0
LINE
  5
480
  8
0
  6
CENTER
 62
     7
 10
480.4944394739291
 20
-22.2907485415097
 30
0.0
 11
505.1711743982455
 21
-22.2907485415097
 31
0.0
  0
LINE
  5
481
  8
0
  6
CENTER
 62
     7
 10
480.1419156702181
 20
-52.2907485415097
 30
0.0
 11
504.8186505945345
 21
-52.2907485415097
 31
0.0
  0
LINE
  5
482
  8
0
  6
CENTER
 62
     7
 10
546.1919873865267
 20
-39.99073786035736
 30
0.0
 11
518.5255902918002
 21
-39.99073786035736
 31
0.0
  0
LINE
  5
483
  8
0
  6
CENTER
 62
     7
 10
532.6849378259798
 20
-53.33195871607025
 30
0.0
 11
532.6849378259798
 21
-26.72084707514007
 31
0.0
  0
ARC
  5
484
  8
0
  6
CENTER
 62
     7
 10
492.6849378259798
 20
34.50926213964264
 30
0.0
 40
66.67500305175781
 50
17.08272487838315
 51
42.91727849881627
  0
ARC
  5
485
  8
0
  6
CENTER
 62
     7
 10
492.6849378259798
 20
34.50926213964264
 30
0.0
 40
66.67500305175781
 50
196.7237131738199
 51
223.5762877070232
  0
ARC
  5
486
  8
0
  6
CENTER
 62
     7
 10
492.6849378259798
 20
34.50926213964264
 30
0.0
 40
66.67500305175781
 50
316.3904066967221
 51
342.738151703086
  0
ARC
  5
487
  8
0
  6
CENTER
 62
     7
 10
492.6849378259798
 20
34.50926213964264
 30
0.0
 40
66.67500305175781
 50
137.0827299252346
 51
162.9172920834043
  0
ARC
  5
488
  8
0
  6
CENTER
 62
     7
 10
492.6849378259798
 20
34.50926213964264
 30
0.0
 40
45.0
 50
142.9679077820628
 51
157.058465096394
  0
ARC
  5
489
  8
0
  6
CENTER
 62
     7
 10
492.6849378259798
 20
34.50926213964264
 30
0.0
 40
45.0
 50
200.8228238834464
 51
218.2469779656074
  0
ARC
  5
48A
  8
0
  6
CENTER
 62
     7
 10
492.6849378259798
 20
34.50926213964264
 30
0.0
 40
45.0
 50
23.13907922864284
 51
36.82925426892251
  0
ARC
  5
48B
  8
0
  6
CENTER
 62
     7
 10
492.6849378259798
 20
34.50926213964264
 30
0.0
 40
27.0
 50
76.14660301850807
 51
102.6533104325203
  0
ARC
  5
48C
  8
0
  6
CENTER
 62
     7
 10
492.6849378259798
 20
34.50926213964264
 30
0.0
 40
27.0
 50
196.1466031700888
 51
222.653310584101
  0
ARC
  5
48D
  8
0
  6
CENTER
 62
     7
 10
492.6849378259798
 20
34.50926213964264
 30
0.0
 40
27.0
 50
316.1465996792039
 51
342.6533088007635
  0
LINE
  5
48E
  8
0
  6
CENTER
 62
     7
 10
532.6849378259798
 20
-127.4338492800351
 30
0.0
 11
532.6849378259798
 21
-92.44536203638275
 31
0.0
  0
LINE
  5
48F
  8
0
  6
DASHED2
 62
     7
 10
219.8724195362641
 20
-51.99073786035736
 30
0.0
 11
226.6724195362641
 21
-51.99073786035736
 31
0.0
  0
LINE
  5
490
  8
0
  6
DASHED2
 62
     7
 10
219.2724195362641
 20
-56.99073786035736
 30
0.0
 11
219.2724195362641
 21
-72.99073786035736
 31
0.0
  0
LINE
  5
491
  8
0
  6
DASHED2
 62
     7
 10
219.8724195362641
 20
-51.99073786035736
 30
0.0
 11
219.8724195362641
 21
-72.99073786035736
 31
0.0
  0
LINE
  5
492
  8
0
  6
DASHED2
 62
     7
 10
226.6724195362641
 20
-51.99073786035736
 30
0.0
 11
226.6724195362641
 21
-72.99073786035736
 31
0.0
  0
LINE
  5
493
  8
0
  6
DASHED2
 62
     7
 10
226.6724195362639
 20
-51.99073786035724
 30
0.0
 11
223.2724195362642
 21
-50.02774694511269
 31
0.0
  0
LINE
  5
494
  8
0
  6
DASHED2
 62
     7
 10
219.2724195362641
 20
-56.99073786035736
 30
0.0
 11
227.2724195362641
 21
-56.99073786035736
 31
0.0
  0
LINE
  5
495
  8
0
  6
DASHED2
 62
     7
 10
219.8724195362643
 20
-51.99073786035724
 30
0.0
 11
223.272419536264
 21
-50.02774694511269
 31
0.0
  0
LINE
  5
496
  8
0
  6
DASHED2
 62
     7
 10
227.2724195362641
 20
-56.99073786035736
 30
0.0
 11
227.2724195362641
 21
-72.99073786035736
 31
0.0
  0
LINE
  5
497
  8
0
  6
DASHED2
 62
     7
 10
434.6849378259798
 20
101.0092659543399
 30
0.0
 11
443.9904264124056
 21
101.0092659543399
 31
0.0
  0
LINE
  5
498
  8
0
  6
DASHED2
 62
     7
 10
434.6849378259798
 20
117.0092659543399
 30
0.0
 11
443.6379026086947
 21
117.0092659543399
 31
0.0
  0
LINE
  5
499
  8
0
  6
DASHED2
 62
     7
 10
434.6849378259798
 20
125.0203133176212
 30
0.0
 11
434.6849378259798
 21
98.00926595433991
 31
0.0
  0
LINE
  5
49A
  8
0
  6
DASHED2
 62
     7
 10
405.9439405115267
 20
98.00926595433991
 30
0.0
 11
434.6849378259798
 21
98.00926595433991
 31
0.0
  0
LINE
  5
49B
  8
0
  6
DASHED2
 62
     7
 10
422.6849378259798
 20
111.4092598508243
 30
0.0
 11
422.6849378259798
 21
106.6092720578555
 31
0.0
  0
LINE
  5
49C
  8
0
  6
DASHED2
 62
     7
 10
425.384934774222
 20
112.3092690060977
 30
0.0
 11
425.384934774222
 21
105.7092629025821
 31
0.0
  0
LINE
  5
49D
  8
0
  6
DASHED2
 62
     7
 10
431.123689046683
 20
103.3092690060977
 30
0.0
 11
434.2461866052767
 21
103.3092690060977
 31
0.0
  0
LINE
  5
49E
  8
0
  6
DASHED2
 62
     7
 10
431.123689046683
 20
114.7092629025821
 30
0.0
 11
434.2461866052767
 21
114.7092629025821
 31
0.0
  0
LINE
  5
49F
  8
0
  6
DASHED2
 62
     7
 10
425.3849094495155
 20
105.7091855524408
 30
0.0
 11
422.6849126523854
 21
106.6091843717258
 31
0.0
  0
LINE
  5
4A0
  8
0
  6
DASHED2
 62
     7
 10
425.3849705308134
 20
112.3091651639954
 30
0.0
 11
422.684966495804
 21
111.4091639320842
 31
0.0
  0
LINE
  5
4A1
  8
0
  6
DASHED2
 62
     7
 10
426.384934774222
 20
111.7545967648868
 30
0.0
 11
426.384934774222
 21
106.2137947629337
 31
0.0
  0
LINE
  5
4A2
  8
0
  6
DASHED2
 62
     7
 10
430.6849378259798
 20
113.4592629025821
 30
0.0
 11
430.6849378259798
 21
104.5592690060977
 31
0.0
  0
LINE
  5
4A3
  8
0
  6
DASHED2
 62
     7
 10
431.4288266809603
 20
111.9029274533634
 30
0.0
 11
433.9410489709994
 21
111.9029274533634
 31
0.0
  0
LINE
  5
4A4
  8
0
  6
DASHED2
 62
     7
 10
431.4288266809603
 20
106.1156044553165
 30
0.0
 11
433.9410489709994
 21
106.1156044553165
 31
0.0
  0
ARC
  5
4A5
  8
0
  6
DASHED2
 62
     7
 10
425.384934774222
 20
109.0092659543399
 30
0.0
 40
3.299999952316284
 50
73.48282241201397
 51
89.99998201391055
  0
ARC
  5
4A6
  8
0
  6
DASHED2
 62
     7
 10
425.384934774222
 20
109.0092659543399
 30
0.0
 40
3.299999952316284
 50
270.0000179860895
 51
286.5171775879861
  0
ARC
  5
4A7
  8
0
  6
DASHED2
 62
     7
 10
432.6849378259798
 20
113.4592629025821
 30
0.0
 40
2.0
 50
0.0
 51
38.68218896809879
  0
ARC
  5
4A8
  8
0
  6
DASHED2
 62
     7
 10
432.6849378259798
 20
104.5592690060977
 30
0.0
 40
2.0
 50
0.0
 51
51.09316519948326
  0
ARC
  5
4A9
  8
0
  6
DASHED2
 62
     7
 10
428.6849378259798
 20
109.0092659543399
 30
0.0
 40
6.0
 50
0.0
 51
28.83423780766661
  0
ARC
  5
4AA
  8
0
  6
DASHED2
 62
     7
 10
436.6849378259798
 20
109.0092659543399
 30
0.0
 40
6.0
 50
151.1657740314789
 51
208.8342086656771
  0
ARC
  5
4AB
  8
0
  6
DASHED2
 62
     7
 10
428.6849378259798
 20
109.0092659543399
 30
0.0
 40
6.0
 50
331.1657621923334
 51
360.0
  0
ARC
  5
4AC
  8
0
  6
DASHED2
 62
     7
 10
432.6849378259798
 20
113.4592629025821
 30
0.0
 40
2.0
 50
308.9068348005167
 51
360.0
  0
ARC
  5
4AD
  8
0
  6
DASHED2
 62
     7
 10
432.6849378259798
 20
113.4592629025821
 30
0.0
 40
2.0
 50
141.317829701236
 51
231.0931121518319
  0
ARC
  5
4AE
  8
0
  6
DASHED2
 62
     7
 10
432.6849378259798
 20
104.5592690060977
 30
0.0
 40
2.0
 50
128.9068568849459
 51
218.68215299592
  0
ARC
  5
4AF
  8
0
  6
DASHED2
 62
     7
 10
426.7181409509798
 20
117.8092690060977
 30
0.0
 40
5.650000095367432
 50
265.9910930942637
 51
315.0592540539054
  0
ARC
  5
4B0
  8
0
  6
DASHED2
 62
     7
 10
426.7181409509798
 20
100.2092629025821
 30
0.0
 40
5.650000095367432
 50
44.94074594609464
 51
94.00890690573625
  0
ARC
  5
4B1
  8
0
  6
DASHED2
 62
     7
 10
423.384934774222
 20
109.0092659543399
 30
0.0
 40
1.5
 50
117.8181540504568
 51
242.1818423070773
  0
LINE
  5
4B2
  8
0
  6
DASHED2
 62
     7
 10
406.1849378259798
 20
37.90926213964268
 30
0.0
 11
406.1849378259798
 21
31.10926213964264
 31
0.0
  0
LINE
  5
4B3
  8
0
  6
DASHED2
 62
     7
 10
406.1849378259799
 20
31.10926213964284
 30
0.0
 11
408.1479287412245
 21
34.50926213964253
 31
0.0
  0
LINE
  5
4B4
  8
0
  6
DASHED2
 62
     7
 10
401.1849378259798
 20
38.50926213964264
 30
0.0
 11
401.1849378259798
 21
30.50926213964264
 31
0.0
  0
LINE
  5
4B5
  8
0
  6
DASHED2
 62
     7
 10
406.1849378259799
 20
37.90926213964245
 30
0.0
 11
408.1479287412245
 21
34.50926213964276
 31
0.0
  0
LINE
  5
4B6
  8
0
  6
DASHED2
 62
     7
 10
401.1849378259798
 20
38.50926213964264
 30
0.0
 11
385.2593822072166
 21
38.50926213964264
 31
0.0
  0
LINE
  5
4B7
  8
0
  6
DASHED2
 62
     7
 10
406.1849378259798
 20
37.90926213964268
 30
0.0
 11
385.2387187207921
 21
37.90926213964268
 31
0.0
  0
LINE
  5
4B8
  8
0
  6
DASHED2
 62
     7
 10
406.1849378259798
 20
31.10926213964264
 30
0.0
 11
385.2387187207921
 21
31.10926213964264
 31
0.0
  0
LINE
  5
4B9
  8
0
  6
DASHED2
 62
     7
 10
401.1849378259798
 20
30.50926213964264
 30
0.0
 11
385.2593822072166
 21
30.50926213964264
 31
0.0
  0
LINE
  5
4BA
  8
0
  6
CONTINUOUS
 62
     4
 10
245.2724195362641
 20
-14.49073786035736
 30
0.0
 11
260.2724195362641
 21
-14.49073786035736
 31
0.0
  0
LINE
  5
4BB
  8
0
  6
CONTINUOUS
 62
     4
 10
245.2724195362641
 20
-6.490737860357356
 30
0.0
 11
260.2724195362641
 21
-6.490737860357356
 31
0.0
  0
LINE
  5
4BC
  8
0
  6
CONTINUOUS
 62
     4
 10
245.2724195362641
 20
-6.490737860357356
 30
0.0
 11
245.2724195362641
 21
-14.49073786035736
 31
0.0
  0
LINE
  5
4BD
  8
0
  6
CONTINUOUS
 62
     4
 10
259.2724195362641
 20
141.3092651914005
 30
0.0
 11
259.2724195362641
 21
131.3092651914005
 31
0.0
  0
LINE
  5
4BE
  8
0
  6
CONTINUOUS
 62
     4
 10
258.2724195362641
 20
141.3092651914005
 30
0.0
 11
258.2724195362641
 21
131.3092651914005
 31
0.0
  0
LINE
  5
4BF
  8
0
  6
CONTINUOUS
 62
     4
 10
258.2724195362641
 20
81.30926519140046
 30
0.0
 11
258.2724195362641
 21
76.80926519140046
 31
0.0
  0
LINE
  5
4C0
  8
0
  6
CONTINUOUS
 62
     4
 10
259.2724195362641
 20
81.30926519140046
 30
0.0
 11
259.2724195362641
 21
76.80926519140046
 31
0.0
  0
LINE
  5
4C1
  8
0
  6
CONTINUOUS
 62
     4
 10
245.2724195362641
 20
87.15927129491608
 30
0.0
 11
268.2724195362641
 21
87.15927129491608
 31
0.0
  0
LINE
  5
4C2
  8
0
  6
CONTINUOUS
 62
     4
 10
245.2724195362641
 20
95.45925908788483
 30
0.0
 11
268.2724195362641
 21
95.45925908788483
 31
0.0
  0
LINE
  5
4C3
  8
0
  6
CONTINUOUS
 62
     4
 10
245.2724195362641
 20
117.1592712949161
 30
0.0
 11
268.2724195362641
 21
117.1592712949161
 31
0.0
  0
LINE
  5
4C4
  8
0
  6
CONTINUOUS
 62
     4
 10
245.2724195362641
 20
125.4592590878848
 30
0.0
 11
268.2724195362641
 21
125.4592590878848
 31
0.0
  0
LINE
  5
4C5
  8
0
  6
CONTINUOUS
 62
     4
 10
237.3893018604829
 20
66.33268743261139
 30
0.0
 11
246.3893018604829
 21
66.33268743261139
 31
0.0
  0
LINE
  5
4C6
  8
0
  6
CONTINUOUS
 62
     4
 10
237.3893018604829
 20
63.00926213964264
 30
0.0
 11
246.3893018604829
 21
63.00926213964264
 31
0.0
  0
LINE
  5
4C7
  8
0
  6
CONTINUOUS
 62
     4
 10
237.3893018604829
 20
60.00926213964264
 30
0.0
 11
246.3893018604829
 21
60.00926213964264
 31
0.0
  0
LINE
  5
4C8
  8
0
  6
CONTINUOUS
 62
     4
 10
237.3893018604829
 20
2.685844476068425
 30
0.0
 11
246.3893018604829
 21
2.685844476068425
 31
0.0
  0
LINE
  5
4C9
  8
0
  6
CONTINUOUS
 62
     4
 10
535.9849408777377
 20
-104.1945228029843
 30
0.0
 11
529.384934774222
 21
-104.1945228029843
 31
0.0
  0
LINE
  5
4CA
  8
0
  6
CONTINUOUS
 62
     4
 10
535.4302686365267
 20
-105.1945228029843
 30
0.0
 11
529.8894513757845
 21
-105.1945228029843
 31
0.0
  0
LINE
  5
4CB
  8
0
  6
CONTINUOUS
 62
     4
 10
500.6849378259798
 20
139.8092537473087
 30
0.0
 11
509.1849378259798
 21
139.8092537473087
 31
0.0
  0
LINE
  5
4CC
  8
0
  6
CONTINUOUS
 62
     4
 10
476.1849378259798
 20
79.80925374730866
 30
0.0
 11
484.6849378259798
 21
79.80925374730866
 31
0.0
  0
LINE
  5
4CD
  8
0
  6
CONTINUOUS
 62
     4
 10
476.1849378259798
 20
81.30925374730866
 30
0.0
 11
484.6849378259798
 21
81.30925374730866
 31
0.0
  0
LINE
  5
4CE
  8
0
  6
CONTINUOUS
 62
     4
 10
476.1849378259798
 20
78.30925374730866
 30
0.0
 11
484.6849378259798
 21
78.30925374730866
 31
0.0
  0
LINE
  5
4CF
  8
0
  6
CONTINUOUS
 62
     4
 10
500.6849378259798
 20
78.30925374730866
 30
0.0
 11
509.1849378259798
 21
78.30925374730866
 31
0.0
  0
LINE
  5
4D0
  8
0
  6
CONTINUOUS
 62
     4
 10
476.1849378259798
 20
139.8092537473087
 30
0.0
 11
484.6849378259798
 21
139.8092537473087
 31
0.0
  0
LINE
  5
4D1
  8
0
  6
CONTINUOUS
 62
     4
 10
476.1849378259798
 20
82.80925374730866
 30
0.0
 11
484.6849378259798
 21
82.80925374730866
 31
0.0
  0
LINE
  5
4D2
  8
0
  6
CONTINUOUS
 62
     4
 10
476.1849378259798
 20
84.30925374730866
 30
0.0
 11
484.6849378259798
 21
84.30925374730866
 31
0.0
  0
LINE
  5
4D3
  8
0
  6
CONTINUOUS
 62
     4
 10
500.6849378259798
 20
79.80925374730866
 30
0.0
 11
509.1849378259798
 21
79.80925374730866
 31
0.0
  0
LINE
  5
4D4
  8
0
  6
CONTINUOUS
 62
     4
 10
500.6849378259798
 20
81.30925374730866
 30
0.0
 11
509.1849378259798
 21
81.30925374730866
 31
0.0
  0
LINE
  5
4D5
  8
0
  6
CONTINUOUS
 62
     4
 10
500.6849378259798
 20
82.80925374730866
 30
0.0
 11
509.1849378259798
 21
82.80925374730866
 31
0.0
  0
LINE
  5
4D6
  8
0
  6
CONTINUOUS
 62
     4
 10
500.6849378259798
 20
84.30925374730866
 30
0.0
 11
509.1849378259798
 21
84.30925374730866
 31
0.0
  0
LINE
  5
4D7
  8
0
  6
CONTINUOUS
 62
     4
 10
500.6849378259798
 20
136.8092537473087
 30
0.0
 11
509.1849378259798
 21
136.8092537473087
 31
0.0
  0
LINE
  5
4D8
  8
0
  6
CONTINUOUS
 62
     4
 10
500.6849378259798
 20
135.3092537473087
 30
0.0
 11
509.1849378259798
 21
135.3092537473087
 31
0.0
  0
LINE
  5
4D9
  8
0
  6
CONTINUOUS
 62
     4
 10
500.6849378259798
 20
133.8092537473087
 30
0.0
 11
509.1849378259798
 21
133.8092537473087
 31
0.0
  0
LINE
  5
4DA
  8
0
  6
CONTINUOUS
 62
     4
 10
476.1849378259798
 20
138.3092537473087
 30
0.0
 11
484.6849378259798
 21
138.3092537473087
 31
0.0
  0
LINE
  5
4DB
  8
0
  6
CONTINUOUS
 62
     4
 10
476.1849378259798
 20
136.8092537473087
 30
0.0
 11
484.6849378259798
 21
136.8092537473087
 31
0.0
  0
LINE
  5
4DC
  8
0
  6
CONTINUOUS
 62
     4
 10
476.1849378259798
 20
135.3092537473087
 30
0.0
 11
484.6849378259798
 21
135.3092537473087
 31
0.0
  0
LINE
  5
4DD
  8
0
  6
CONTINUOUS
 62
     4
 10
476.1849378259798
 20
133.8092537473087
 30
0.0
 11
484.6849378259798
 21
133.8092537473087
 31
0.0
  0
LINE
  5
4DE
  8
0
  6
CONTINUOUS
 62
     4
 10
500.6849378259798
 20
138.3092537473087
 30
0.0
 11
509.1849378259798
 21
138.3092537473087
 31
0.0
  0
CIRCLE
  5
4DF
  8
0
  6
CONTINUOUS
 62
     4
 10
492.6849378259798
 20
34.50926213964264
 30
0.0
 40
32.5
  0
ARC
  5
4E0
  8
0
  6
CONTINUOUS
 62
     4
 10
492.6849378259798
 20
34.50926213964264
 30
0.0
 40
72.0
 50
104.0669683454162
 51
142.2933173184973
  0
ARC
  5
4E1
  8
0
  6
CONTINUOUS
 62
     4
 10
492.6849378259798
 20
34.50926213964264
 30
0.0
 40
66.0
 50
105.3759740998491
 51
135.968179656472
  0
ARC
  5
4E2
  8
0
  6
CONTINUOUS
 62
     4
 10
492.6849378259798
 20
34.50926213964264
 30
0.0
 40
60.0
 50
106.9577776097324
 51
141.9440077839645
  0
ARC
  5
4E3
  8
0
  6
CONTINUOUS
 62
     4
 10
492.6849378259798
 20
34.50926213964264
 30
0.0
 40
54.0
 50
108.9095041650635
 51
251.0904853622816
  0
ARC
  5
4E4
  8
0
  6
CONTINUOUS
 62
     4
 10
492.6849378259798
 20
34.50926213964264
 30
0.0
 40
48.0
 50
111.3819575125273
 51
144.9961597768547
  0
ARC
  5
4E5
  8
0
  6
CONTINUOUS
 62
     4
 10
492.6849378259798
 20
34.50926213964264
 30
0.0
 40
42.0
 50
114.6243302738024
 51
144.9170388655093
  0
ARC
  5
4E6
  8
0
  6
CONTINUOUS
 62
     4
 10
492.6849378259798
 20
34.50926213964264
 30
0.0
 40
42.0
 50
215.4878001069757
 51
245.3756697261975
  0
ARC
  5
4E7
  8
0
  6
CONTINUOUS
 62
     4
 10
492.6849378259798
 20
34.50926213964264
 30
0.0
 40
48.0
 50
215.4941112017688
 51
248.6180424874727
  0
ARC
  5
4E8
  8
0
  6
CONTINUOUS
 62
     4
 10
492.6849378259798
 20
34.50926213964264
 30
0.0
 40
66.0
 50
224.1318006525987
 51
254.6240327303401
  0
ARC
  5
4E9
  8
0
  6
CONTINUOUS
 62
     4
 10
492.6849378259798
 20
34.50926213964264
 30
0.0
 40
60.0
 50
217.8800602033943
 51
253.0422155600784
  0
ARC
  5
4EA
  8
0
  6
CONTINUOUS
 62
     4
 10
492.6849378259798
 20
34.50926213964264
 30
0.0
 40
72.0
 50
337.9597547748397
 51
381.2152369205983
  0
ARC
  5
4EB
  8
0
  6
CONTINUOUS
 62
     4
 10
492.6849378259798
 20
34.50926213964264
 30
0.0
 40
66.0
 50
344.093672753314
 51
375.5312525310566
  0
ARC
  5
4EC
  8
0
  6
CONTINUOUS
 62
     4
 10
492.6849378259798
 20
34.50926213964264
 30
0.0
 40
60.0
 50
337.4938300055126
 51
381.2258629873995
  0
ARC
  5
4ED
  8
0
  6
CONTINUOUS
 62
     4
 10
492.6849378259798
 20
34.50926213964264
 30
0.0
 40
42.0
 50
335.1014042770066
 51
385.1667677328283
  0
ARC
  5
4EE
  8
0
  6
CONTINUOUS
 62
     4
 10
492.6849378259798
 20
34.50926213964264
 30
0.0
 40
48.0
 50
335.4397701409418
 51
386.7378512608092
  0
ARC
  5
4EF
  8
0
  6
CONTINUOUS
 62
     4
 10
492.6849378259798
 20
34.50926213964264
 30
0.0
 40
54.0
 50
288.9094854957289
 51
431.0905145042711
  0
ARC
  5
4F0
  8
0
  6
CONTINUOUS
 62
     4
 10
492.6849378259798
 20
34.50926213964264
 30
0.0
 40
42.0
 50
294.6243184346569
 51
324.247163053704
  0
ARC
  5
4F1
  8
0
  6
CONTINUOUS
 62
     4
 10
492.6849378259798
 20
34.50926213964264
 30
0.0
 40
48.0
 50
291.3819388431926
 51
325.1895549893419
  0
ARC
  5
4F2
  8
0
  6
CONTINUOUS
 62
     4
 10
492.6849378259798
 20
34.50926213964264
 30
0.0
 40
72.0
 50
217.7818830642646
 51
255.9330248243946
  0
ARC
  5
4F3
  8
0
  6
CONTINUOUS
 62
     4
 10
492.6849378259798
 20
34.50926213964264
 30
0.0
 40
72.0
 50
158.6513335127327
 51
201.8143724631698
  0
CIRCLE
  5
4F4
  8
0
  6
CONTINUOUS
 62
     4
 10
453.713792196097
 20
12.00926786168854
 30
0.0
 40
4.0
  0
CIRCLE
  5
4F5
  8
0
  6
CONTINUOUS
 62
     4
 10
531.6560834558627
 20
12.00927739843171
 30
0.0
 40
4.0
  0
CIRCLE
  5
4F6
  8
0
  6
CONTINUOUS
 62
     4
 10
453.713792196097
 20
12.00926786168854
 30
0.0
 40
3.349999904632568
  0
ARC
  5
4F7
  8
0
  6
CONTINUOUS
 62
     4
 10
492.6849378259798
 20
34.50926213964264
 30
0.0
 40
60.0
 50
163.5057948426709
 51
202.1484096947184
  0
ARC
  5
4F8
  8
0
  6
CONTINUOUS
 62
     4
 10
492.6849378259798
 20
34.50926213964264
 30
0.0
 40
66.0
 50
164.2792318039048
 51
195.9742601944854
  0
ARC
  5
4F9
  8
0
  6
CONTINUOUS
 62
     4
 10
492.6849378259798
 20
34.50926213964264
 30
0.0
 40
60.0
 50
38.18313436620245
 51
73.04224105960228
  0
ARC
  5
4FA
  8
0
  6
CONTINUOUS
 62
     4
 10
492.6849378259798
 20
34.50926213964264
 30
0.0
 40
66.0
 50
44.29262929575214
 51
74.62404456948556
  0
ARC
  5
4FB
  8
0
  6
CONTINUOUS
 62
     4
 10
492.6849378259798
 20
34.50926213964264
 30
0.0
 40
72.0
 50
38.13112930586198
 51
75.93305032391848
  0
ARC
  5
4FC
  8
0
  6
CONTINUOUS
 62
     4
 10
492.6849378259798
 20
34.50926213964264
 30
0.0
 40
60.0
 50
286.9577657705869
 51
321.837813823982
  0
ARC
  5
4FD
  8
0
  6
CONTINUOUS
 62
     4
 10
492.6849378259798
 20
34.50926213964264
 30
0.0
 40
66.0
 50
285.3759554305145
 51
315.7584673494287
  0
ARC
  5
4FE
  8
0
  6
CONTINUOUS
 62
     4
 10
492.6849378259798
 20
34.50926213964264
 30
0.0
 40
72.0
 50
284.0669496760815
 51
322.1300400525264
  0
CIRCLE
  5
4FF
  8
0
  6
CONTINUOUS
 62
     4
 10
531.6560834558627
 20
12.00927739843171
 30
0.0
 40
3.349999904632568
  0
CIRCLE
  5
500
  8
0
  6
CONTINUOUS
 62
     4
 10
531.6560834558627
 20
57.00926595433991
 30
0.0
 40
3.349999904632568
  0
CIRCLE
  5
501
  8
0
  6
CONTINUOUS
 62
     4
 10
453.7137998254916
 20
57.00926595433991
 30
0.0
 40
3.349999904632568
  0
CIRCLE
  5
502
  8
0
  6
CONTINUOUS
 62
     4
 10
453.7137998254916
 20
57.00926595433991
 30
0.0
 40
4.0
  0
CIRCLE
  5
503
  8
0
  6
CONTINUOUS
 62
     4
 10
531.6560834558627
 20
57.00926595433991
 30
0.0
 40
4.0
  0
ARC
  5
504
  8
0
  6
CONTINUOUS
 62
     4
 10
492.6849378259798
 20
34.50926213964264
 30
0.0
 40
48.0
 50
155.3926775804763
 51
204.3232648698555
  0
ARC
  5
505
  8
0
  6
CONTINUOUS
 62
     4
 10
492.6849378259798
 20
34.50926213964264
 30
0.0
 40
42.0
 50
155.2276738705071
 51
204.6641459509525
  0
ARC
  5
506
  8
0
  6
CONTINUOUS
 62
     4
 10
492.6849378259798
 20
34.50926213964264
 30
0.0
 40
48.0
 50
33.2621538239375
 51
68.61806115680739
  0
ARC
  5
507
  8
0
  6
CONTINUOUS
 62
     4
 10
492.6849378259798
 20
34.50926213964264
 30
0.0
 40
42.0
 50
35.04189280087316
 51
65.37568156534316
  0
CIRCLE
  5
508
  8
0
  6
CONTINUOUS
 62
     4
 10
492.6849378259798
 20
61.50926595433991
 30
0.0
 40
2.5
  0
CIRCLE
  5
509
  8
0
  6
CONTINUOUS
 62
     4
 10
469.3022473962923
 20
21.00925832494538
 30
0.0
 40
2.5
  0
CIRCLE
  5
50A
  8
0
  6
CONTINUOUS
 62
     4
 10
516.0676282556673
 20
21.00926213964264
 30
0.0
 40
2.5
  0
LINE
  5
50B
  8
0
  6
CONTINUOUS
 62
     4
 10
529.3594934124371
 20
-123.4945244573081
 30
0.0
 11
529.1849428763032
 21
-113.4945293376844
 31
0.0
  0
LINE
  5
50C
  8
0
  6
CONTINUOUS
 62
     4
 10
536.0103785941425
 20
-123.4945250342965
 30
0.0
 11
536.1849293351984
 21
-113.4945299146728
 31
0.0
  0
LINE
  5
50D
  8
0
  6
DASHED
 62
     2
 10
187.4724317432954
 20
-39.16574091211517
 30
0.0
 11
247.2724195362641
 21
-39.16574091211517
 31
0.0
  0
LINE
  5
50E
  8
0
  6
DASHED
 62
     2
 10
187.4724317432954
 20
-25.16574091211517
 30
0.0
 11
247.2724195362641
 21
-25.16574091211517
 31
0.0
  0
LINE
  5
50F
  8
0
  6
DASHED
 62
     2
 10
247.2724195362641
 20
-42.16574091211517
 30
0.0
 11
260.2724195362641
 21
-42.16574091211517
 31
0.0
  0
LINE
  5
510
  8
0
  6
DASHED
 62
     2
 10
247.2724195362641
 20
-22.16574091211517
 30
0.0
 11
260.2724195362641
 21
-22.16574091211517
 31
0.0
  0
LINE
  5
511
  8
0
  6
DASHED
 62
     2
 10
247.2724195362641
 20
-22.16574091211517
 30
0.0
 11
247.2724195362641
 21
-42.16574091211517
 31
0.0
  0
LINE
  5
512
  8
0
  6
CONTINUOUS
 62
     2
 10
492.6849389508971
 20
96.00925352729944
 30
0.0
 11
488.6146065332833
 21
93.65925176599346
 31
0.0
  0
LINE
  5
513
  8
0
  6
CONTINUOUS
 62
     2
 10
488.6146176965853
 20
93.65925985082428
 30
0.0
 11
488.6146176965853
 21
88.9592629025821
 31
0.0
  0
LINE
  5
514
  8
0
  6
CONTINUOUS
 62
     2
 10
488.6145949514943
 20
88.95923934882119
 30
0.0
 11
492.6849096723349
 21
86.60923751300031
 31
0.0
  0
LINE
  5
515
  8
0
  6
CONTINUOUS
 62
     2
 10
492.6849307866638
 20
86.60926041860255
 30
0.0
 11
496.7552632042776
 21
88.9592623199798
 31
0.0
  0
LINE
  5
516
  8
0
  6
CONTINUOUS
 62
     2
 10
496.7552655847689
 20
88.95924764379303
 30
0.0
 11
496.7552655847689
 21
93.65924459203522
 31
0.0
  0
LINE
  5
517
  8
0
  6
CONTINUOUS
 62
     2
 10
496.7552416513731
 20
93.65921600604285
 30
0.0
 11
492.6849280510991
 21
96.00922008299692
 31
0.0
  0
LINE
  5
518
  8
0
  6
CONTINUOUS
 62
     2
 10
492.6849346174511
 20
126.0092547807569
 30
0.0
 11
488.6146021998373
 21
123.6592530194509
 31
0.0
  0
LINE
  5
519
  8
0
  6
CONTINUOUS
 62
     2
 10
488.6146176965853
 20
123.6592598508243
 30
0.0
 11
488.6146176965853
 21
118.9592629025821
 31
0.0
  0
LINE
  5
51A
  8
0
  6
CONTINUOUS
 62
     2
 10
488.6145974588548
 20
118.9592302639259
 30
0.0
 11
492.6849121796954
 21
116.609228428105
 31
0.0
  0
LINE
  5
51B
  8
0
  6
CONTINUOUS
 62
     2
 10
492.6849190032219
 20
116.6092736817874
 30
0.0
 11
496.7552514208357
 21
118.9592755831647
 31
0.0
  0
LINE
  5
51C
  8
0
  6
CONTINUOUS
 62
     2
 10
496.7552655847689
 20
118.959247643793
 30
0.0
 11
496.7552655847689
 21
123.6592445920352
 31
0.0
  0
LINE
  5
51D
  8
0
  6
CONTINUOUS
 62
     2
 10
496.7552260652096
 20
123.659209923757
 30
0.0
 11
492.6849124649356
 21
126.0092140007111
 31
0.0
  0
LINE
  5
51E
  8
0
  6
CONTINUOUS
 62
     2
 10
492.6849643060813
 20
-56.99078703181552
 30
0.0
 11
496.7552835091883
 21
-54.64079275981915
 31
0.0
  0
LINE
  5
51F
  8
0
  6
CONTINUOUS
 62
     2
 10
496.7552651635865
 20
-49.94075457049424
 30
0.0
 11
492.6849383488238
 21
-47.59074286412745
 31
0.0
  0
LINE
  5
520
  8
0
  6
CONTINUOUS
 62
     2
 10
496.7552655847689
 20
-54.64075464502533
 30
0.0
 11
496.7552655847689
 21
-49.94075769678314
 31
0.0
  0
LINE
  5
521
  8
0
  6
CONTINUOUS
 62
     2
 10
492.6849411075527
 20
-47.59074388072834
 30
0.0
 11
488.6146152971923
 21
-49.9407418273441
 31
0.0
  0
LINE
  5
522
  8
0
  6
CONTINUOUS
 62
     2
 10
488.6146299320776
 20
-54.6407552142053
 30
0.0
 11
492.6849446529181
 21
-56.99075705002618
 31
0.0
  0
LINE
  5
523
  8
0
  6
CONTINUOUS
 62
     2
 10
488.6146176965853
 20
-49.94075006738861
 30
0.0
 11
488.6146176965853
 21
-54.64074701563079
 31
0.0
  0
LINE
  5
524
  8
0
  6
CONTINUOUS
 62
     2
 10
492.6849405887969
 20
-17.59074923452438
 30
0.0
 11
488.6146147784365
 21
-19.94074718114014
 31
0.0
  0
LINE
  5
525
  8
0
  6
CONTINUOUS
 62
     2
 10
496.7552533921293
 20
-19.94075404553571
 30
0.0
 11
492.6849397918554
 21
-17.59074996858165
 31
0.0
  0
LINE
  5
526
  8
0
  6
CONTINUOUS
 62
     2
 10
496.7552655847689
 20
-24.64075464502533
 30
0.0
 11
496.7552655847689
 21
-19.94075388208587
 31
0.0
  0
LINE
  5
527
  8
0
  6
CONTINUOUS
 62
     2
 10
492.6849658056012
 20
-26.99078151663373
 30
0.0
 11
496.7552850087081
 21
-24.64078724463737
 31
0.0
  0
LINE
  5
528
  8
0
  6
CONTINUOUS
 62
     2
 10
488.6146176965853
 20
-19.94074625269134
 30
0.0
 11
488.6146176965853
 21
-24.64074701563079
 31
0.0
  0
LINE
  5
529
  8
0
  6
CONTINUOUS
 62
     2
 10
488.6146164324022
 20
-24.64074624774624
 30
0.0
 11
492.6849311532428
 21
-26.99074808356711
 31
0.0
  0
LINE
  5
52A
  8
0
  6
CONTINUOUS
 62
     2
 10
545.3609627293572
 20
4.096775164077528
 30
0.0
 11
550.4272196745532
 21
7.021772985522304
 31
0.0
  0
LINE
  5
52B
  8
0
  6
CONTINUOUS
 62
     2
 10
550.4272100216699
 20
7.021804544306335
 30
0.0
 11
555.4934596444277
 21
4.096794170110272
 31
0.0
  0
LINE
  5
52C
  8
0
  6
CONTINUOUS
 62
     2
 10
555.4934552820345
 20
4.096769387567449
 30
0.0
 11
555.4934552820345
 21
-1.753229086553645
 31
0.0
  0
LINE
  5
52D
  8
0
  6
CONTINUOUS
 62
     2
 10
555.4934642774952
 20
-1.75324103928763
 30
0.0
 11
550.427207332299
 21
-4.678238860732407
 31
0.0
  0
LINE
  5
52E
  8
0
  6
CONTINUOUS
 62
     2
 10
550.4271912253175
 20
-4.678235037478615
 30
0.0
 11
545.360939859122
 21
-1.753227801470374
 31
0.0
  0
LINE
  5
52F
  8
0
  6
CONTINUOUS
 62
     2
 10
545.3609479578158
 20
-1.753219549810481
 30
0.0
 11
545.3609479578158
 21
4.096778924310613
 31
0.0
  0
CIRCLE
  5
530
  8
0
  6
CONTINUOUS
 62
     2
 10
492.6849378259798
 20
-52.2907485415097
 30
0.0
 40
8.0
  0
CIRCLE
  5
531
  8
0
  6
CONTINUOUS
 62
     2
 10
492.6849378259798
 20
91.30925374730866
 30
0.0
 40
8.0
  0
CIRCLE
  5
532
  8
0
  6
CONTINUOUS
 62
     2
 10
492.6849378259798
 20
121.3092537473087
 30
0.0
 40
8.0
  0
CIRCLE
  5
533
  8
0
  6
CONTINUOUS
 62
     2
 10
492.6849378259798
 20
-22.2907485415097
 30
0.0
 40
8.0
  0
CIRCLE
  5
534
  8
0
  6
CONTINUOUS
 62
     2
 10
550.4272016199252
 20
1.1717758725528
 30
0.0
 40
9.0
  0
LINE
  5
535
  8
0
  6
DIVIDE
 62
     9
 10
258.2724347950532
 20
70.50926213964264
 30
0.0
 11
258.2724347950532
 21
38.85446935399811
 31
0.0
  0
LINE
  5
536
  8
0
  6
DIVIDE
 62
     9
 10
183.2724195362641
 20
70.50926213964264
 30
0.0
 11
183.2724195362641
 21
38.67749410375397
 31
0.0
  0
LINE
  5
537
  8
0
  6
DIVIDE
 62
     9
 10
258.2724306242466
 20
70.50927253705667
 30
0.0
 11
257.2724403522501
 21
71.50926280905314
 31
0.0
  0
LINE
  5
538
  8
0
  6
DIVIDE
 62
     9
 10
183.272476434053
 20
70.50920375340108
 30
0.0
 11
184.2724774956425
 21
71.50920481499058
 31
0.0
  0
LINE
  5
539
  8
0
  6
DIVIDE
 62
     9
 10
252.8643384815766
 20
71.50926213964264
 30
0.0
 11
257.2724347950532
 21
71.50926213964264
 31
0.0
  0
LINE
  5
53A
  8
0
  6
DIVIDE
 62
     9
 10
259.2724195362641
 20
-23.16574091211517
 30
0.0
 11
259.2724195362641
 21
-41.16574091211517
 31
0.0
  0
LINE
  5
53B
  8
0
  6
DIVIDE
 62
     9
 10
167.2724195362641
 20
-26.16574091211517
 30
0.0
 11
167.2724195362641
 21
-38.16574091211517
 31
0.0
  0
LINE
  5
53C
  8
0
  6
DIVIDE
 62
     9
 10
167.2724195362641
 20
-37.16574091211517
 30
0.0
 11
203.2724195362641
 21
-37.16574091211517
 31
0.0
  0
LINE
  5
53D
  8
0
  6
DIVIDE
 62
     9
 10
167.2724195362641
 20
-27.16574091211517
 30
0.0
 11
203.2724195362641
 21
-27.16574091211517
 31
0.0
  0
LINE
  5
53E
  8
0
  6
DIVIDE
 62
     9
 10
167.2724195362641
 20
-38.16574091211517
 30
0.0
 11
247.2724195362641
 21
-38.16574091211517
 31
0.0
  0
LINE
  5
53F
  8
0
  6
DIVIDE
 62
     9
 10
167.2724195362641
 20
-26.16574091211517
 30
0.0
 11
247.2724195362641
 21
-26.16574091211517
 31
0.0
  0
LINE
  5
540
  8
0
  6
DIVIDE
 62
     9
 10
247.2724195362641
 20
-41.16574091211517
 30
0.0
 11
259.2724195362641
 21
-41.16574091211517
 31
0.0
  0
LINE
  5
541
  8
0
  6
DIVIDE
 62
     9
 10
247.2724195362641
 20
-23.16574091211517
 30
0.0
 11
259.2724195362641
 21
-23.16574091211517
 31
0.0
  0
LINE
  5
542
  8
0
  6
DIVIDE
 62
     9
 10
203.2724195362641
 20
-26.16574091211517
 30
0.0
 11
203.2724195362641
 21
-38.16574091211517
 31
0.0
  0
TEXT
  5
543
  8
0
 62
     7
 10
325.7906904768665
 20
43.31652979639292
 30
0.0
 40
4.0
  1
MIN 40.8
 50
90.0
 41
0.6571428571428586
  7
FDASTYLE1
 72
     5
 11
325.7906904768665
 21
64.3451012249644
 31
0.0
  0
TEXT
  5
544
  8
0
 62
     7
 10
193.7376050831391
 20
-102.0191540385462
 30
0.0
 40
4.0
  1
MIN 24.8
 41
0.6571428571428566
  7
FDASTYLE1
 72
     5
 11
214.7661765117105
 21
-102.0191540385462
 31
0.0
  0
TEXT
  5
545
  8
0
 62
     7
 10
161.7125196339204
 20
157.5187073300724
 30
0.0
 40
4.0
  1
MIN-4.2
 41
0.6693877551020405
  7
FDASTYLE1
 72
     5
 11
180.4553767767775
 21
157.5187073300724
 31
0.0
  0
TEXT
  5
546
  8
0
 62
     7
 10
288.1382914056117
 20
78.53276564294467
 30
0.0
 40
4.0
  1
MIN
 50
90.0
 41
0.5460852577109515
  7
FDASTYLE1
 72
     5
 11
288.1382914056117
 21
85.08578873547609
 31
0.0
  0
LINE
  5
547
  8
LAYER0001
  6
CONTINUOUS
 62
     7
 10
187.4724317432954
 20
162.6352997372989
 30
0.0
 11
160.4850132770364
 21
162.6352997372989
 31
0.0
  0
LINE
  5
548
  8
LAYER0001
  6
CONTINUOUS
 62
     7
 10
259.2724195362641
 20
162.5349579404239
 30
0.0
 11
253.4596296192719
 21
162.5349579404239
 31
0.0
  0
INSERT
  5
549
  8
LAYER0001
  6
CONTINUOUS
  2
DC_GROUP_1
 10
0.0
 20
0.0
 30
0.0
  0
INSERT
  5
54A
  8
LAYER0001
  6
CONTINUOUS
  2
DC_GROUP_4
 10
0.0
 20
0.0
 30
0.0
  0
INSERT
  5
54B
  8
LAYER0001
  6
CONTINUOUS
  2
DC_GROUP_7
 10
0.0
 20
0.0
 30
0.0
  0
INSERT
  5
54C
  8
LAYER0001
  6
CONTINUOUS
  2
DC_GROUP_10
 10
0.0
 20
0.0
 30
0.0
  0
INSERT
  5
54D
  8
LAYER0001
  6
CONTINUOUS
  2
DC_GROUP_12
 10
0.0
 20
0.0
 30
0.0
  0
INSERT
  5
54E
  8
LAYER0001
  6
CONTINUOUS
  2
DC_GROUP_15
 10
0.0
 20
0.0
 30
0.0
  0
INSERT
  5
54F
  8
LAYER0001
  6
CONTINUOUS
  2
DC_GROUP_18
 10
0.0
 20
0.0
 30
0.0
  0
INSERT
  5
550
  8
LAYER0001
  6
CONTINUOUS
  2
DC_GROUP_21
 10
0.0
 20
0.0
 30
0.0
  0
INSERT
  5
551
  8
LAYER0001
  6
CONTINUOUS
  2
DC_GROUP_24
 10
0.0
 20
0.0
 30
0.0
  0
INSERT
  5
552
  8
LAYER0001
  6
CONTINUOUS
  2
DC_GROUP_27
 10
0.0
 20
0.0
 30
0.0
  0
INSERT
  5
553
  8
LAYER0001
  6
CONTINUOUS
  2
DC_GROUP_30
 10
0.0
 20
0.0
 30
0.0
  0
INSERT
  5
554
  8
LAYER0001
  6
CONTINUOUS
  2
DC_GROUP_33
 10
0.0
 20
0.0
 30
0.0
  0
INSERT
  5
555
  8
LAYER0001
  6
CONTINUOUS
  2
DC_GROUP_36
 10
0.0
 20
0.0
 30
0.0
  0
INSERT
  5
556
  8
LAYER0001
  6
CONTINUOUS
  2
DC_GROUP_39
 10
0.0
 20
0.0
 30
0.0
  0
INSERT
  5
557
  8
LAYER0001
  6
CONTINUOUS
  2
DC_GROUP_42
 10
0.0
 20
0.0
 30
0.0
  0
INSERT
  5
558
  8
LAYER0001
  6
CONTINUOUS
  2
DC_GROUP_45
 10
0.0
 20
0.0
 30
0.0
  0
INSERT
  5
559
  8
LAYER0001
  6
CONTINUOUS
  2
DC_GROUP_48
 10
0.0
 20
0.0
 30
0.0
  0
INSERT
  5
55A
  8
LAYER0001
  6
CONTINUOUS
  2
DC_GROUP_50
 10
0.0
 20
0.0
 30
0.0
  0
INSERT
  5
55B
  8
LAYER0001
  6
CONTINUOUS
  2
DC_GROUP_53
 10
0.0
 20
0.0
 30
0.0
  0
INSERT
  5
55C
  8
LAYER0001
  6
CONTINUOUS
  2
DC_GROUP_55
 10
0.0
 20
0.0
 30
0.0
  0
INSERT
  5
55D
  8
LAYER0001
  6
CONTINUOUS
  2
DC_GROUP_58
 10
0.0
 20
0.0
 30
0.0
  0
INSERT
  5
55E
  8
LAYER0001
  6
CONTINUOUS
  2
DC_GROUP_61
 10
0.0
 20
0.0
 30
0.0
  0
INSERT
  5
55F
  8
LAYER0001
  6
CONTINUOUS
  2
DC_GROUP_64
 10
0.0
 20
0.0
 30
0.0
  0
INSERT
  5
560
  8
LAYER0001
  6
CONTINUOUS
  2
DC_GROUP_67
 10
0.0
 20
0.0
 30
0.0
  0
INSERT
  5
561
  8
LAYER0001
  6
CONTINUOUS
  2
DC_GROUP_70
 10
0.0
 20
0.0
 30
0.0
  0
INSERT
  5
562
  8
LAYER0001
  6
CONTINUOUS
  2
DC_GROUP_73
 10
0.0
 20
0.0
 30
0.0
  0
INSERT
  5
563
  8
LAYER0001
  6
CONTINUOUS
  2
DC_GROUP_75
 10
0.0
 20
0.0
 30
0.0
  0
INSERT
  5
564
  8
LAYER0001
  6
CONTINUOUS
  2
DC_GROUP_77
 10
0.0
 20
0.0
 30
0.0
  0
INSERT
  5
565
  8
0
  6
CONTINUOUS
  2
DC_GROUP_80
 10
0.0
 20
0.0
 30
0.0
  0
INSERT
  5
566
  8
0
  6
CONTINUOUS
  2
DC_GROUP_85
 10
0.0
 20
0.0
 30
0.0
  0
INSERT
  5
567
  8
0
  6
CONTINUOUS
  2
DC_GROUP_88
 10
0.0
 20
0.0
 30
0.0
  0
INSERT
  5
568
  8
0
  6
CONTINUOUS
  2
DC_GROUP_91
 10
0.0
 20
0.0
 30
0.0
  0
INSERT
  5
569
  8
0
  6
CONTINUOUS
  2
DC_GROUP_94
 10
0.0
 20
0.0
 30
0.0
  0
INSERT
  5
56A
  8
0
  6
CONTINUOUS
  2
DC_GROUP_97
 10
0.0
 20
0.0
 30
0.0
  0
INSERT
  5
56B
  8
0
  6
CONTINUOUS
  2
DC_GROUP_99
 10
0.0
 20
0.0
 30
0.0
  0
INSERT
  5
56C
  8
0
  6
CONTINUOUS
  2
DC_GROUP_102
 10
0.0
 20
0.0
 30
0.0
  0
INSERT
  5
56D
  8
0
  6
CONTINUOUS
  2
DC_GROUP_105
 10
0.0
 20
0.0
 30
0.0
  0
INSERT
  5
56E
  8
0
  6
CONTINUOUS
  2
DC_GROUP_108
 10
0.0
 20
0.0
 30
0.0
  0
LINE
  5
56F
  8
0
  6
CONTINUOUS
 62
     5
 10
578.6653302820345
 20
48.08837133153718
 30
0.0
 11
578.6653302820345
 21
43.58836370214264
 31
0.0
  0
LINE
  5
570
  8
0
  6
CONTINUOUS
 62
     5
 10
579.4153244443791
 20
47.33841489205149
 30
0.0
 11
578.6653290429836
 21
48.08841035666698
 31
0.0
  0
LINE
  5
571
  8
0
  6
CONTINUOUS
 62
     5
 10
577.9153719346587
 20
47.33833819352019
 30
0.0
 11
578.6653780624265
 21
48.08834451095042
 31
0.0
  0
LINE
  5
572
  8
0
  6
CONTINUOUS
 62
     5
 10
578.6653948158032
 20
43.58831257015497
 30
0.0
 11
579.4154009435711
 21
44.3383188875852
 31
0.0
  0
LINE
  5
573
  8
0
  6
CONTINUOUS
 62
     5
 10
578.665339642916
 20
43.58840538985275
 30
0.0
 11
577.9153334519273
 21
44.33841164406219
 31
0.0
  0
LINE
  5
574
  8
0
  6
CONTINUOUS
 62
     5
 10
571.1653150232455
 20
48.83838277562897
 30
0.0
 11
586.1653150232455
 21
48.83838277562897
 31
0.0
  0
LINE
  5
575
  8
0
  6
CONTINUOUS
 62
     5
 10
580.5410906815118
 20
54.36543598099586
 30
0.0
 11
579.5666647358916
 21
54.21110222692794
 31
0.0
  0
LINE
  5
576
  8
0
  6
CONTINUOUS
 62
     5
 10
580.5411211163437
 20
54.36544331497628
 30
0.0
 11
580.386789558163
 21
55.33985418966806
 31
0.0
  0
LINE
  5
577
  8
0
  6
CONTINUOUS
 62
     5
 10
586.1653150232455
 20
48.83838277562897
 30
0.0
 11
586.1653150232455
 21
56.33838277562897
 31
0.0
  0
LINE
  5
578
  8
0
  6
CONTINUOUS
 62
     5
 10
571.1653150232455
 20
56.33837514623444
 30
0.0
 11
586.1653150232455
 21
56.33837514623444
 31
0.0
  0
LINE
  5
579
  8
0
  6
CONTINUOUS
 62
     5
 10
571.1653150232455
 20
48.83837896093171
 30
0.0
 11
571.1653150232455
 21
60.08838277562897
 31
0.0
  0
LINE
  5
57A
  8
0
  6
CONTINUOUS
 62
     5
 10
571.1653150232455
 20
60.08837514623444
 30
0.0
 11
573.4153150232455
 21
60.08837514623444
 31
0.0
  0
LINE
  5
57B
  8
0
  6
CONTINUOUS
 62
     5
 10
573.4153150232455
 20
58.96336751683991
 30
0.0
 11
573.4153150232455
 21
60.08835988744538
 31
0.0
  0
LINE
  5
57C
  8
0
  6
CONTINUOUS
 62
     5
 10
573.4153150232455
 20
58.96337514623444
 30
0.0
 11
574.9153150232455
 21
58.96337514623444
 31
0.0
  0
LINE
  5
57D
  8
0
  6
CONTINUOUS
 62
     5
 10
574.9152997644565
 20
57.83838277562897
 30
0.0
 11
574.9152997644565
 21
58.96338277562897
 31
0.0
  0
LINE
  5
57E
  8
0
  6
CONTINUOUS
 62
     5
 10
574.9153302820345
 20
57.83836751683991
 30
0.0
 11
576.4153302820345
 21
57.83836751683991
 31
0.0
  0
LINE
  5
57F
  8
0
  6
CONTINUOUS
 62
     5
 10
576.4152997644565
 20
56.33838277562897
 30
0.0
 11
576.4152997644565
 21
57.83837514623444
 31
0.0
  0
LINE
  5
580
  8
0
  6
CONTINUOUS
 62
     5
 10
577.9153489203354
 20
58.68862369764081
 30
0.0
 11
578.6653550481032
 21
59.43863001507104
 31
0.0
  0
LINE
  5
581
  8
0
  6
CONTINUOUS
 62
     5
 10
575.7056897791048
 20
59.4386330197696
 30
0.0
 11
578.6653150232455
 21
59.4386330197696
 31
0.0
  0
LINE
  5
582
  8
0
  6
CONTINUOUS
 62
     5
 10
578.6653295213614
 20
59.43867428160336
 30
0.0
 11
577.9153341199658
 21
60.18866974621885
 31
0.0
  0
ARC
  5
583
  8
0
  6
CONTINUOUS
 62
     5
 10
578.6849378259798
 20
52.50926595433991
 30
0.0
 40
2.625001907348633
 50
45.00008662960378
 51
339.9999320525513
  0
ARC
  5
584
  8
0
  6
CENTER
 62
     5
 10
492.6849378259798
 20
34.50926213964264
 30
0.0
 40
45.0
 50
322.1329462980182
 51
337.7485789860813
  0
TEXT
  5
585
  8
0
 62
     5
 10
401.1849378259798
 20
63.29496591790955
 30
0.0
 40
5.0
  1
NIKKO
 50
-90.00000000000001
 41
0.6358806103208212
  7
FDASTYLE1
 72
     5
 11
401.1849378259798
 21
47.39795065988902
 31
0.0
  0
TEXT
  5
586
  8
0
 62
     5
 10
401.6849378259798
 20
27.93784194692414
 30
0.0
 40
4.0
  1
HF2-8
 50
-90.00000000000001
 41
0.723588282411967
  7
FDASTYLE1
 72
     5
 11
401.6849378259798
 21
13.4660762986848
 31
0.0
  0
TEXT
  5
587
  8
0
 62
     5
 10
395.1849378259798
 20
27.58069878324311
 30
0.0
 40
3.0
  1
0001
 50
-90.00000000000001
 41
0.6190477764350769
  7
FDASTYLE1
 72
     5
 11
395.1849378259798
 21
20.15212546602219
 31
0.0
  0
TEXT
  5
588
  8
0
 62
     5
 10
581.934953084769
 20
7.5789163063411
 30
0.0
 40
2.5
  1
F MAX   15KN
 50
90.0
 41
0.7578772143703342
  7
FDASTYLE1
 72
     5
 11
581.934953084769
 21
30.31523273745113
 31
0.0
  0
TEXT
  5
589
  8
0
 62
     5
 10
585.934953084769
 20
7.578918213689732
 30
0.0
 40
2.5
  1
ΣS MAX  61KN
 50
90.0
 41
0.6460330630949721
  7
FDASTYLE1
 72
     5
 11
585.934953084769
 21
27.28292663808638
 31
0.0
  0
TEXT
  5
58A
  8
0
 62
     5
 10
589.934968343558
 20
7.578914398992467
 30
0.0
 40
2.5
  1
N MAX 5000 AT ΣS MAX
 50
90.0
 41
0.6445640188692571
  7
FDASTYLE1
 72
     5
 11
589.934968343558
 21
40.12939735188995
 31
0.0
  0
TEXT
  5
58B
  8
0
 62
     5
 10
576.7854322107455
 20
44.884370977724
 30
0.0
 40
2.5
  1
F
 50
90.0
 41
0.5442179498218138
  7
FDASTYLE1
 72
     5
 11
576.7854322107455
 21
46.24491585227853
 31
0.0
  0
TEXT
  5
58C
  8
0
 62
     5
 10
584.3045362146517
 20
52.6783482383136
 30
0.0
 40
2.5
  1
N min
 50
90.0
 41
0.6995393319099822
  7
FDASTYLE1
 72
     5
 11
584.3045362146517
 21
61.42258988718838
 31
0.0
  0
TEXT
  5
58D
  8
0
 62
     5
 10
582.5256899507662
 20
65.61584756776135
 30
0.0
 40
1.25
  1
-1
 50
90.0
 41
0.6149070012128505
  7
FDASTYLE1
 72
     5
 11
582.5256899507662
 21
67.15311507079348
 31
0.0
  0
TEXT
  5
58E
  8
0
 62
     5
 10
578.4878858240267
 20
61.14263361200135
 30
0.0
 40
2.5
  1
ΣS
 50
90.0
 41
0.7846700504791732
  7
FDASTYLE1
 72
     5
 11
578.4878858240267
 21
65.4583188896368
 31
0.0
  0
LINE
  5
58F
  8
0
  6
CONTINUOUS
 62
     6
 10
281.6253031682805
 20
-107.5185083459925
 30
0.0
 11
297.6253031682805
 21
-107.5185083459925
 31
0.0
  0
LINE
  5
590
  8
0
  6
CONTINUOUS
 62
     6
 10
281.6253031682805
 20
-179.5185083459925
 30
0.0
 11
436.2919901799992
 21
-179.5185083459925
 31
0.0
  0
LINE
  5
591
  8
0
  6
CONTINUOUS
 62
     6
 10
281.6253031682805
 20
-171.5185083459925
 30
0.0
 11
436.2919901799992
 21
-171.5185083459925
 31
0.0
  0
LINE
  5
592
  8
0
  6
CONTINUOUS
 62
     6
 10
281.6253031682805
 20
-163.5185083459925
 30
0.0
 11
436.2919901799992
 21
-163.5185083459925
 31
0.0
  0
LINE
  5
593
  8
0
  6
CONTINUOUS
 62
     6
 10
281.6253031682805
 20
-155.5185083459925
 30
0.0
 11
436.2919901799992
 21
-155.5185083459925
 31
0.0
  0
LINE
  5
594
  8
0
  6
CONTINUOUS
 62
     6
 10
281.6253031682805
 20
-147.5185083459925
 30
0.0
 11
436.2919901799992
 21
-147.5185083459925
 31
0.0
  0
LINE
  5
595
  8
0
  6
CONTINUOUS
 62
     6
 10
281.6253031682805
 20
-139.5185083459925
 30
0.0
 11
436.2919901799992
 21
-139.5185083459925
 31
0.0
  0
LINE
  5
596
  8
0
  6
CONTINUOUS
 62
     6
 10
281.6253031682805
 20
-131.5185083459925
 30
0.0
 11
436.2919901799992
 21
-131.5185083459925
 31
0.0
  0
LINE
  5
597
  8
0
  6
CONTINUOUS
 62
     6
 10
281.6253031682805
 20
-123.5185083459925
 30
0.0
 11
436.2919901799992
 21
-123.5185083459925
 31
0.0
  0
LINE
  5
598
  8
0
  6
CONTINUOUS
 62
     6
 10
281.6253031682805
 20
-115.5185083459925
 30
0.0
 11
436.2919901799992
 21
-115.5185083459925
 31
0.0
  0
TEXT
  5
599
  8
0
 62
     6
 10
284.1967311096028
 20
-177.8518518518519
 30
0.0
 40
4.0
  1
アンバランス量
 41
0.6638419631282793
  7
FDASTYLE1
 72
     5
 11
306.501821070713
 21
-177.8518518518519
 31
0.0
  0
TEXT
  5
59A
  8
0
 62
     6
 10
284.1967311096028
 20
-169.8518518518519
 30
0.0
 40
4.0
  1
質　量
 41
0.6506851053211331
  7
FDASTYLE1
 72
     5
 11
293.5665966262271
 21
-169.8518518518519
 31
0.0
  0
TEXT
  5
59B
  8
0
 62
     6
 10
284.1967311096028
 20
-161.8518518518519
 30
0.0
 40
4.0
  1
慣性モーメント
 41
0.6638419631282793
  7
FDASTYLE1
 72
     5
 11
306.501821070713
 21
-161.8518518518519
 31
0.0
  0
TEXT
  5
59C
  8
0
 62
     6
 10
284.1967311096028
 20
-153.8518518518519
 30
0.0
 40
4.0
  1
最高使用回転速度
 41
0.6650247841349815
  7
FDASTYLE1
 72
     5
 11
309.7336828203861
 21
-153.8518518518519
 31
0.0
  0
TEXT
  5
59D
  8
0
 62
     6
 10
284.1967311096028
 20
-145.8518518518519
 30
0.0
 40
4.0
  1
最大静的把握力
 41
0.6638419631282793
  7
FDASTYLE1
 72
     5
 11
306.501821070713
 21
-145.8518518518519
 31
0.0
  0
TEXT
  5
59E
  8
0
 62
     6
 10
284.1967311096028
 20
-137.8518518518519
 30
0.0
 40
4.0
  1
許容シリンダ力
 41
0.6638419631282793
  7
FDASTYLE1
 72
     5
 11
306.501821070713
 21
-137.8518518518519
 31
0.0
  0
TEXT
  5
59F
  8
0
 62
     6
 10
284.1967311096028
 20
-129.8518518518519
 30
0.0
 40
4.0
  1
推奨シリンダ
 41
0.6622518130451897
  7
FDASTYLE1
 72
     5
 11
303.2695833253043
 21
-129.8518518518519
 31
0.0
  0
TEXT
  5
5A0
  8
0
 62
     6
 10
284.1967311096028
 20
-121.8518518518519
 30
0.0
 40
4.0
  1
ピストンストローク
 41
0.6659390169707115
  7
FDASTYLE1
 72
     5
 11
312.9652966427375
 21
-121.8518518518519
 31
0.0
  0
TEXT
  5
5A1
  8
0
 62
     6
 10
284.1967311096028
 20
-113.8518518518519
 30
0.0
 40
4.0
  1
爪ﾉｽﾄﾛｰｸ
 41
0.6268397317836794
  7
FDASTYLE1
 72
     5
 11
302.2497153849728
 21
-113.8518518518519
 31
0.0
  0
TEXT
  5
5A2
  8
0
 62
     6
 10
284.1967311096028
 20
-105.8518518518519
 30
0.0
 40
4.0
  1
仕　様
 41
0.6506851053211331
  7
FDASTYLE1
 72
     5
 11
293.5665966262271
 21
-105.8518518518519
 31
0.0
  0
TEXT
  5
5A3
  8
0
 62
     6
 10
373.4052767944173
 20
-113.5765222620081
 30
0.0
 40
4.0
  1
(直径ﾆﾃ) 6.2   mm
 41
0.6198436807297042
  7
FDASTYLE1
 72
     5
 11
411.587647527367
 21
-113.5765222620081
 31
0.0
  0
TEXT
  5
5A4
  8
0
 62
     6
 10
405.3447375488118
 20
-121.3562463831019
 30
0.0
 40
4.0
  1
25   mm
 41
0.8176649865628666
  7
FDASTYLE1
 72
     5
 11
428.2393571725721
 21
-121.3562463831019
 31
0.0
  0
TEXT
  5
5A5
  8
0
 62
     6
 10
389.0923724365071
 20
-129.6325525354456
 30
0.0
 40
4.0
  1
52TS-TA1  型
 41
0.6251853871776689
  7
FDASTYLE1
 72
     5
 11
417.1006777820667
 21
-129.6325525354456
 31
0.0
  0
TEXT
  5
5A6
  8
0
 62
     6
 10
397.3734469604329
 20
-137.5778040002894
 30
0.0
 40
4.0
  1
15.5   kN
 41
0.6618446563663506
  7
FDASTYLE1
 72
     5
 11
421.1998545896215
 21
-137.5778040002894
 31
0.0
  0
TEXT
  5
5A7
  8
0
 62
     6
 10
397.3626589965657
 20
-145.5230554651331
 30
0.0
 40
4.0
  1
61.8   kN
 41
0.6700155780498847
  7
FDASTYLE1
 72
     5
 11
421.4832198063616
 21
-145.5230554651331
 31
0.0
  0
TEXT
  5
5A8
  8
0
 62
     6
 10
397.7187037658528
 20
-153.468337447555
 30
0.0
 40
4.0
  1
5000  min
 41
0.7026992647840255
  7
FDASTYLE1
 72
     5
 11
423.0158772980777
 21
-153.468337447555
 31
0.0
  0
TEXT
  5
5A9
  8
0
 62
     6
 10
393.4886927795247
 20
-161.5791162561488
 30
0.0
 40
4.0
  1
０．１２５ kg・m
 41
0.5917071515696255
  7
FDASTYLE1
 72
     5
 11
419.9971731698439
 21
-161.5791162561488
 31
0.0
  0
TEXT
  5
5AA
  8
0
 62
     6
 10
432.6187139702972
 20
-158.5993236710161
 30
0.0
 40
2.0
  1
2
 41
0.4761906862258911
  7
FDASTYLE1
 72
     5
 11
433.571095342749
 21
-158.5993236710161
 31
0.0
  0
TEXT
  5
5AB
  8
0
 62
     6
 10
405.8139453124837
 20
-169.5243982385706
 30
0.0
 40
4.0
  1
17   kg
 41
0.6761460465808317
  7
FDASTYLE1
 72
     5
 11
424.746034616747
 21
-169.5243982385706
 31
0.0
  0
TEXT
  5
5AC
  8
0
 62
     6
 10
381.174487609847
 20
-177.6351770471644
 30
0.0
 40
4.0
  1
外周ﾆﾃ   4  g以内
 41
0.6090379479135303
  7
FDASTYLE1
 72
     5
 11
414.7933823346738
 21
-177.6351770471644
 31
0.0
  0
TEXT
  5
5AD
  8
0
 62
     6
 10
432.4528239423382
 20
-150.5496187937251
 30
0.0
 40
2.0
  1
-1
 41
0.5892859038098806
  7
FDASTYLE1
 72
     5
 11
434.8099675575777
 21
-150.5496187937251
 31
0.0
  0
TEXT
  5
5AE
  8
0
 62
     6
 10
318.1196381436138
 20
-137.5185083459925
 30
0.0
 40
3.0
  1
52TS-TA1型　引側使用油圧力  2.5MPa
 41
0.6024139503691632
  7
FDASTYLE1
 72
     5
 11
366.5537197532946
 21
-137.5185083459925
 31
0.0
  0
VIEWPORT
  5
48
 67
     1
  8
0
 10
356.5723937454768
 20
0.0
 30
0.0
 40
1662.0
 41
1140.0
 68
     1
 69
     1
1001
ACAD
1000
MVIEW
1002
{
1070
    16
1010
0.0
1020
0.0
1030
0.0
1020
0.0
1030
0.0
1010
0.0
1020
0.0
1030
1.0
1020
0.0
1030
1.0
1040
0.0
1040
1140.0
1040
356.5723937454768
1040
0.0
1040
50.0
1040
0.0
1040
0.0
1070
     0
1070
   100
1070
     0
1070
     1
1070
     0
1070
     0
1070
     0
1070
     0
1040
0.0
1040
0.0
1040
0.0
1040
0.5
1040
0.5
1040
0.0
1040
0.0
1070
     0
1002
{
1002
}
1002
}
  0
ENDSEC
  0
EOF
