  0
SECTION
  2
HEADER
  9
$ACADVER
  1
AC1009
  9
$DWGCODEPAGE
  3
ansi_932
  9
$INSBASE
 10
0.0
 20
0.0
 30
0.0
  9
$EXTMIN
 10
-831.0
 20
-569.9999999999999
 30
0.0
  9
$EXTMAX
 10
831.0
 20
569.9999999999999
 30
0.0
  9
$LIMMIN
 10
-297.0
 20
-210.0
  9
$LIMMAX
 10
297.0
 20
210.0
  9
$ORTHOMODE
 70
     0
  9
$REGENMODE
 70
     1
  9
$FILLMODE
 70
     1
  9
$QTEXTMODE
 70
     0
  9
$MIRRTEXT
 70
     1
  9
$DRAGMODE
 70
     2
  9
$LTSCALE
 40
1.0
  9
$OSMODE
 70
    37
  9
$ATTMODE
 70
     1
  9
$TEXTSIZE
 40
0.2
  9
$TRACEWID
 40
0.05
  9
$TEXTSTYLE
  7
STANDARD
  9
$CLAYER
  8
0
  9
$CELTYPE
  6
BYLAYER
  9
$CECOLOR
 62
   256
  9
$DIMSCALE
 40
1.0
  9
$DIMASZ
 40
2.5
  9
$DIMEXO
 40
0.0625
  9
$DIMDLI
 40
0.38
  9
$DIMRND
 40
0.0
  9
$DIMDLE
 40
0.0
  9
$DIMEXE
 40
0.18
  9
$DIMTP
 40
0.0
  9
$DIMTM
 40
0.0
  9
$DIMTXT
 40
0.18
  9
$DIMCEN
 40
0.09
  9
$DIMTSZ
 40
0.0
  9
$DIMTOL
 70
     0
  9
$DIMLIM
 70
     0
  9
$DIMTIH
 70
     1
  9
$DIMTOH
 70
     1
  9
$DIMSE1
 70
     0
  9
$DIMSE2
 70
     0
  9
$DIMTAD
 70
     3
  9
$DIMZIN
 70
     0
  9
$DIMBLK
  1

  9
$DIMASO
 70
     1
  9
$DIMSHO
 70
     1
  9
$DIMPOST
  1

  9
$DIMAPOST
  1

  9
$DIMALT
 70
     0
  9
$DIMALTD
 70
     2
  9
$DIMALTF
 40
25.4
  9
$DIMLFAC
 40
1.0
  9
$DIMTOFL
 70
     0
  9
$DIMTVP
 40
0.0
  9
$DIMTIX
 70
     0
  9
$DIMSOXD
 70
     0
  9
$DIMSAH
 70
     0
  9
$DIMBLK1
  1

  9
$DIMBLK2
  1

  9
$DIMSTYLE
  2
STANDARD
  9
$DIMCLRD
 70
     0
  9
$DIMCLRE
 70
     0
  9
$DIMCLRT
 70
     0
  9
$DIMTFAC
 40
1.0
  9
$DIMGAP
 40
0.09
  9
$LUNITS
 70
     2
  9
$LUPREC
 70
     4
  9
$SKETCHINC
 40
0.1
  9
$FILLETRAD
 40
0.5
  9
$AUNITS
 70
     0
  9
$AUPREC
 70
     0
  9
$MENU
  1
.
  9
$ELEVATION
 40
0.0
  9
$PELEVATION
 40
0.0
  9
$THICKNESS
 40
0.0
  9
$LIMCHECK
 70
     0
  9
$CHAMFERA
 40
0.5
  9
$CHAMFERB
 40
0.5
  9
$SKPOLY
 70
     0
  9
$TDCREATE
 40
2454889.632883959
  9
$TDUPDATE
 40
2454889.63288397
  9
$TDINDWG
 40
0.0000000116
  9
$TDUSRTIMER
 40
0.0000000116
  9
$USRTIMER
 70
     1
  9
$ANGBASE
 50
0.0
  9
$ANGDIR
 70
     0
  9
$PDMODE
 70
     0
  9
$PDSIZE
 40
1.0
  9
$PLINEWID
 40
0.0
  9
$COORDS
 70
     1
  9
$SPLFRAME
 70
     0
  9
$SPLINETYPE
 70
     6
  9
$SPLINESEGS
 70
     8
  9
$ATTDIA
 70
     0
  9
$ATTREQ
 70
     1
  9
$HANDLING
 70
     1
  9
$HANDSEED
  5
49B
  9
$SURFTAB1
 70
     6
  9
$SURFTAB2
 70
     6
  9
$SURFTYPE
 70
     6
  9
$SURFU
 70
     6
  9
$SURFV
 70
     6
  9
$UCSNAME
  2

  9
$UCSORG
 10
0.0
 20
0.0
 30
0.0
  9
$UCSXDIR
 10
1.0
 20
0.0
 30
0.0
  9
$UCSYDIR
 10
0.0
 20
1.0
 30
0.0
  9
$PUCSNAME
  2

  9
$PUCSORG
 10
0.0
 20
0.0
 30
0.0
  9
$PUCSXDIR
 10
1.0
 20
0.0
 30
0.0
  9
$PUCSYDIR
 10
0.0
 20
1.0
 30
0.0
  9
$USERI1
 70
     0
  9
$USERI2
 70
     0
  9
$USERI3
 70
     0
  9
$USERI4
 70
     0
  9
$USERI5
 70
     0
  9
$USERR1
 40
0.0
  9
$USERR2
 40
0.0
  9
$USERR3
 40
0.0
  9
$USERR4
 40
0.0
  9
$USERR5
 40
0.0
  9
$WORLDVIEW
 70
     1
  9
$SHADEDGE
 70
     3
  9
$SHADEDIF
 70
    70
  9
$TILEMODE
 70
     1
  9
$MAXACTVP
 70
    64
  9
$PLIMCHECK
 70
     0
  9
$PEXTMIN
 10
1.000000000000000E+20
 20
1.000000000000000E+20
 30
1.000000000000000E+20
  9
$PEXTMAX
 10
-1.000000000000000E+20
 20
-1.000000000000000E+20
 30
-1.000000000000000E+20
  9
$PLIMMIN
 10
0.0
 20
0.0
  9
$PLIMMAX
 10
12.0
 20
9.0
  9
$UNITMODE
 70
     0
  9
$VISRETAIN
 70
     0
  9
$PLINEGEN
 70
     1
  9
$PSLTSCALE
 70
     0
  0
ENDSEC
  0
SECTION
  2
TABLES
  0
TABLE
  2
VPORT
 70
     1
  0
VPORT
  2
*ACTIVE
 70
     0
 10
0.0
 20
0.0
 11
1.0
 21
1.0
 12
0.0
 22
0.0
 13
0.0
 23
0.0
 14
0.5
 24
0.5
 15
0.5
 25
0.5
 16
0.0
 26
0.0
 36
1.0
 17
-0.0000000000000036
 27
0.0
 37
0.0
 40
387.6
 41
1.457894736842106
 42
50.0
 43
0.0
 44
0.0
 50
0.0
 51
0.0
 71
     0
 72
  1000
 73
     1
 74
     1
 75
     0
 76
     0
 77
     0
 78
     0
  0
ENDTAB
  0
TABLE
  2
LTYPE
 70
    28
  0
LTYPE
  2
CONTINUOUS
 70
     0
  3
Solid line
 72
    65
 73
     0
 40
0.0
  0
LTYPE
  2
HIDDENX2
 70
     0
  3
CADPAC LINETYPE
 72
    65
 73
     2
 40
9.893992932862261
 49
7.420494699646696
 49
-2.473498233215565
  0
LTYPE
  2
HIDDEN
 70
     0
  3
CADPAC LINETYPE
 72
    65
 73
     2
 40
7.420494699646696
 49
4.946996466431131
 49
-2.473498233215565
  0
LTYPE
  2
HIDDEN2
 70
     0
  3
CADPAC LINETYPE
 72
    65
 73
     2
 40
6.183745583038913
 49
3.710247349823348
 49
-2.473498233215565
  0
LTYPE
  2
DASHED
 70
     0
  3
CADPAC LINETYPE
 72
    65
 73
     2
 40
6.925795053003526
 49
4.946996466431131
 49
-1.978798586572395
  0
LTYPE
  2
DASHED2
 70
     0
  3
CADPAC LINETYPE
 72
    65
 73
     2
 40
4.452296819787989
 49
2.968197879858678
 49
-1.484098939929311
  0
LTYPE
  2
DASHEDX2
 70
     0
  3
CADPAC LINETYPE
 72
    65
 73
     2
 40
11.8727915194346
 49
9.893992932862204
 49
-1.978798586572395
  0
LTYPE
  2
DOTX2
 70
     0
  3
CADPAC LINETYPE
 72
    65
 73
     2
 40
4.328621908127204
 49
0.0
 49
-4.328621908127204
  0
LTYPE
  2
DOT
 70
     0
  3
CADPAC LINETYPE
 72
    65
 73
     2
 40
3.462897526501763
 49
0.0
 49
-3.462897526501763
  0
LTYPE
  2
DOT2
 70
     0
  3
CADPAC LINETYPE
 72
    65
 73
     2
 40
2.597173144876322
 49
0.0
 49
-2.597173144876322
  0
LTYPE
  2
CENTERX2
 70
     0
  3
CADPAC LINETYPE
 72
    65
 73
     4
 40
14.84098939929339
 49
6.183745583038913
 49
-3.091872791519457
 49
2.473498233215565
 49
-3.091872791519457
  0
LTYPE
  2
CENTER
 70
     0
  3
CADPAC LINETYPE
 72
    65
 73
     4
 40
11.3780918727916
 49
4.946996466431131
 49
-2.473498233215565
 49
1.484098939929339
 49
-2.473498233215565
  0
LTYPE
  2
CENTER2
 70
     0
  3
CADPAC LINETYPE
 72
    65
 73
     4
 40
7.915194346289809
 49
3.710247349823348
 49
-1.855123674911674
 49
0.4946996466431131
 49
-1.855123674911674
  0
LTYPE
  2
DASHDOTX2
 70
     0
  3
CADPAC LINETYPE
 72
    65
 73
     4
 40
23.7455830388692
 49
11.87279151943466
 49
-3.957597173144848
 49
3.957597173144848
 49
-3.957597173144848
  0
LTYPE
  2
DASHDOT
 70
     0
  3
CADPAC LINETYPE
 72
    65
 73
     4
 40
11.87279151943449
 49
5.9363957597173
 49
-1.978798586572395
 49
1.978798586572395
 49
-1.978798586572395
  0
LTYPE
  2
DASHDOT2
 70
     0
  3
CADPAC LINETYPE
 72
    65
 73
     4
 40
7.618374558303808
 49
4.452296819787975
 49
-1.484098939929297
 49
0.1978798586572396
 49
-1.484098939929297
  0
LTYPE
  2
DIVIDEX2
 70
     0
  3
CADPAC LINETYPE
 72
    65
 73
     6
 40
31.6607773851589
 49
11.87279151943466
 49
-3.957597173144848
 49
3.957597173144848
 49
-3.957597173144848
 49
3.957597173144848
 49
-3.957597173144848
  0
LTYPE
  2
DIVIDE
 70
     0
  3
CADPAC LINETYPE
 72
    65
 73
     6
 40
15.83038869257928
 49
5.9363957597173
 49
-1.978798586572395
 49
1.978798586572395
 49
-1.978798586572395
 49
1.978798586572395
 49
-1.978798586572395
  0
LTYPE
  2
DIVIDE2
 70
     0
  3
CADPAC LINETYPE
 72
    65
 73
     6
 40
11.87279151943446
 49
4.452296819787975
 49
-1.484098939929297
 49
1.484098939929297
 49
-1.484098939929297
 49
1.484098939929297
 49
-1.484098939929297
  0
LTYPE
  2
BORDERX2
 70
     0
  3
CADPAC LINETYPE
 72
    65
 73
     6
 40
21.6431095406362
 49
6.183745583038913
 49
-3.091872791519457
 49
6.183745583038913
 49
-3.091872791519457
 49
0.0
 49
-3.091872791519457
  0
LTYPE
  2
BORDER
 70
     0
  3
CADPAC LINETYPE
 72
    65
 73
     6
 40
17.31448763250896
 49
4.946996466431131
 49
-2.473498233215565
 49
4.946996466431131
 49
-2.473498233215565
 49
0.0
 49
-2.473498233215565
  0
LTYPE
  2
BORDER2
 70
     0
  3
CADPAC LINETYPE
 72
    65
 73
     6
 40
12.86219081272091
 49
3.957597173144848
 49
-2.473498233215594
 49
1.484098939929311
 49
-2.473498233215594
 49
0.0
 49
-2.473498233215565
  0
LTYPE
  2
PHANTOMX2
 70
     0
  3
CADPAC LINETYPE
 72
    65
 73
     6
 40
18.55123674911674
 49
6.183745583038913
 49
-2.473498233215565
 49
2.473498233215565
 49
-2.473498233215565
 49
2.473498233215565
 49
-2.473498233215565
  0
LTYPE
  2
PHANTOM
 70
     0
  3
CADPAC LINETYPE
 72
    65
 73
     6
 40
15.33568904593651
 49
4.946996466431131
 49
-2.473498233215565
 49
1.484098939929339
 49
-2.473498233215565
 49
1.484098939929339
 49
-2.473498233215565
  0
LTYPE
  2
PHANTOM2
 70
     0
  3
CADPAC LINETYPE
 72
    65
 73
     6
 40
13.1095406360425
 49
3.710247349823348
 49
-2.473498233215565
 49
0.9893992932862261
 49
-2.473498233215565
 49
0.9893992932862261
 49
-2.473498233215565
  0
LTYPE
  2
ACAD_ISO06W100
 70
     0
  3
CADPAC LINETYPE
 72
    65
 73
     8
 40
26.21908127208496
 49
11.87279151943466
 49
-2.473498233215594
 49
1.484098939929311
 49
-2.473498233215594
 49
1.484098939929311
 49
-2.473498233215594
 49
1.484098939929311
 49
-2.473498233215594
  0
LTYPE
  2
ACAD_ISO13W100
 70
     0
  3
CADPAC LINETYPE
 72
    65
 73
     8
 40
19.78798586572452
 49
4.946996466431131
 49
-2.473498233215565
 49
4.946996466431131
 49
-2.473498233215565
 49
0.0
 49
-2.473498233215565
 49
0.0
 49
-2.473498233215565
  0
LTYPE
  2
ACAD_ISO14W100
 70
     0
  3
CADPAC LINETYPE
 72
    65
 73
     8
 40
14.84098939929339
 49
4.946996466431131
 49
-2.473498233215565
 49
0.0
 49
-2.473498233215565
 49
0.0
 49
-2.473498233215565
 49
0.0
 49
-2.473498233215565
  0
ENDTAB
  0
TABLE
  2
LAYER
 70
     3
  0
LAYER
  2
0
 70
     0
 62
     7
  6
CONTINUOUS
  0
LAYER
  2
LAYER0014
 70
     0
 62
     7
  6
CONTINUOUS
  0
LAYER
  2
ZUWAKU
 70
     0
 62
     7
  6
CONTINUOUS
  0
ENDTAB
  0
TABLE
  2
STYLE
 70
     5
  0
STYLE
  2
STANDARD
 70
     0
 40
0.0
 41
1.0
 50
0.0
 71
     0
 42
0.2
  3
txt
  4

  0
STYLE
  2
FDASTYLE1
 70
     0
 40
4.0
 41
0.7804878048780496
 50
0.0
 71
     0
 42
0.2
  3
txt.shx
  4
bigfont
  0
STYLE
  2
FDASTYLE0
 70
     4
 40
2.6656
 41
0.8
 50
0.0
 71
     0
 42
0.2
  3
txt.shx
  4
bigfont
  0
STYLE
  2
FDASTYLE2
 70
     0
 40
7.0
 41
0.8123476848090983
 50
0.0
 71
     0
 42
0.2
  3
MSMINCHO.TTC
  4

  0
STYLE
  2
FDASTYLE3
 70
     0
 40
8.0
 41
0.77
 50
0.0
 71
     0
 42
0.2
  3
MSGOTHIC.TTC
  4

  0
ENDTAB
  0
TABLE
  2
VIEW
 70
     0
  0
ENDTAB
  0
TABLE
  2
UCS
 70
     0
  0
ENDTAB
  0
TABLE
  2
APPID
 70
     2
  0
APPID
  2
ACAD
 70
     0
  0
APPID
  2
DAFUSIONOUT
 70
     0
  0
ENDTAB
  0
TABLE
  2
DIMSTYLE
 70
     1
  0
DIMSTYLE
  2
STANDARD
 70
     0
  3

  4

  5

  6

  7

 40
1.0
 41
0.18
 42
0.0625
 43
0.38
 44
0.18
 45
0.0
 46
0.0
 47
0.0
 48
0.0
140
0.18
141
0.09
142
0.0
143
25.4
144
1.0
145
0.0
146
1.0
147
0.09
 71
     0
 72
     0
 73
     1
 74
     1
 75
     0
 76
     0
 77
     0
 78
     0
170
     0
171
     2
172
     0
173
     0
174
     0
175
     0
176
     0
177
     0
178
     0
  0
ENDTAB
  0
ENDSEC
  0
SECTION
  2
BLOCKS
  0
BLOCK
  8
0
  2
$MODEL_SPACE
 70
     0
 10
0.0
 20
0.0
 30
0.0
  3
$MODEL_SPACE
  1

  0
ENDBLK
  5
21
  8
0
  0
BLOCK
 67
     1
  8
0
  2
$PAPER_SPACE
 70
     0
 10
0.0
 20
0.0
 30
0.0
  3
$PAPER_SPACE
  1

  0
ENDBLK
  5
1D
 67
     1
  8
0
  0
BLOCK
  8
0
  2
DA_IMAGEDIMGROUP_1
 70
     0
 10
0.0
 20
0.0
 30
0.0
  3
DA_IMAGEDIMGROUP_1
  1

  0
LINE
  5
C4
  8
LAYER0014
  6
CONTINUOUS
 62
     7
 10
-182.1975641553803
 20
-6.509974016210521
 30
0.0
 11
-203.1962451856538
 21
-6.509974016210521
 31
0.0
  0
LINE
  5
C5
  8
LAYER0014
  6
CONTINUOUS
 62
     7
 10
-182.1975641553803
 20
65.49002336118511
 30
0.0
 11
-203.1962451856538
 21
65.49002336118511
 31
0.0
  0
LINE
  5
C6
  8
LAYER0014
  6
CONTINUOUS
 62
     7
 10
-200.9102497022553
 20
-6.509974016210521
 30
0.0
 11
-200.9102497022553
 21
65.49002336118511
 31
0.0
  0
INSERT
  5
CD
  8
LAYER0014
 62
     7
  2
_OPEN30
 10
-200.9102497022553
 20
-6.509974016210521
 30
0.0
 41
1.999998407630662
 42
2.000005728319971
 50
270.0
  0
INSERT
  5
CE
  8
LAYER0014
 62
     7
  2
_OPEN30
 10
-200.9102497022553
 20
65.49002336118511
 30
0.0
 41
1.999998407630662
 42
2.000005728319971
 50
90.0
  0
TEXT
  5
D0
  8
LAYER0014
 62
     7
 10
-201.9102497022553
 20
16.69002467248728
 30
0.0
 40
4.0
  1
M72×P1.5
 50
90.0
 41
0.7804878048780496
  7
FDASTYLE1
 72
     5
 11
-201.9102497022553
 21
42.29002467248731
 31
0.0
  0
ENDBLK
  5
4E
  8
0
  0
BLOCK
  8
0
  2
DA_IMAGEDIMGROUP_2
 70
     0
 10
0.0
 20
0.0
 30
0.0
  3
DA_IMAGEDIMGROUP_2
  1

  0
LINE
  5
D1
  8
LAYER0014
  6
CONTINUOUS
 62
     7
 10
-181.1975641553803
 20
67.99002336118511
 30
0.0
 11
-214.9149951856538
 21
67.99002336118511
 31
0.0
  0
LINE
  5
D2
  8
LAYER0014
  6
CONTINUOUS
 62
     7
 10
-181.1975641553803
 20
-9.009974090716327
 30
0.0
 11
-214.9149951856538
 21
-9.009974090716327
 31
0.0
  0
LINE
  5
D3
  8
LAYER0014
  6
CONTINUOUS
 62
     7
 10
-212.6289997022553
 20
67.99002336118511
 30
0.0
 11
-212.6289997022553
 21
-9.009974090716327
 31
0.0
  0
INSERT
  5
D4
  8
LAYER0014
 62
     7
  2
_OPEN30
 10
-212.6289997022553
 20
67.99002336118511
 30
0.0
 41
1.999998407630662
 42
2.000005728319971
 50
90.0
  0
INSERT
  5
D5
  8
LAYER0014
 62
     7
  2
_OPEN30
 10
-212.6289997022553
 20
-9.009974090716327
 30
0.0
 41
1.999998407630662
 42
2.000005728319971
 50
270.0
  0
TEXT
  5
D6
  8
LAYER0014
 62
     7
 10
-213.6373772784116
 20
24.6900319460506
 30
0.0
 40
4.0
  1
φ77
 50
89.90000000000001
 41
0.7500000000000018
  7
FDASTYLE1
 72
     5
 11
-213.620622126099
 21
34.29001732441819
 31
0.0
  0
ENDBLK
  5
51
  8
0
  0
BLOCK
  8
0
  2
DA_IMAGEDIMGROUP_3
 70
     0
 10
0.0
 20
0.0
 30
0.0
  3
DA_IMAGEDIMGROUP_3
  1

  0
LINE
  5
D7
  8
LAYER0014
  6
CONTINUOUS
 62
     7
 10
-155.2656793897553
 20
78.49002336118511
 30
0.0
 11
-227.3439655225678
 21
78.49002336118511
 31
0.0
  0
LINE
  5
D8
  8
LAYER0014
  6
CONTINUOUS
 62
     7
 10
-155.2656793897553
 20
-19.50997377779194
 30
0.0
 11
-227.3439655225678
 21
-19.50997377779194
 31
0.0
  0
LINE
  5
D9
  8
LAYER0014
  6
CONTINUOUS
 62
     7
 10
-225.0579700391694
 20
78.49002336118511
 30
0.0
 11
-225.0579700391694
 21
-19.50997377779194
 31
0.0
  0
INSERT
  5
DA
  8
LAYER0014
 62
     7
  2
_OPEN30
 10
-225.0579700391694
 20
78.49002336118511
 30
0.0
 41
1.999998407630662
 42
2.000005728319971
 50
90.0
  0
INSERT
  5
DB
  8
LAYER0014
 62
     7
  2
_OPEN30
 10
-225.0579700391694
 20
-19.50997377779194
 30
0.0
 41
1.999998407630662
 42
2.000005728319971
 50
270.0
  0
TEXT
  5
DC
  8
LAYER0014
 62
     7
 10
-226.0663476153257
 20
24.6900321025128
 30
0.0
 40
4.0
  1
φ98
 50
89.90000000000001
 41
0.7500000000000018
  7
FDASTYLE1
 72
     5
 11
-226.0495924630131
 21
34.29001748088038
 31
0.0
  0
ENDBLK
  5
54
  8
0
  0
BLOCK
  8
0
  2
DA_IMAGEDIMGROUP_4
 70
     0
 10
0.0
 20
0.0
 30
0.0
  3
DA_IMAGEDIMGROUP_4
  1

  0
LINE
  5
DD
  8
LAYER0014
  6
CONTINUOUS
 62
     7
 10
-159.4656763379975
 20
136.9900233611851
 30
0.0
 11
-251.4916858594819
 21
136.9900233611851
 31
0.0
  0
LINE
  5
DE
  8
LAYER0014
  6
CONTINUOUS
 62
     7
 10
-159.4656763379975
 20
-78.00997663881489
 30
0.0
 11
-251.4916858594819
 21
-78.00997663881489
 31
0.0
  0
LINE
  5
DF
  8
LAYER0014
  6
CONTINUOUS
 62
     7
 10
-249.2056903760835
 20
136.9900233611851
 30
0.0
 11
-249.2056903760835
 21
-78.00997663881489
 31
0.0
  0
INSERT
  5
E0
  8
LAYER0014
 62
     7
  2
_OPEN30
 10
-249.2056903760835
 20
136.9900233611851
 30
0.0
 41
1.999998407630662
 42
2.000005728319971
 50
90.0
  0
INSERT
  5
E1
  8
LAYER0014
 62
     7
  2
_OPEN30
 10
-249.2056903760835
 20
-78.00997663881489
 30
0.0
 41
1.999998407630662
 42
2.000005728319971
 50
270.0
  0
TEXT
  5
E2
  8
LAYER0014
 62
     7
 10
-250.2168604776252
 20
23.09003310894009
 30
0.0
 40
4.0
  1
φ215
 50
89.90000000000001
 41
0.7619047619047609
  7
FDASTYLE1
 72
     5
 11
-250.1945202745417
 21
35.89001361343016
 31
0.0
  0
ENDBLK
  5
57
  8
0
  0
BLOCK
  8
0
  2
DA_IMAGEDIMGROUP_5
 70
     0
 10
0.0
 20
0.0
 30
0.0
  3
DA_IMAGEDIMGROUP_5
  1

  0
LINE
  5
E3
  8
LAYER0014
  6
CONTINUOUS
 62
     7
 10
-80.17516704991786
 20
62.49002336118511
 30
0.0
 11
-50.4850711744233
 21
62.49002336118511
 31
0.0
  0
LINE
  5
E4
  8
LAYER0014
  6
CONTINUOUS
 62
     7
 10
-79.98011358942956
 20
-3.5099742546291
 30
0.0
 11
-50.4850711744233
 21
-3.5099742546291
 31
0.0
  0
LINE
  5
E5
  8
LAYER0014
  6
CONTINUOUS
 62
     7
 10
-52.771070472519
 20
62.49002336118511
 30
0.0
 11
-52.771070472519
 21
-3.5099742546291
 31
0.0
  0
INSERT
  5
E6
  8
LAYER0014
 62
     7
  2
_OPEN30
 10
-52.771070472519
 20
62.49002336118511
 30
0.0
 41
1.999998407630662
 42
2.000005728319971
 50
90.0
  0
INSERT
  5
E7
  8
LAYER0014
 62
     7
  2
_OPEN30
 10
-52.771070472519
 20
-3.5099742546291
 30
0.0
 41
1.999998407630662
 42
2.000005728319971
 50
270.0
  0
TEXT
  5
E8
  8
LAYER0014
 62
     7
 10
-54.38503066259067
 20
21.49283183827787
 30
0.0
 40
4.0
  1
φ66
 50
89.90000000000001
 41
0.7499999999999992
  7
FDASTYLE1
 72
     5
 11
-54.36827551027805
 21
31.09281721664543
 31
0.0
  0
TEXT
  5
E9
  8
LAYER0014
 62
     7
 10
-56.56652683112138
 20
32.09665541596369
 30
0.0
 40
2.2
  1
+0.3
 50
89.90000000000001
 41
0.7999999999999998
  7
FDASTYLE1
 72
     5
 11
-56.55423971942545
 21
39.13664469343323
 31
0.0
  0
TEXT
  5
EA
  8
LAYER0014
 62
     7
 10
-54.16653048652949
 20
32.09246662788554
 30
0.0
 40
2.2
  1
　0
 50
89.90000000000001
 41
0.7272727272727286
  7
FDASTYLE1
 72
     5
 11
-54.16038693068153
 21
35.61246126662032
 31
0.0
  0
ENDBLK
  5
5A
  8
0
  0
BLOCK
  8
0
  2
DA_IMAGEDIMGROUP_6
 70
     0
 10
0.0
 20
0.0
 30
0.0
  3
DA_IMAGEDIMGROUP_6
  1

  0
LINE
  5
EB
  8
LAYER0014
  6
CONTINUOUS
 62
     7
 10
-64.08049292735299
 20
-15.5099742546291
 30
0.0
 11
-38.41121100596627
 21
-15.5099742546291
 31
0.0
  0
LINE
  5
EC
  8
LAYER0014
  6
CONTINUOUS
 62
     7
 10
-40.69721030406197
 20
-15.5099742546291
 30
0.0
 11
-40.69721030406197
 21
44.05824922178081
 31
0.0
  0
INSERT
  5
ED
  8
LAYER0014
 62
     7
  2
_OPEN30
 10
-40.69721030406197
 20
-15.5099742546291
 30
0.0
 41
1.999998407630662
 42
2.000005728319971
 50
270.0
  0
TEXT
  5
EE
  8
LAYER0014
 62
     7
 10
-41.69721030406197
 20
22.19453046694545
 30
0.0
 40
4.0
  1
PCD90
 50
90.0
 41
0.8
  7
FDASTYLE1
 72
     5
 11
-41.69721030406197
 21
38.19453046694545
 31
0.0
  0
ENDBLK
  5
5D
  8
0
  0
BLOCK
  8
0
  2
DA_IMAGEDIMGROUP_7
 70
     0
 10
0.0
 20
0.0
 30
0.0
  3
DA_IMAGEDIMGROUP_7
  1

  0
LINE
  5
EF
  8
LAYER0014
  6
CONTINUOUS
 62
     7
 10
-69.38566870860298
 20
-23.50997377779194
 30
0.0
 11
-30.9316100995942
 21
-23.50997377779194
 31
0.0
  0
LINE
  5
F0
  8
LAYER0014
  6
CONTINUOUS
 62
     7
 10
-31.9316100995942
 20
-23.50997377779194
 30
0.0
 11
-31.9316100995942
 21
44.28127549741558
 31
0.0
  0
INSERT
  5
F1
  8
LAYER0014
 62
     7
  2
_OPEN30
 10
-31.9316100995942
 20
-23.50997377779194
 30
0.0
 41
1.999998407630662
 42
2.000005728319971
 50
270.0
  0
TEXT
  5
F2
  8
LAYER0014
 62
     7
 10
-32.9316100995942
 20
23.20937008548053
 30
0.0
 40
4.0
  1
φ106
 50
90.0
 41
0.7619047619047619
  7
FDASTYLE1
 72
     5
 11
-32.9316100995942
 21
36.00937008548053
 31
0.0
  0
ENDBLK
  5
60
  8
0
  0
BLOCK
  8
0
  2
DA_IMAGEDIMGROUP_8
 70
     0
 10
0.0
 20
0.0
 30
0.0
  3
DA_IMAGEDIMGROUP_8
  1

  0
LINE
  5
F3
  8
LAYER0014
  6
CONTINUOUS
 62
     7
 10
-27.20551009349068
 20
29.49002717588238
 30
0.0
 11
-14.61859988383492
 21
29.49002717588238
 31
0.0
  0
LINE
  5
F4
  8
LAYER0014
  6
CONTINUOUS
 62
     7
 10
-67.38566870860298
 20
75.49002336118511
 30
0.0
 11
-14.61859988383492
 21
75.49002336118511
 31
0.0
  0
LINE
  5
F5
  8
LAYER0014
  6
CONTINUOUS
 62
     7
 10
-16.90459918193062
 20
29.49002717588238
 30
0.0
 11
-16.90459918193062
 21
75.49002336118511
 31
0.0
  0
INSERT
  5
F6
  8
LAYER0014
 62
     7
  2
_OPEN30
 10
-16.90459918193062
 20
29.49002717588238
 30
0.0
 41
1.999998407630662
 42
2.000005728319971
 50
270.0
  0
INSERT
  5
F7
  8
LAYER0014
 62
     7
  2
_OPEN30
 10
-16.90459918193062
 20
75.49002336118511
 30
0.0
 41
1.999998407630662
 42
2.000005728319971
 50
90.0
  0
TEXT
  5
F8
  8
LAYER0014
 62
     7
 10
-17.92973191039955
 20
38.0900472009824
 30
0.0
 40
4.0
  1
MAX 47.45
 50
89.90000000000001
 41
0.8000000000000002
  7
FDASTYLE1
 72
     5
 11
-17.87946645346169
 21
66.89000333608509
 31
0.0
  0
ENDBLK
  5
63
  8
0
  0
BLOCK
  8
0
  2
DA_IMAGEDIMGROUP_9
 70
     0
 10
0.0
 20
0.0
 30
0.0
  3
DA_IMAGEDIMGROUP_9
  1

  0
LINE
  5
F9
  8
LAYER0014
  6
CONTINUOUS
 62
     7
 10
-67.38566870860298
 20
75.49002336118511
 30
0.0
 11
-14.61859988383492
 21
75.49002336118511
 31
0.0
  0
LINE
  5
FA
  8
LAYER0014
  6
CONTINUOUS
 62
     7
 10
-67.38566870860298
 20
136.9900233611851
 30
0.0
 11
-14.61859988383492
 21
136.9900233611851
 31
0.0
  0
LINE
  5
FB
  8
LAYER0014
  6
CONTINUOUS
 62
     7
 10
-16.90459918193062
 20
75.49002336118511
 30
0.0
 11
-16.90459918193062
 21
136.9900233611851
 31
0.0
  0
INSERT
  5
FC
  8
LAYER0014
 62
     7
  2
_OPEN30
 10
-16.90459918193062
 20
75.49002336118511
 30
0.0
 41
1.999998407630662
 42
2.000005728319971
 50
270.0
  0
INSERT
  5
FD
  8
LAYER0014
 62
     7
  2
_OPEN30
 10
-16.90459918193062
 20
136.9900233611851
 30
0.0
 41
1.999998407630662
 42
2.000005728319971
 50
90.0
  0
TEXT
  5
FE
  8
LAYER0014
 62
     7
 10
-17.91576928347237
 20
99.84003310894006
 30
0.0
 40
4.0
  1
61.5
 50
89.90000000000001
 41
0.8000000000000007
  7
FDASTYLE1
 72
     5
 11
-17.89342908038887
 21
112.6400136134302
 31
0.0
  0
ENDBLK
  5
66
  8
0
  0
BLOCK
  8
0
  2
DA_IMAGEDIMGROUP_10
 70
     0
 10
0.0
 20
0.0
 30
0.0
  3
DA_IMAGEDIMGROUP_10
  1

  0
LINE
  5
FF
  8
LAYER0014
  6
CONTINUOUS
 62
     7
 10
-179.6575641553803
 20
6.928354965189016
 30
0.0
 11
-163.6575641553803
 21
6.928354965189016
 31
0.0
  0
INSERT
  5
100
  8
LAYER0014
 62
     7
  2
_OPEN30
 10
-179.6575641553803
 20
6.928354965189016
 30
0.0
 41
1.999998407630662
 42
2.000005728319971
 50
180.0
  0
INSERT
  5
101
  8
LAYER0014
 62
     7
  2
_OPEN30
 10
-163.6575641553803
 20
6.928354965189016
 30
0.0
 41
1.999998407630662
 42
2.000005728319971
 50
360.0
  0
TEXT
  5
102
  8
LAYER0014
 62
     7
 10
-174.8575641553803
 20
7.928354965189016
 30
0.0
 40
4.0
  1
16
 41
0.7999999999999972
  7
FDASTYLE1
 72
     5
 11
-168.4575641553803
 21
7.928354965189016
 31
0.0
  0
ENDBLK
  5
69
  8
0
  0
BLOCK
  8
0
  2
DA_IMAGEDIMGROUP_11
 70
     0
 10
0.0
 20
0.0
 30
0.0
  3
DA_IMAGEDIMGROUP_11
  1

  0
LINE
  5
103
  8
LAYER0014
  6
CONTINUOUS
 62
     7
 10
-163.6575641553803
 20
6.928354965189016
 30
0.0
 11
-159.6575641553803
 21
6.928354965189016
 31
0.0
  0
TEXT
  5
104
  8
LAYER0014
 62
     7
 10
-163.2575641553803
 20
7.928354965189016
 30
0.0
 40
4.0
  1
4
 41
0.7999999999999972
  7
FDASTYLE1
 72
     5
 11
-160.0575641553803
 21
7.928354965189016
 31
0.0
  0
ENDBLK
  5
6C
  8
0
  0
BLOCK
  8
0
  2
DA_IMAGEDIMGROUP_12
 70
     0
 10
0.0
 20
0.0
 30
0.0
  3
DA_IMAGEDIMGROUP_12
  1

  0
LINE
  5
105
  8
LAYER0014
  6
CONTINUOUS
 62
     7
 10
-129.6575565259858
 20
6.928354965189016
 30
0.0
 11
-81.1575565259858
 21
6.928354965189016
 31
0.0
  0
INSERT
  5
106
  8
LAYER0014
 62
     7
  2
_OPEN30
 10
-129.6575565259858
 20
6.928354965189016
 30
0.0
 41
1.999998407630662
 42
2.000005728319971
 50
180.0
  0
INSERT
  5
107
  8
LAYER0014
 62
     7
  2
_OPEN30
 10
-81.1575565259858
 20
6.928354965189016
 30
0.0
 41
1.999998407630662
 42
2.000005728319971
 50
360.0
  0
TEXT
  5
108
  8
LAYER0014
 62
     7
 10
-111.8075565259858
 20
7.928354965189016
 30
0.0
 40
4.0
  1
48.5
 41
0.8000000000000007
  7
FDASTYLE1
 72
     5
 11
-99.00755652598579
 21
7.928354965189016
 31
0.0
  0
ENDBLK
  5
6F
  8
0
  0
BLOCK
  8
0
  2
DA_IMAGEDIMGROUP_13
 70
     0
 10
0.0
 20
0.0
 30
0.0
  3
DA_IMAGEDIMGROUP_13
  1

  0
LINE
  5
109
  8
LAYER0014
  6
CONTINUOUS
 62
     7
 10
-81.1575565259858
 20
6.928354965189016
 30
0.0
 11
-71.92566870860298
 21
6.928354965189016
 31
0.0
  0
LINE
  5
10A
  8
LAYER0014
  6
CONTINUOUS
 62
     7
 10
-58.39381870860299
 20
6.928354965189016
 30
0.0
 11
-71.92566870860298
 21
6.928354965189016
 31
0.0
  0
INSERT
  5
10B
  8
LAYER0014
 62
     7
  2
_OPEN30
 10
-71.92566870860298
 20
6.928354965189016
 30
0.0
 41
1.999998407630662
 42
2.000005728319971
 50
180.0
  0
LINE
  5
10C
  8
LAYER0014
  6
CONTINUOUS
 62
     7
 10
-86.1575565259858
 20
6.928354965189016
 30
0.0
 11
-81.1575565259858
 21
6.928354965189016
 31
0.0
  0
INSERT
  5
10D
  8
LAYER0014
 62
     7
  2
_OPEN30
 10
-81.1575565259858
 20
6.928354965189016
 30
0.0
 41
1.999998407630662
 42
2.000005728319971
 50
360.0
  0
TEXT
  5
10E
  8
LAYER0014
 62
     7
 10
-68.99381870860299
 20
7.928354965189016
 30
0.0
 40
4.0
  1
9.5
 41
0.8000000000000002
  7
FDASTYLE1
 72
     5
 11
-59.39381870860299
 21
7.928354965189016
 31
0.0
  0
ENDBLK
  5
72
  8
0
  0
BLOCK
  8
0
  2
DA_IMAGEDIMGROUP_14
 70
     0
 10
0.0
 20
0.0
 30
0.0
  3
DA_IMAGEDIMGROUP_14
  1

  0
LINE
  5
10F
  8
LAYER0014
  6
CONTINUOUS
 62
     7
 10
7.404890583236615
 20
29.49002717588238
 30
0.0
 11
10.85612393208305
 21
29.49002717588238
 31
0.0
  0
LINE
  5
110
  8
LAYER0014
  6
CONTINUOUS
 62
     7
 10
64.13905236073295
 20
107.9900233611851
 30
0.0
 11
6.284124382217328
 21
107.9900233611851
 31
0.0
  0
LINE
  5
111
  8
LAYER0014
  6
CONTINUOUS
 62
     7
 10
8.570124633987348
 20
29.49002717588238
 30
0.0
 11
8.570124633987348
 21
107.9900233611851
 31
0.0
  0
INSERT
  5
112
  8
LAYER0014
 62
     7
  2
_OPEN30
 10
8.570124633987348
 20
29.49002717588238
 30
0.0
 41
1.999998407630662
 42
2.000005728319971
 50
270.0
  0
INSERT
  5
113
  8
LAYER0014
 62
     7
  2
_OPEN30
 10
8.570124633987348
 20
107.9900233611851
 30
0.0
 41
1.999998407630662
 42
2.000005728319971
 50
90.0
  0
TEXT
  5
114
  8
LAYER0014
 62
     7
 10
7.5589545324456
 20
62.3400350162887
 30
0.0
 40
4.0
  1
78.5
 50
89.90000000000001
 41
0.8000000000000003
  7
FDASTYLE1
 72
     5
 11
7.581294735529097
 21
75.14001552077879
 31
0.0
  0
ENDBLK
  5
75
  8
0
  0
BLOCK
  8
0
  2
DA_IMAGEDIMGROUP_15
 70
     0
 10
0.0
 20
0.0
 30
0.0
  3
DA_IMAGEDIMGROUP_15
  1

  0
LINE
  5
115
  8
LAYER0014
  6
CONTINUOUS
 62
     7
 10
81.67905236073295
 20
125.5300233611851
 30
0.0
 11
81.67905236073295
 21
164.7421443328648
 31
0.0
  0
LINE
  5
116
  8
LAYER0014
  6
CONTINUOUS
 62
     7
 10
121.679052360733
 20
161.1283662566929
 30
0.0
 11
121.679052360733
 21
164.7421443328648
 31
0.0
  0
LINE
  5
117
  8
LAYER0014
  6
CONTINUOUS
 62
     7
 10
81.67905236073295
 20
163.7421443328648
 30
0.0
 11
121.679052360733
 21
163.7421443328648
 31
0.0
  0
INSERT
  5
118
  8
LAYER0014
 62
     7
  2
_OPEN30
 10
81.67905236073295
 20
163.7421443328648
 30
0.0
 41
1.999998407630662
 42
2.000005728319971
 50
180.0
  0
INSERT
  5
119
  8
LAYER0014
 62
     7
  2
_OPEN30
 10
121.679052360733
 20
163.7421443328648
 30
0.0
 41
1.999998407630662
 42
2.000005728319971
 50
360.0
  0
TEXT
  5
11A
  8
LAYER0014
 62
     7
 10
98.47905236073295
 20
164.7421443328648
 30
0.0
 40
4.0
  1
40
 41
0.8000000000000007
  7
FDASTYLE1
 72
     5
 11
104.879052360733
 21
164.7421443328648
 31
0.0
  0
ENDBLK
  5
78
  8
0
  0
BLOCK
  8
0
  2
DA_IMAGEDIMGROUP_16
 70
     0
 10
0.0
 20
0.0
 30
0.0
  3
DA_IMAGEDIMGROUP_16
  1

  0
LINE
  5
11B
  8
LAYER0014
  6
CONTINUOUS
 62
     7
 10
241.6821794969634
 20
29.49024842832378
 30
0.0
 11
246.2109813768462
 21
29.49024842832378
 31
0.0
  0
LINE
  5
11C
  8
LAYER0014
  6
CONTINUOUS
 62
     7
 10
217.6891670829425
 20
84.92148454496376
 30
0.0
 11
229.5268835012034
 21
91.75599424304144
 31
0.0
  0
ARC
  5
11D
  8
LAYER0014
  6
CONTINUOUS
 62
     7
 10
121.679052360733
 20
29.49002717588238
 30
0.0
 40
122.2459335327148
 50
0.0
 51
29.99999741973147
  0
INSERT
  5
11E
  8
LAYER0014
 62
     7
  2
_OPEN30
 10
243.9249858934478
 20
29.49002717588238
 30
0.0
 41
1.999998407630662
 42
2.000005728319971
 50
270.4686924651649
  0
INSERT
  5
11F
  8
LAYER0014
 62
     7
  2
_OPEN30
 10
227.5471390620306
 20
90.61298917455724
 30
0.0
 41
1.999998407630662
 42
2.000005728319971
 50
119.5313049545667
  0
TEXT
  5
120
  8
LAYER0014
 62
     7
 10
238.0488700716768
 20
72.14098456387205
 30
0.0
 40
4.0
  1
30ﾟ
 50
-72.10000000000005
 41
0.8000000000000016
  7
FDASTYLE1
 72
     5
 11
240.9994936025549
 21
63.00567828662943
 31
0.0
  0
ENDBLK
  5
7B
  8
0
  0
BLOCK
  8
0
  2
DC_GROUP_1
 70
     0
 10
0.0
 20
0.0
 30
0.0
  3
DC_GROUP_1
  1

  0
LINE
  5
121
  8
LAYER0014
  6
CONTINUOUS
 62
     7
 10
-55.86520070824633
 20
122.123962446049
 30
0.0
 11
-35.3501316852379
 21
153.7377640600284
 31
0.0
  0
INSERT
  5
122
  8
LAYER0014
 62
     7
  2
_OPEN30
 10
-55.86520070824633
 20
122.123962446049
 30
0.0
 41
1.999998407630662
 42
2.000005728319971
 50
237.0193472005038
  0
LINE
  5
123
  8
LAYER0014
  6
CONTINUOUS
 62
     7
 10
-35.35013007334908
 20
153.7377650604039
 30
0.0
 11
-22.65807913951119
 21
153.7377650604039
 31
0.0
  0
TEXT
  5
124
  8
LAYER0014
 62
     7
 10
-34.08664893321236
 20
155.3377650604039
 30
0.0
 40
4.0
  1
M10
 41
0.8000000000000002
  7
FDASTYLE1
 72
     5
 11
-24.48664893321236
 21
155.3377650604039
 31
0.0
  0
ENDBLK
  5
7E
  8
0
  0
BLOCK
  8
0
  2
DC_GROUP_2
 70
     0
 10
0.0
 20
0.0
 30
0.0
  3
DC_GROUP_2
  1

  0
LINE
  5
125
  8
LAYER0014
  6
CONTINUOUS
 62
     7
 10
-70.18456676484027
 20
132.6528673507804
 30
0.0
 11
-46.56718040901467
 21
164.3484707314564
 31
0.0
  0
INSERT
  5
126
  8
LAYER0014
 62
     7
  2
_OPEN30
 10
-70.18456676484027
 20
132.6528673507804
 30
0.0
 41
1.999998407630662
 42
2.000005728319971
 50
233.3090515519839
  0
LINE
  5
127
  8
LAYER0014
  6
CONTINUOUS
 62
     7
 10
-46.56717108897408
 20
164.3484675750523
 30
0.0
 11
1.324876316268842
 21
164.3484675750523
 31
0.0
  0
TEXT
  5
128
  8
LAYER0014
 62
     7
 10
-45.30369376353463
 20
165.9484675750523
 30
0.0
 40
4.0
  1
ｾﾚｰｼｮﾝP1.5山60ﾟ
 41
0.7887323943661972
  7
FDASTYLE1
 72
     5
 11
-0.5036937635346206
 21
165.9484675750523
 31
0.0
  0
ENDBLK
  5
81
  8
0
  0
BLOCK
  8
0
  2
DA_IMAGEDIMGROUP_17
 70
     0
 10
0.0
 20
0.0
 30
0.0
  3
DA_IMAGEDIMGROUP_17
  1

  0
LINE
  5
129
  8
LAYER0014
  6
CONTINUOUS
 62
     7
 10
-71.92566870860298
 20
139.5300233611851
 30
0.0
 11
-71.92566870860298
 21
155.3440883025914
 31
0.0
  0
LINE
  5
12A
  8
LAYER0014
  6
CONTINUOUS
 62
     7
 10
-69.92566870860298
 20
139.5300233611851
 30
0.0
 11
-69.92566870860298
 21
155.3440883025914
 31
0.0
  0
LINE
  5
12B
  8
LAYER0014
  6
CONTINUOUS
 62
     7
 10
-71.92566870860298
 20
154.3440883025914
 30
0.0
 11
-69.92566870860298
 21
154.3440883025914
 31
0.0
  0
LINE
  5
12C
  8
LAYER0014
  6
CONTINUOUS
 62
     7
 10
-111.8543125074311
 20
154.3440883025914
 30
0.0
 11
-71.92566870860298
 21
154.3440883025914
 31
0.0
  0
INSERT
  5
12D
  8
LAYER0014
 62
     7
  2
_OPEN30
 10
-71.92566870860298
 20
154.3440883025914
 30
0.0
 41
1.999998407630662
 42
2.000005728319971
 50
360.0
  0
LINE
  5
12E
  8
LAYER0014
  6
CONTINUOUS
 62
     7
 10
-64.92566870860298
 20
154.3440883025914
 30
0.0
 11
-69.92566870860298
 21
154.3440883025914
 31
0.0
  0
INSERT
  5
12F
  8
LAYER0014
 62
     7
  2
_OPEN30
 10
-69.92566870860298
 20
154.3440883025914
 30
0.0
 41
1.999998407630662
 42
2.000005728319971
 50
180.0
  0
TEXT
  5
130
  8
LAYER0014
 62
     7
 10
-110.8543125074311
 20
155.3440883025914
 30
0.0
 40
4.0
  1
2(ﾁｬｯｸ上面ﾖﾘ)
 41
0.7719298245614036
  7
FDASTYLE1
 72
     5
 11
-75.65431250743112
 21
155.3440883025914
 31
0.0
  0
ENDBLK
  5
84
  8
0
  0
BLOCK
  8
0
  2
DA_IMAGEDIMGROUP_18
 70
     0
 10
0.0
 20
0.0
 30
0.0
  3
DA_IMAGEDIMGROUP_18
  1

  0
LINE
  5
131
  8
LAYER0014
  6
CONTINUOUS
 62
     7
 10
-159.6575641553803
 20
6.976771102884328
 30
0.0
 11
-129.6575565259858
 21
6.976771102884328
 31
0.0
  0
INSERT
  5
132
  8
LAYER0014
 62
     7
  2
_OPEN30
 10
-159.6575641553803
 20
6.976771102884328
 30
0.0
 41
1.999998407630662
 42
2.000005728319971
 50
180.0
  0
INSERT
  5
133
  8
LAYER0014
 62
     7
  2
_OPEN30
 10
-129.6575565259858
 20
6.976771102884328
 30
0.0
 41
1.999998407630662
 42
2.000005728319971
 50
360.0
  0
TEXT
  5
134
  8
LAYER0014
 62
     7
 10
-147.8575554668056
 20
7.982356153655204
 30
0.0
 40
4.0
  1
30
 50
-0.1000000000000078
 41
0.7999999999999954
  7
FDASTYLE1
 72
     5
 11
-141.4575652145606
 21
7.971186052113453
 31
0.0
  0
ENDBLK
  5
87
  8
0
  0
BLOCK
  8
0
  2
DA_IMAGEDIMGROUP_19
 70
     0
 10
0.0
 20
0.0
 30
0.0
  3
DA_IMAGEDIMGROUP_19
  1

  0
LINE
  5
135
  8
LAYER0014
  6
CONTINUOUS
 62
     7
 10
-156.9256763379975
 20
-111.7931492462368
 30
0.0
 11
-152.7256793897553
 21
-111.7931492462368
 31
0.0
  0
LINE
  5
136
  8
LAYER0014
  6
CONTINUOUS
 62
     7
 10
-156.9256763379975
 20
-80.5499766388149
 30
0.0
 11
-156.9256763379975
 21
-112.7931492462368
 31
0.0
  0
LINE
  5
137
  8
LAYER0014
  6
CONTINUOUS
 62
     7
 10
-152.7256793897553
 20
-68.04997282411762
 30
0.0
 11
-152.7256793897553
 21
-112.7931492462368
 31
0.0
  0
LINE
  5
138
  8
LAYER0014
  6
CONTINUOUS
 62
     7
 10
-170.574792699599
 20
-111.7931492462368
 30
0.0
 11
-156.9256763379975
 21
-111.7931492462368
 31
0.0
  0
INSERT
  5
139
  8
LAYER0014
 62
     7
  2
_OPEN30
 10
-156.9256763379975
 20
-111.7931492462368
 30
0.0
 41
1.999998407630662
 42
2.000005728319971
 50
360.0
  0
LINE
  5
13A
  8
LAYER0014
  6
CONTINUOUS
 62
     7
 10
-147.7256793897553
 20
-111.7931492462368
 30
0.0
 11
-152.7256793897553
 21
-111.7931492462368
 31
0.0
  0
INSERT
  5
13B
  8
LAYER0014
 62
     7
  2
_OPEN30
 10
-152.7256793897553
 20
-111.7931492462368
 30
0.0
 41
1.999998407630662
 42
2.000005728319971
 50
180.0
  0
TEXT
  5
13C
  8
LAYER0014
 62
     7
 10
-169.574792699599
 20
-110.7931492462368
 30
0.0
 40
4.0
  1
4.2
 41
0.7999999999999995
  7
FDASTYLE1
 72
     5
 11
-159.974792699599
 21
-110.7931492462368
 31
0.0
  0
ENDBLK
  5
8A
  8
0
  0
BLOCK
  8
0
  2
DA_IMAGEDIMGROUP_20
 70
     0
 10
0.0
 20
0.0
 30
0.0
  3
DA_IMAGEDIMGROUP_20
  1

  0
LINE
  5
13D
  8
LAYER0014
  6
CONTINUOUS
 62
     7
 10
-152.7256793897553
 20
-111.8216297760219
 30
0.0
 11
-71.92566870860298
 21
-111.8216297760219
 31
0.0
  0
INSERT
  5
13E
  8
LAYER0014
 62
     7
  2
_OPEN30
 10
-152.7256793897553
 20
-111.8216297760219
 30
0.0
 41
1.999998407630662
 42
2.000005728319971
 50
180.0
  0
INSERT
  5
13F
  8
LAYER0014
 62
     7
  2
_OPEN30
 10
-71.92566870860298
 20
-111.8216297760219
 30
0.0
 41
1.999998407630662
 42
2.000005728319971
 50
360.0
  0
LINE
  5
140
  8
LAYER0014
  6
CONTINUOUS
 62
     7
 10
-152.7256793897553
 20
-68.04997282411762
 30
0.0
 11
-152.7256793897553
 21
-112.8216297760219
 31
0.0
  0
LINE
  5
141
  8
LAYER0014
  6
CONTINUOUS
 62
     7
 10
-71.92566870860298
 20
-78.5499766388149
 30
0.0
 11
-71.92566870860298
 21
-112.8216297760219
 31
0.0
  0
TEXT
  5
142
  8
LAYER0014
 62
     7
 10
-118.7256740491792
 20
-110.8216297760219
 30
0.0
 40
4.0
  1
80.8
 41
0.8000000000000007
  7
FDASTYLE1
 72
     5
 11
-105.9256740491792
 21
-110.8216297760219
 31
0.0
  0
ENDBLK
  5
8D
  8
0
  0
BLOCK
  8
0
  2
DA_IMAGEDIMGROUP_21
 70
     0
 10
0.0
 20
0.0
 30
0.0
  3
DA_IMAGEDIMGROUP_21
  1

  0
LINE
  5
143
  8
LAYER0014
  6
CONTINUOUS
 62
     7
 10
-159.4656763379975
 20
124.4900233611851
 30
0.0
 11
-239.4178333204194
 21
124.4900233611851
 31
0.0
  0
LINE
  5
144
  8
LAYER0014
  6
CONTINUOUS
 62
     7
 10
-159.4656763379975
 20
-65.50997282411763
 30
0.0
 11
-239.4178333204194
 21
-65.50997282411763
 31
0.0
  0
LINE
  5
145
  8
LAYER0014
  6
CONTINUOUS
 62
     7
 10
-237.131837837021
 20
124.4900233611851
 30
0.0
 11
-237.131837837021
 21
-65.50997282411763
 31
0.0
  0
INSERT
  5
146
  8
LAYER0014
 62
     7
  2
_OPEN30
 10
-237.131837837021
 20
124.4900233611851
 30
0.0
 41
1.999998407630662
 42
2.000005728319971
 50
90.0
  0
INSERT
  5
147
  8
LAYER0014
 62
     7
  2
_OPEN30
 10
-237.131837837021
 20
-65.50997282411763
 30
0.0
 41
1.999998407630662
 42
2.000005728319971
 50
270.0
  0
TEXT
  5
148
  8
LAYER0014
 62
     7
 10
-238.1485929893336
 20
19.89003989016619
 30
0.0
 40
4.0
  1
φ190H7
 50
89.90000000000001
 41
0.7741935483870963
  7
FDASTYLE1
 72
     5
 11
-238.1150826847083
 21
39.0900106469013
 31
0.0
  0
ENDBLK
  5
90
  8
0
  0
BLOCK
  8
0
  2
DA_IMAGEDIMGROUP_22
 70
     0
 10
0.0
 20
0.0
 30
0.0
  3
DA_IMAGEDIMGROUP_22
  1

  0
LINE
  5
149
  8
LAYER0014
  6
CONTINUOUS
 62
     7
 10
104.0790538866119
 20
139.5300233611851
 30
0.0
 11
104.0790538866119
 21
155.3440883025914
 31
0.0
  0
LINE
  5
14A
  8
LAYER0014
  6
CONTINUOUS
 62
     7
 10
139.2790508348541
 20
139.5300233611851
 30
0.0
 11
139.2790508348541
 21
155.3440883025914
 31
0.0
  0
LINE
  5
14B
  8
LAYER0014
  6
CONTINUOUS
 62
     7
 10
104.0790538866119
 20
154.3440883025914
 30
0.0
 11
139.2790508348541
 21
154.3440883025914
 31
0.0
  0
INSERT
  5
14C
  8
LAYER0014
 62
     7
  2
_OPEN30
 10
104.0790538866119
 20
154.3440883025914
 30
0.0
 41
1.999998407630662
 42
2.000005728319971
 50
180.0
  0
INSERT
  5
14D
  8
LAYER0014
 62
     7
  2
_OPEN30
 10
139.2790508348541
 20
154.3440883025914
 30
0.0
 41
1.999998407630662
 42
2.000005728319971
 50
360.0
  0
TEXT
  5
14E
  8
LAYER0014
 62
     7
 10
118.479052360733
 20
155.3440883025914
 30
0.0
 40
4.0
  1
35
 41
0.8000000000000007
  7
FDASTYLE1
 72
     5
 11
124.879052360733
 21
155.3440883025914
 31
0.0
  0
ENDBLK
  5
93
  8
0
  0
BLOCK
  8
0
  2
DA_IMAGEDIMGROUP_23
 70
     0
 10
0.0
 20
0.0
 30
0.0
  3
DA_IMAGEDIMGROUP_23
  1

  0
LINE
  5
14F
  8
LAYER0014
  6
CONTINUOUS
 62
     7
 10
114.679052360733
 20
139.5300233611851
 30
0.0
 11
114.679052360733
 21
147.6262690887242
 31
0.0
  0
LINE
  5
150
  8
LAYER0014
  6
CONTINUOUS
 62
     7
 10
128.6790447313384
 20
139.5300233611851
 30
0.0
 11
128.6790447313384
 21
147.6262690887242
 31
0.0
  0
LINE
  5
151
  8
LAYER0014
  6
CONTINUOUS
 62
     7
 10
114.679052360733
 20
145.3402736053257
 30
0.0
 11
128.6790447313384
 21
145.3402736053257
 31
0.0
  0
INSERT
  5
152
  8
LAYER0014
 62
     7
  2
_OPEN30
 10
114.679052360733
 20
145.3402736053257
 30
0.0
 41
1.999998407630662
 42
2.000005728319971
 50
180.0
  0
INSERT
  5
153
  8
LAYER0014
 62
     7
  2
_OPEN30
 10
128.6790447313384
 20
145.3402736053257
 30
0.0
 41
1.999998407630662
 42
2.000005728319971
 50
360.0
  0
TEXT
  5
154
  8
LAYER0014
 62
     7
 10
118.4790485460357
 20
146.3402736053257
 30
0.0
 40
4.0
  1
14
 41
0.8000000000000007
  7
FDASTYLE1
 72
     5
 11
124.8790485460357
 21
146.3402736053257
 31
0.0
  0
ENDBLK
  5
96
  8
0
  0
BLOCK
  8
0
  2
DA_IMAGEDIMGROUP_24
 70
     0
 10
0.0
 20
0.0
 30
0.0
  3
DA_IMAGEDIMGROUP_24
  1

  0
LINE
  5
155
  8
LAYER0014
  6
CONTINUOUS
 62
     7
 10
-160.9256763379975
 20
80.03002336118512
 30
0.0
 11
-160.9256763379975
 21
155.3440883025914
 31
0.0
  0
LINE
  5
156
  8
LAYER0014
  6
CONTINUOUS
 62
     7
 10
-152.7256793897553
 20
127.0300233611851
 30
0.0
 11
-152.7256793897553
 21
155.3440883025914
 31
0.0
  0
LINE
  5
157
  8
LAYER0014
  6
CONTINUOUS
 62
     7
 10
-160.9256763379975
 20
154.3440883025914
 30
0.0
 11
-152.7256793897553
 21
154.3440883025914
 31
0.0
  0
LINE
  5
158
  8
LAYER0014
  6
CONTINUOUS
 62
     7
 10
-147.7256793897553
 20
154.3440883025914
 30
0.0
 11
-152.7256793897553
 21
154.3440883025914
 31
0.0
  0
LINE
  5
159
  8
LAYER0014
  6
CONTINUOUS
 62
     7
 10
-174.985284497771
 20
154.3440883025914
 30
0.0
 11
-160.9256763379975
 21
154.3440883025914
 31
0.0
  0
INSERT
  5
15A
  8
LAYER0014
 62
     7
  2
_OPEN30
 10
-160.9256763379975
 20
154.3440883025914
 30
0.0
 41
1.999998407630662
 42
2.000005728319971
 50
360.0
  0
TEXT
  5
15B
  8
LAYER0014
 62
     7
 10
-173.985284497771
 20
155.3440883025914
 30
0.0
 40
4.0
  1
8.2
 41
0.7999999999999995
  7
FDASTYLE1
 72
     5
 11
-164.385284497771
 21
155.3440883025914
 31
0.0
  0
ENDBLK
  5
99
  8
0
  0
BLOCK
  8
0
  2
DA_IMAGEDIMGROUP_25
 70
     0
 10
0.0
 20
0.0
 30
0.0
  3
DA_IMAGEDIMGROUP_25
  1

  0
LINE
  5
15C
  8
LAYER0014
  6
CONTINUOUS
 62
     7
 10
-151.6575641553803
 20
65.4500233611851
 30
0.0
 11
-151.6575641553803
 21
47.09704469297222
 31
0.0
  0
LINE
  5
15D
  8
LAYER0014
  6
CONTINUOUS
 62
     7
 10
-151.6575641553803
 20
49.38304399106792
 30
0.0
 11
-179.6575641553803
 21
49.38304399106792
 31
0.0
  0
INSERT
  5
15E
  8
LAYER0014
 62
     7
  2
_OPEN30
 10
-151.6575641553803
 20
49.38304399106792
 30
0.0
 41
1.999998407630662
 42
2.000005728319971
 50
360.0
  0
INSERT
  5
15F
  8
LAYER0014
 62
     7
  2
_OPEN30
 10
-179.6575641553803
 20
49.38304399106792
 30
0.0
 41
1.999998407630662
 42
2.000005728319971
 50
180.0
  0
TEXT
  5
160
  8
LAYER0014
 62
     7
 10
-170.8280717946724
 20
50.38304399106792
 30
0.0
 40
4.0
  1
28
 41
0.7999999999999972
  7
FDASTYLE1
 72
     5
 11
-164.4280717946724
 21
50.38304399106792
 31
0.0
  0
ENDBLK
  5
9C
  8
0
  0
BLOCK
  8
0
  2
DA_IMAGEDIMGROUP_26
 70
     0
 10
0.0
 20
0.0
 30
0.0
  3
DA_IMAGEDIMGROUP_26
  1

  0
LINE
  5
161
  8
LAYER0014
  6
CONTINUOUS
 62
     7
 10
-172.4656763379975
 20
-31.18497778322407
 30
0.0
 11
-203.36134528331
 21
-31.18497778322407
 31
0.0
  0
LINE
  5
162
  8
LAYER0014
  6
CONTINUOUS
 62
     7
 10
-172.4656763379975
 20
-43.18497587587544
 30
0.0
 11
-203.36134528331
 21
-43.18497587587544
 31
0.0
  0
LINE
  5
163
  8
LAYER0014
  6
CONTINUOUS
 62
     7
 10
-201.0753497999116
 20
-31.18497778322407
 30
0.0
 11
-201.0753497999116
 21
-43.18497587587544
 31
0.0
  0
INSERT
  5
164
  8
LAYER0014
 62
     7
  2
_OPEN30
 10
-201.0753497999116
 20
-31.18497778322407
 30
0.0
 41
1.999998407630662
 42
2.000005728319971
 50
90.0
  0
INSERT
  5
165
  8
LAYER0014
 62
     7
  2
_OPEN30
 10
-201.0753497999116
 20
-43.18497587587544
 30
0.0
 41
1.999998407630662
 42
2.000005728319971
 50
270.0
  0
TEXT
  5
166
  8
LAYER0014
 62
     7
 10
-202.0837273760679
 20
-41.98496951873354
 30
0.0
 40
4.0
  1
M12
 50
89.90000000000001
 41
0.8000000000000019
  7
FDASTYLE1
 72
     5
 11
-202.0669722237553
 21
-32.38498414036596
 31
0.0
  0
ENDBLK
  5
9F
  8
0
  0
BLOCK
  8
0
  2
DA_IMAGEDIMGROUP_27
 70
     0
 10
0.0
 20
0.0
 30
0.0
  3
DA_IMAGEDIMGROUP_27
  1

  0
LINE
  5
167
  8
LAYER0014
  6
CONTINUOUS
 62
     7
 10
-169.9256763379975
 20
-45.72497587587544
 30
0.0
 11
-169.9256763379975
 21
-58.25393797304341
 31
0.0
  0
LINE
  5
168
  8
LAYER0014
  6
CONTINUOUS
 62
     7
 10
-169.9256763379975
 20
-55.9679386749477
 30
0.0
 11
-152.7256793897553
 21
-55.9679386749477
 31
0.0
  0
INSERT
  5
169
  8
LAYER0014
 62
     7
  2
_OPEN30
 10
-169.9256763379975
 20
-55.9679386749477
 30
0.0
 41
1.999998407630662
 42
2.000005728319971
 50
180.0
  0
INSERT
  5
16A
  8
LAYER0014
 62
     7
  2
_OPEN30
 10
-152.7256793897553
 20
-55.9679386749477
 30
0.0
 41
1.999998407630662
 42
2.000005728319971
 50
360.0
  0
TEXT
  5
16B
  8
LAYER0014
 62
     7
 10
-167.7256681161215
 20
-54.95676857340595
 30
0.0
 40
4.0
  1
17.2
 50
-0.1000000000000078
 41
0.8000000000000025
  7
FDASTYLE1
 72
     5
 11
-154.9256876116314
 21
-54.97910877648945
 31
0.0
  0
ENDBLK
  5
A2
  8
0
  0
BLOCK
  8
0
  2
DC_GROUP_3
 70
     0
 10
0.0
 20
0.0
 30
0.0
  3
DC_GROUP_3
  1

  0
LINE
  5
16C
  8
LAYER0014
  6
CONTINUOUS
 62
     7
 10
99.24954316183391
 20
-44.08696544409256
 30
0.0
 11
72.58287941485844
 21
-90.22029925275987
 31
0.0
  0
INSERT
  5
16D
  8
LAYER0014
 62
     7
  2
_OPEN30
 10
99.24954316183391
 20
-44.08696544409256
 30
0.0
 41
1.999998407630662
 42
2.000005728319971
 50
59.97060121225804
  0
LINE
  5
16E
  8
LAYER0014
  6
CONTINUOUS
 62
     7
 10
72.58288384266655
 20
-90.22029615785786
 30
0.0
 11
40.88764000721733
 21
-90.22029615785786
 31
0.0
  0
TEXT
  5
16F
  8
LAYER0014
 62
     7
 10
42.71621056385796
 20
-88.62029615785787
 30
0.0
 40
4.0
  1
PCD133.35
 41
0.7999999999999999
  7
FDASTYLE1
 72
     5
 11
71.51621056385795
 21
-88.62029615785787
 31
0.0
  0
ENDBLK
  5
A5
  8
0
  0
BLOCK
  8
0
  2
DC_GROUP_4
 70
     0
 10
0.0
 20
0.0
 30
0.0
  3
DC_GROUP_4
  1

  0
LINE
  5
170
  8
LAYER0014
  6
CONTINUOUS
 62
     7
 10
122.7162226298516
 20
-18.22029690322196
 30
0.0
 11
164.8495568339882
 21
-89.95363940812931
 31
0.0
  0
INSERT
  5
171
  8
LAYER0014
 62
     7
  2
_OPEN30
 10
122.7162226298516
 20
-18.22029690322196
 30
0.0
 41
1.999998407630662
 42
2.000005728319971
 50
120.4282948645224
  0
LINE
  5
172
  8
LAYER0014
  6
CONTINUOUS
 62
     7
 10
164.8495464403228
 20
-89.95364118959614
 30
0.0
 11
199.7447795946197
 21
-89.95364118959614
 31
0.0
  0
TEXT
  5
173
  8
LAYER0014
 62
     7
 10
165.9162120897369
 20
-88.35364118959615
 30
0.0
 40
4.0
  1
3-M5 PCD90
 41
0.8
  7
FDASTYLE1
 72
     5
 11
197.9162120897369
 21
-88.35364118959615
 31
0.0
  0
ENDBLK
  5
A8
  8
0
  0
BLOCK
  8
0
  2
DA_IMAGEDIMGROUP_28
 70
     0
 10
0.0
 20
0.0
 30
0.0
  3
DA_IMAGEDIMGROUP_28
  1

  0
LINE
  5
174
  8
LAYER0014
  6
CONTINUOUS
 62
     7
 10
-152.7256793897553
 20
127.0300233611851
 30
0.0
 11
-152.7256793897553
 21
155.3440883025914
 31
0.0
  0
LINE
  5
175
  8
LAYER0014
  6
CONTINUOUS
 62
     7
 10
-142.9256763379975
 20
80.03002336118512
 30
0.0
 11
-142.9256763379975
 21
155.3440883025914
 31
0.0
  0
LINE
  5
176
  8
LAYER0014
  6
CONTINUOUS
 62
     7
 10
-152.7256793897553
 20
154.3440883025914
 30
0.0
 11
-142.9256763379975
 21
154.3440883025914
 31
0.0
  0
INSERT
  5
17C
  8
LAYER0014
 62
     7
  2
_DOT
 10
-152.7256793897553
 20
154.3440883025914
 30
0.0
 41
2.5
 42
2.5
 50
180.0
  0
LINE
  5
17D
  8
LAYER0014
  6
CONTINUOUS
 62
     7
 10
-129.3938263379975
 20
154.3440883025914
 30
0.0
 11
-142.9256763379975
 21
154.3440883025914
 31
0.0
  0
INSERT
  5
17E
  8
LAYER0014
 62
     7
  2
_OPEN30
 10
-142.9256763379975
 20
154.3440883025914
 30
0.0
 41
1.999998407630662
 42
2.000005728319971
 50
180.0
  0
TEXT
  5
17F
  8
LAYER0014
 62
     7
 10
-139.9938263379975
 20
155.3440883025914
 30
0.0
 40
4.0
  1
9.8
 41
0.7999999999999995
  7
FDASTYLE1
 72
     5
 11
-130.3938263379975
 21
155.3440883025914
 31
0.0
  0
ENDBLK
  5
AB
  8
0
  0
BLOCK
  8
0
  2
DA_IMAGEDIMGROUP_29
 70
     0
 10
0.0
 20
0.0
 30
0.0
  3
DA_IMAGEDIMGROUP_29
  1

  0
LINE
  5
180
  8
LAYER0014
  6
CONTINUOUS
 62
     7
 10
-31.93706634579647
 20
75.49002336118511
 30
0.0
 11
-31.93706634579647
 21
86.99002336118511
 31
0.0
  0
INSERT
  5
181
  8
LAYER0014
 62
     7
  2
_OPEN30
 10
-31.93706634579647
 20
75.49002336118511
 30
0.0
 41
1.999998407630662
 42
2.000005728319971
 50
270.0
  0
INSERT
  5
182
  8
LAYER0014
 62
     7
  2
_OPEN30
 10
-31.93706634579647
 20
86.99002336118511
 30
0.0
 41
1.999998407630662
 42
2.000005728319971
 50
90.0
  0
LINE
  5
183
  8
LAYER0014
  6
CONTINUOUS
 62
     7
 10
-67.38566870860298
 20
75.49002336118511
 30
0.0
 11
-30.93706634579647
 21
75.49002336118511
 31
0.0
  0
LINE
  5
184
  8
LAYER0014
  6
CONTINUOUS
 62
     7
 10
-41.56483359507759
 20
86.99002336118511
 30
0.0
 11
-30.93706634579647
 21
86.99002336118511
 31
0.0
  0
ENDBLK
  5
AE
  8
0
  0
BLOCK
  8
0
  2
DA_IMAGEDIMGROUP_30
 70
     0
 10
0.0
 20
0.0
 30
0.0
  3
DA_IMAGEDIMGROUP_30
  1

  0
LINE
  5
185
  8
LAYER0014
  6
CONTINUOUS
 62
     7
 10
-41.56483359507759
 20
86.99002336118511
 30
0.0
 11
-30.9316100995942
 21
86.99002336118511
 31
0.0
  0
LINE
  5
186
  8
LAYER0014
  6
CONTINUOUS
 62
     7
 10
-41.38622946910103
 20
116.9900233611851
 30
0.0
 11
-30.9316100995942
 21
116.9900233611851
 31
0.0
  0
LINE
  5
187
  8
LAYER0014
  6
CONTINUOUS
 62
     7
 10
-31.9316100995942
 20
86.99002336118511
 30
0.0
 11
-31.9316100995942
 21
116.9900233611851
 31
0.0
  0
INSERT
  5
188
  8
LAYER0014
 62
     7
  2
_OPEN30
 10
-31.9316100995942
 20
86.99002336118511
 30
0.0
 41
1.999998407630662
 42
2.000005728319971
 50
270.0
  0
INSERT
  5
189
  8
LAYER0014
 62
     7
  2
_OPEN30
 10
-31.9316100995942
 20
116.9900233611851
 30
0.0
 41
1.999998407630662
 42
2.000005728319971
 50
90.0
  0
TEXT
  5
18A
  8
LAYER0014
 62
     7
 10
-33.5316100995942
 20
98.79002336118511
 30
0.0
 40
4.0
  1
30
 50
90.0
 41
0.8000000000000007
  7
FDASTYLE1
 72
     5
 11
-33.5316100995942
 21
105.1900233611851
 31
0.0
  0
ENDBLK
  5
B1
  8
0
  0
BLOCK
  8
0
  2
DA_IMAGEDIMGROUP_31
 70
     0
 10
0.0
 20
0.0
 30
0.0
  3
DA_IMAGEDIMGROUP_31
  1

  0
LINE
  5
18B
  8
LAYER0014
  6
CONTINUOUS
 62
     7
 10
241.6821794969634
 20
29.49009584043316
 30
0.0
 11
259.708234794815
 21
29.49009584043316
 31
0.0
  0
LINE
  5
18C
  8
LAYER0014
  6
CONTINUOUS
 62
     7
 10
203.0244893497386
 20
51.28648085905066
 30
0.0
 11
255.0049721452408
 21
65.21460775923683
 31
0.0
  0
ARC
  5
18D
  8
LAYER0014
  6
CONTINUOUS
 62
     7
 10
121.679052360733
 20
29.49002717588238
 30
0.0
 40
135.7431640625
 50
0.0
 51
15.00000383250761
  0
INSERT
  5
18E
  8
LAYER0014
 62
     7
  2
_OPEN30
 10
257.422216423233
 20
29.49002717588238
 30
0.0
 41
1.999998407630662
 42
2.000005728319971
 50
270.4220893798931
  0
INSERT
  5
18F
  8
LAYER0014
 62
     7
  2
_OPEN30
 10
252.7968779208591
 20
64.62295204818867
 30
0.0
 41
1.999998407630662
 42
2.000005728319971
 50
104.577914452615
  0
TEXT
  5
190
  8
LAYER0014
 62
     7
 10
257.2206941902006
 20
52.17584869903462
 30
0.0
 40
4.0
  1
15ﾟ
 50
-82.49999999999997
 41
0.800000000000002
  7
FDASTYLE1
 72
     5
 11
258.4737456355131
 21
42.65797802984602
 31
0.0
  0
ENDBLK
  5
B4
  8
0
  0
BLOCK
  8
0
  2
DA_IMAGEDIMGROUP_32
 70
     0
 10
0.0
 20
0.0
 30
0.0
  3
DA_IMAGEDIMGROUP_32
  1

  0
LINE
  5
191
  8
LAYER0014
  6
CONTINUOUS
 62
     7
 10
203.0244743640513
 20
51.28647783096456
 30
0.0
 11
254.533328435169
 21
65.08823220881683
 31
0.0
  0
LINE
  5
192
  8
LAYER0014
  6
CONTINUOUS
 62
     7
 10
181.2280830461795
 20
89.03903885206498
 30
0.0
 11
218.9351564755876
 21
126.74612181688
 31
0.0
  0
ARC
  5
193
  8
LAYER0014
  6
CONTINUOUS
 62
     7
 10
121.6790447313384
 20
29.49002717588238
 30
0.0
 40
135.2548828125
 50
15.00000383250761
 51
44.9999978371445
  0
INSERT
  5
194
  8
LAYER0014
 62
     7
  2
_OPEN30
 10
252.3252268300502
 20
64.49657552977402
 30
0.0
 41
1.999998407630662
 42
2.000005728319971
 50
285.4236169897733
  0
INSERT
  5
195
  8
LAYER0014
 62
     7
  2
_OPEN30
 10
217.3186931669451
 20
125.1296683908967
 30
0.0
 41
1.999998407630662
 42
2.000005728319971
 50
134.5763846798785
  0
TEXT
  5
196
  8
LAYER0014
 62
     7
 10
237.798840650831
 20
102.0743867056004
 30
0.0
 40
4.0
  1
30ﾟ
 50
-59.99999999999999
 41
0.8000000000000013
  7
FDASTYLE1
 72
     5
 11
242.598840650831
 21
93.7605428292698
 31
0.0
  0
ENDBLK
  5
B7
  8
0
  0
BLOCK
  8
0
  2
DA_IMAGEDIMGROUP_33
 70
     0
 10
0.0
 20
0.0
 30
0.0
  3
DA_IMAGEDIMGROUP_33
  1

  0
LINE
  5
197
  8
LAYER0014
  6
CONTINUOUS
 62
     7
 10
-156.9256763379975
 20
-122.1352284088344
 30
0.0
 11
-71.92566870860298
 21
-122.1352284088344
 31
0.0
  0
INSERT
  5
198
  8
LAYER0014
 62
     7
  2
_OPEN30
 10
-156.9256763379975
 20
-122.1352284088344
 30
0.0
 41
1.999998407630662
 42
2.000005728319971
 50
180.0
  0
INSERT
  5
199
  8
LAYER0014
 62
     7
  2
_OPEN30
 10
-71.92566870860298
 20
-122.1352284088344
 30
0.0
 41
1.999998407630662
 42
2.000005728319971
 50
360.0
  0
LINE
  5
19A
  8
LAYER0014
  6
CONTINUOUS
 62
     7
 10
-156.9256763379975
 20
-80.5499766388149
 30
0.0
 11
-156.9256763379975
 21
-123.1352284088344
 31
0.0
  0
LINE
  5
19B
  8
LAYER0014
  6
CONTINUOUS
 62
     7
 10
-71.92566870860298
 20
-78.5499766388149
 30
0.0
 11
-71.92566870860298
 21
-123.1352284088344
 31
0.0
  0
TEXT
  5
19C
  8
LAYER0014
 62
     7
 10
-117.6256676494228
 20
-121.1296433580636
 30
0.0
 40
4.0
  1
85
 50
-0.1000000000000078
 41
0.8000000000000025
  7
FDASTYLE1
 72
     5
 11
-111.2256773971777
 21
-121.1408134596053
 31
0.0
  0
ENDBLK
  5
BA
  8
0
  0
BLOCK
  8
0
  2
DA_IMAGEDIMGROUP_34
 70
     0
 10
0.0
 20
0.0
 30
0.0
  3
DA_IMAGEDIMGROUP_34
  1

  0
TEXT
  5
19D
  8
LAYER0014
 62
     7
 10
-36.65847173694398
 20
77.72938929917048
 30
0.0
 40
4.0
  1
11
 50
90.0
 41
0.8000000000000007
  7
FDASTYLE1
 72
     5
 11
-36.65847173694398
 21
84.12938929917048
 31
0.0
  0
TEXT
  5
19E
  8
LAYER0014
 62
     7
 10
-32.85847173098352
 20
76.2573669884919
 30
0.0
 40
4.0
  1
MIN
 50
90.0
 41
0.7999999999999995
  7
FDASTYLE1
 72
     5
 11
-32.85847173098352
 21
85.85736698849189
 31
0.0
  0
ENDBLK
  5
BD
  8
0
  0
BLOCK
  8
0
  2
DC_GROUP_5
 70
     0
 10
0.0
 20
0.0
 30
0.0
  3
DC_GROUP_5
  1

  0
LINE
  5
19F
  8
LAYER0014
  6
CONTINUOUS
 62
     7
 10
-112.6152093752798
 20
-78.0515138260715
 30
0.0
 11
-102.0345675911089
 21
-92.80029210718914
 31
0.0
  0
INSERT
  5
1A0
  8
LAYER0014
 62
     7
  2
_OPEN30
 10
-112.6152093752798
 20
-78.0515138260715
 30
0.0
 41
1.999998407630662
 42
2.000005728319971
 50
125.6553191096534
  0
LINE
  5
1A1
  8
LAYER0014
  6
CONTINUOUS
 62
     7
 10
-102.0345676343842
 20
-92.80029035951802
 30
0.0
 11
-84.20490149668891
 21
-92.80029035951802
 31
0.0
  0
TEXT
  5
1A2
  8
LAYER0014
 62
     7
 10
-101.3933170240327
 20
-91.20029035951802
 30
0.0
 40
4.0
  1
M8×20
 41
0.7692307692307692
  7
FDASTYLE1
 72
     5
 11
-85.39331702403267
 21
-91.20029035951802
 31
0.0
  0
ENDBLK
  5
C0
  8
0
  0
BLOCK
  8
0
  2
DA_IMAGEDIMGROUP_35
 70
     0
 10
0.0
 20
0.0
 30
0.0
  3
DA_IMAGEDIMGROUP_35
  1

  0
LINE
  5
1A3
  8
0
  6
CONTINUOUS
 62
     9
 10
-112.7256763379975
 20
-84.50997663881489
 30
0.0
 11
-112.7256763379975
 21
-92.82162977602192
 31
0.0
  0
LINE
  5
1A4
  8
0
  6
CONTINUOUS
 62
     9
 10
-152.7256793897553
 20
-66.50997282411763
 30
0.0
 11
-152.7256793897553
 21
-92.82162977602192
 31
0.0
  0
LINE
  5
1A5
  8
0
  6
CONTINUOUS
 62
     9
 10
-152.7256793897553
 20
-91.82162977602192
 30
0.0
 11
-112.7256763379975
 21
-91.82162977602192
 31
0.0
  0
INSERT
  5
1A6
  8
0
 62
     9
  2
_OPEN30
 10
-152.7256793897553
 20
-91.82162977602192
 30
0.0
 41
1.999998407630662
 42
2.000005728319971
 50
180.0
  0
INSERT
  5
1A7
  8
0
 62
     9
  2
_OPEN30
 10
-112.7256763379975
 20
-91.82162977602192
 30
0.0
 41
1.999998407630662
 42
2.000005728319971
 50
360.0
  0
TEXT
  5
1A8
  8
0
 62
     7
 10
-135.9256778638764
 20
-90.82162977602192
 30
0.0
 40
4.0
  1
40
 41
0.7999999999999972
  7
FDASTYLE1
 72
     5
 11
-129.5256778638764
 21
-90.82162977602192
 31
0.0
  0
ENDBLK
  5
C3
  8
0
  0
BLOCK
  8
0
  2
_OPEN30
 70
     0
 10
0.0
 20
0.0
 30
0.0
  3
_OPEN30
  1

  0
LINE
  5
CA
  8
0
  6
BYBLOCK
 62
     0
 10
-1.0
 20
0.267949
 30
0.0
 11
0.0
 21
0.0
 31
0.0
  0
LINE
  5
CB
  8
0
  6
BYBLOCK
 62
     0
 10
0.0
 20
0.0
 30
0.0
 11
-1.0
 21
-0.267949
 31
0.0
  0
LINE
  5
CC
  8
0
  6
BYBLOCK
 62
     0
 10
0.0
 20
0.0
 30
0.0
 11
-1.0
 21
0.0
 31
0.0
  0
ENDBLK
  5
C9
  8
0
  0
BLOCK
  8
0
  2
_DOT
 70
     0
 10
0.0
 20
0.0
 30
0.0
  3
_DOT
  1

  0
POLYLINE
  5
17A
  8
0
  6
BYBLOCK
 62
     0
 66
     1
 10
0.0
 20
0.0
 30
0.0
 70
     1
 40
0.5
 41
0.5
  0
VERTEX
  5
499
  8
0
  6
BYBLOCK
 62
     0
 10
-0.25
 20
0.0
 30
0.0
 42
1.0
  0
VERTEX
  5
49A
  8
0
  6
BYBLOCK
 62
     0
 10
0.25
 20
0.0
 30
0.0
 42
1.0
  0
SEQEND
  5
498
  8
0
  6
BYBLOCK
 62
     0
  0
LINE
  5
17B
  8
0
  6
BYBLOCK
 62
     0
 10
-0.5
 20
0.0
 30
0.0
 11
-1.0
 21
0.0
 31
0.0
  0
ENDBLK
  5
179
  8
0
  0
ENDSEC
  0
SECTION
  2
ENTITIES
  0
LINE
  5
1A9
  8
ZUWAKU
  6
CONTINUOUS
 62
     3
 10
-277.0
 20
-190.0
 30
0.0
 11
-277.0
 21
190.0
 31
0.0
  0
LINE
  5
1AA
  8
ZUWAKU
  6
CONTINUOUS
 62
     3
 10
277.0
 20
-190.0
 30
0.0
 11
277.0
 21
190.0
 31
0.0
  0
LINE
  5
1AB
  8
ZUWAKU
  6
CONTINUOUS
 62
     3
 10
-277.0
 20
-190.0
 30
0.0
 11
277.0
 21
-190.0
 31
0.0
  0
LINE
  5
1AC
  8
ZUWAKU
  6
CONTINUOUS
 62
     3
 10
-277.0
 20
189.9999999999999
 30
0.0
 11
277.0
 21
189.9999999999999
 31
0.0
  0
LINE
  5
1AD
  8
ZUWAKU
  6
CONTINUOUS
 62
     3
 10
97.00000000000001
 20
-190.0
 30
0.0
 11
97.00000000000001
 21
-130.0
 31
0.0
  0
LINE
  5
1AE
  8
ZUWAKU
  6
CONTINUOUS
 62
     3
 10
97.00000000000001
 20
-176.0
 30
0.0
 11
277.0
 21
-176.0
 31
0.0
  0
LINE
  5
1AF
  8
ZUWAKU
  6
CONTINUOUS
 62
     3
 10
146.0
 20
-162.0
 30
0.0
 11
277.0
 21
-162.0
 31
0.0
  0
LINE
  5
1B0
  8
ZUWAKU
  6
CONTINUOUS
 62
     3
 10
146.0
 20
-148.0
 30
0.0
 11
277.0
 21
-148.0
 31
0.0
  0
LINE
  5
1B1
  8
ZUWAKU
  6
CONTINUOUS
 62
     3
 10
146.0
 20
-138.0
 30
0.0
 11
277.0
 21
-138.0
 31
0.0
  0
LINE
  5
1B2
  8
ZUWAKU
  6
CONTINUOUS
 62
     3
 10
146.0
 20
-176.0
 30
0.0
 11
146.0
 21
-130.0
 31
0.0
  0
LINE
  5
1B3
  8
ZUWAKU
  6
CONTINUOUS
 62
     3
 10
255.0
 20
-176.0
 30
0.0
 11
255.0
 21
-130.0
 31
0.0
  0
LINE
  5
1B4
  8
ZUWAKU
  6
CONTINUOUS
 62
     3
 10
171.0
 20
-190.0
 30
0.0
 11
171.0
 21
-176.0
 31
0.0
  0
LINE
  5
1B5
  8
ZUWAKU
  6
CONTINUOUS
 62
     3
 10
262.0
 20
-188.0
 30
0.0
 11
272.0
 21
-188.0
 31
0.0
  0
LINE
  5
1B6
  8
ZUWAKU
  6
CONTINUOUS
 62
     3
 10
267.0
 20
-178.0
 30
0.0
 11
262.0
 21
-188.0
 31
0.0
  0
LINE
  5
1B7
  8
ZUWAKU
  6
CONTINUOUS
 62
     3
 10
267.0
 20
-178.0
 30
0.0
 11
272.0
 21
-188.0
 31
0.0
  0
LINE
  5
1B8
  8
ZUWAKU
  6
CONTINUOUS
 62
     3
 10
97.00000000000001
 20
-130.0
 30
0.0
 11
277.0
 21
-130.0
 31
0.0
  0
LINE
  5
1B9
  8
ZUWAKU
  6
CONTINUOUS
 62
     3
 10
226.0
 20
-176.0
 30
0.0
 11
226.0
 21
-148.0
 31
0.0
  0
LINE
  5
1BA
  8
ZUWAKU
  6
CONTINUOUS
 62
     4
 10
105.0
 20
-172.0
 30
0.0
 11
105.0
 21
-130.0
 31
0.0
  0
LINE
  5
1BB
  8
ZUWAKU
  6
CONTINUOUS
 62
     4
 10
109.0
 20
-172.0
 30
0.0
 11
109.0
 21
-130.0
 31
0.0
  0
LINE
  5
1BC
  8
ZUWAKU
  6
CONTINUOUS
 62
     4
 10
121.5
 20
-176.0
 30
0.0
 11
121.5
 21
-130.0
 31
0.0
  0
LINE
  5
1BD
  8
ZUWAKU
  6
CONTINUOUS
 62
     4
 10
97.00000000000001
 20
-137.0
 30
0.0
 11
146.0
 21
-137.0
 31
0.0
  0
LINE
  5
1BE
  8
ZUWAKU
  6
CONTINUOUS
 62
     4
 10
97.00000000000001
 20
-144.0
 30
0.0
 11
146.0
 21
-144.0
 31
0.0
  0
LINE
  5
1BF
  8
ZUWAKU
  6
CONTINUOUS
 62
     4
 10
97.00000000000001
 20
-165.0
 30
0.0
 11
146.0
 21
-165.0
 31
0.0
  0
LINE
  5
1C0
  8
ZUWAKU
  6
CONTINUOUS
 62
     4
 10
97.00000000000001
 20
-172.0
 30
0.0
 11
146.0
 21
-172.0
 31
0.0
  0
LINE
  5
1C1
  8
ZUWAKU
  6
CONTINUOUS
 62
     4
 10
255.0
 20
-166.0
 30
0.0
 11
277.0
 21
-166.0
 31
0.0
  0
LINE
  5
1C2
  8
ZUWAKU
  6
CONTINUOUS
 62
     4
 10
202.0
 20
-148.0
 30
0.0
 11
202.0
 21
-146.5
 31
0.0
  0
LINE
  5
1C3
  8
ZUWAKU
  6
CONTINUOUS
 62
     4
 10
226.0
 20
-148.0
 30
0.0
 11
226.0
 21
-146.5
 31
0.0
  0
LINE
  5
1C4
  8
ZUWAKU
  6
CONTINUOUS
 62
     4
 10
243.0
 20
-148.0
 30
0.0
 11
243.0
 21
-146.5
 31
0.0
  0
LINE
  5
1C5
  8
ZUWAKU
  6
CONTINUOUS
 62
     4
 10
97.00000000000001
 20
-151.0
 30
0.0
 11
146.0
 21
-151.0
 31
0.0
  0
LINE
  5
1C6
  8
ZUWAKU
  6
CONTINUOUS
 62
     4
 10
97.00000000000001
 20
-158.0
 30
0.0
 11
146.0
 21
-158.0
 31
0.0
  0
LINE
  5
1C7
  8
ZUWAKU
  6
CONTINUOUS
 62
     4
 10
101.0
 20
-130.5
 30
0.0
 11
98.00000000000001
 21
-136.5
 31
0.0
  0
LINE
  5
1C8
  8
ZUWAKU
  6
CONTINUOUS
 62
     4
 10
101.0
 20
-130.5
 30
0.0
 11
104.0
 21
-136.5
 31
0.0
  0
LINE
  5
1C9
  8
ZUWAKU
  6
CONTINUOUS
 62
     4
 10
98.00000000000001
 20
-136.5
 30
0.0
 11
104.0
 21
-136.5
 31
0.0
  0
LINE
  5
1CA
  8
ZUWAKU
  6
CONTINUOUS
 62
     4
 10
101.0
 20
-158.5
 30
0.0
 11
98.00000000000001
 21
-164.5
 31
0.0
  0
LINE
  5
1CB
  8
ZUWAKU
  6
CONTINUOUS
 62
     4
 10
101.0
 20
-158.5
 30
0.0
 11
104.0
 21
-164.5
 31
0.0
  0
LINE
  5
1CC
  8
ZUWAKU
  6
CONTINUOUS
 62
     4
 10
98.00000000000001
 20
-164.5
 30
0.0
 11
104.0
 21
-164.5
 31
0.0
  0
LINE
  5
1CD
  8
ZUWAKU
  6
CONTINUOUS
 62
     4
 10
101.0
 20
-151.5
 30
0.0
 11
98.00000000000001
 21
-157.5
 31
0.0
  0
LINE
  5
1CE
  8
ZUWAKU
  6
CONTINUOUS
 62
     4
 10
101.0
 20
-151.5
 30
0.0
 11
104.0
 21
-157.5
 31
0.0
  0
LINE
  5
1CF
  8
ZUWAKU
  6
CONTINUOUS
 62
     4
 10
98.00000000000001
 20
-157.5
 30
0.0
 11
104.0
 21
-157.5
 31
0.0
  0
LINE
  5
1D0
  8
ZUWAKU
  6
CONTINUOUS
 62
     4
 10
101.0
 20
-144.5
 30
0.0
 11
98.00000000000001
 21
-150.5
 31
0.0
  0
LINE
  5
1D1
  8
ZUWAKU
  6
CONTINUOUS
 62
     4
 10
101.0
 20
-144.5
 30
0.0
 11
104.0
 21
-150.5
 31
0.0
  0
LINE
  5
1D2
  8
ZUWAKU
  6
CONTINUOUS
 62
     4
 10
98.00000000000001
 20
-150.5
 30
0.0
 11
104.0
 21
-150.5
 31
0.0
  0
LINE
  5
1D3
  8
ZUWAKU
  6
CONTINUOUS
 62
     4
 10
101.0
 20
-137.5
 30
0.0
 11
98.00000000000001
 21
-143.5
 31
0.0
  0
LINE
  5
1D4
  8
ZUWAKU
  6
CONTINUOUS
 62
     4
 10
101.0
 20
-137.5
 30
0.0
 11
104.0
 21
-143.5
 31
0.0
  0
LINE
  5
1D5
  8
ZUWAKU
  6
CONTINUOUS
 62
     4
 10
98.00000000000001
 20
-143.5
 30
0.0
 11
104.0
 21
-143.5
 31
0.0
  0
LINE
  5
1D6
  8
ZUWAKU
  6
CONTINUOUS
 62
     4
 10
172.6666666666666
 20
-176.0
 30
0.0
 11
172.6666666666666
 21
-162.0
 31
0.0
  0
LINE
  5
1D7
  8
ZUWAKU
  6
CONTINUOUS
 62
     4
 10
199.3333333333333
 20
-176.0
 30
0.0
 11
199.3333333333333
 21
-161.9509415757253
 31
0.0
  0
LINE
  5
1D8
  8
ZUWAKU
  6
CONTINUOUS
 62
     4
 10
212.6666666666666
 20
-167.5
 30
0.0
 11
212.6666666666666
 21
-161.9509415757253
 31
0.0
  0
LINE
  5
1D9
  8
ZUWAKU
  6
CONTINUOUS
 62
     4
 10
226.0
 20
-155.0
 30
0.0
 11
255.0
 21
-155.0
 31
0.0
  0
LINE
  5
1DA
  8
ZUWAKU
  6
CONTINUOUS
 62
     4
 10
146.0
 20
-166.0
 30
0.0
 11
226.0
 21
-166.0
 31
0.0
  0
LINE
  5
1DB
  8
ZUWAKU
  6
CONTINUOUS
 62
     4
 10
153.0
 20
-139.5
 30
0.0
 11
153.0
 21
-130.0
 31
0.0
  0
LINE
  5
1DC
  8
ZUWAKU
  6
CONTINUOUS
 62
     4
 10
202.0
 20
-139.5
 30
0.0
 11
202.0
 21
-130.0
 31
0.0
  0
LINE
  5
1DD
  8
ZUWAKU
  6
CONTINUOUS
 62
     4
 10
226.0
 20
-139.5
 30
0.0
 11
226.0
 21
-130.0
 31
0.0
  0
LINE
  5
1DE
  8
ZUWAKU
  6
CONTINUOUS
 62
     4
 10
243.0
 20
-139.5
 30
0.0
 11
243.0
 21
-130.0
 31
0.0
  0
TEXT
  5
1E0
  8
ZUWAKU
 62
     7
 10
148.3132301474747
 20
-130.821188728956
 30
0.0
 40
2.6656
  1
符号
 41
0.8
  7
FDASTYLE0
  0
TEXT
  5
1E1
  8
ZUWAKU
 62
     7
 10
162.4141311219058
 20
-135.8245525019963
 30
0.0
 40
4.0
  1
品       名
 41
0.765957446808511
  7
FDASTYLE1
 72
     5
 11
191.2141311219058
 21
-135.8245525019963
 31
0.0
  0
TEXT
  5
1E2
  8
ZUWAKU
 62
     7
 10
207.2331564413096
 20
-135.8245525019963
 30
0.0
 40
4.0
  1
材  料
 41
0.7272727272727279
  7
FDASTYLE1
 72
     5
 11
220.0331564413096
 21
-135.8245525019963
 31
0.0
  0
TEXT
  5
1E3
  8
ZUWAKU
 62
     7
 10
229.516061684855
 20
-135.8245525019963
 30
0.0
 40
4.0
  1
個 数
 41
0.7058823529411761
  7
FDASTYLE1
 72
     5
 11
239.116061684855
 21
-135.8245525019963
 31
0.0
  0
TEXT
  5
1E4
  8
ZUWAKU
 62
     7
 10
245.721810952888
 20
-133.5649080050572
 30
0.0
 40
2.5
  1
単重量
 41
0.6666666666666666
  7
FDASTYLE1
 72
     5
 11
251.721810952888
 21
-133.5649080050572
 31
0.0
  0
TEXT
  5
1E5
  8
ZUWAKU
 62
     7
 10
244.7089516236359
 20
-137.3631304897525
 30
0.0
 40
2.5
  1
(kg)
 41
0.8
  7
FDASTYLE1
 72
     5
 11
252.7089516236359
 21
-137.3631304897525
 31
0.0
  0
TEXT
  5
1E6
  8
ZUWAKU
 62
     7
 10
259.1421970654778
 20
-135.8245525019963
 30
0.0
 40
4.0
  1
記  事
 41
0.7272727272727279
  7
FDASTYLE1
 72
     5
 11
271.9421970654778
 21
-135.8245525019963
 31
0.0
  0
TEXT
  5
1E7
  8
ZUWAKU
 62
     7
 10
258.8450794551645
 20
-165.4873041997729
 30
0.0
 40
3.0
  1
コード番号
 41
0.6666666666666666
  7
FDASTYLE1
 72
     5
 11
270.8450794551645
 21
-165.4873041997729
 31
0.0
  0
TEXT
  5
1E8
  8
ZUWAKU
 62
     7
 10
101.9119920158317
 20
-175.1879010540338
 30
0.0
 40
2.5
  1
訂 正 来 歴
 41
0.717948717948718
  7
FDASTYLE1
 72
     5
 11
115.9119920158317
 21
-175.1879010540338
 31
0.0
  0
TEXT
  5
1E9
  8
ZUWAKU
 62
     7
 10
125.890334846765
 20
-175.2166697391651
 30
0.0
 40
2.5
  1
工 事 番 号
 41
0.717948717948718
  7
FDASTYLE1
 72
     5
 11
139.890334846765
 21
-175.2166697391651
 31
0.0
  0
TEXT
  5
1EA
  8
ZUWAKU
 62
     7
 10
99.96483784660289
 20
-165.9634530565915
 30
0.0
 40
2.0825
  1
記号
 41
0.8
  7
FDASTYLE0
  0
TEXT
  5
1EB
  8
ZUWAKU
 62
     7
 10
105.9042249067618
 20
-165.9634530565915
 30
0.0
 40
2.0825
  1
理由
 41
0.8
  7
FDASTYLE0
  0
TEXT
  5
1EC
  8
ZUWAKU
 62
     7
 10
111.6193667909843
 20
-169.8786046700178
 30
0.0
 40
3.0
  1
日 付
 41
0.7058823529411754
  7
FDASTYLE1
 72
     5
 11
118.8193667909843
 21
-169.8786046700178
 31
0.0
  0
TEXT
  5
1ED
  8
ZUWAKU
 62
     7
 10
257.2094542567131
 20
-142.3525309070082
 30
0.0
 40
3.0
  1
標　準
 41
0.5833333333333345
  7
FDASTYLE1
 72
     5
 11
263.5094542567131
 21
-142.3525309070082
 31
0.0
  0
TEXT
  5
1EE
  8
ZUWAKU
 62
     7
 10
153.4481689819652
 20
-165.7187911464244
 30
0.0
 40
3.0
  1
承   認
 41
0.7407407407407408
  7
FDASTYLE1
 72
     5
 11
165.4481689819652
 21
-165.7187911464244
 31
0.0
  0
TEXT
  5
1EF
  8
ZUWAKU
 62
     7
 10
179.863228033234
 20
-165.4873041997729
 30
0.0
 40
3.0
  1
検   図
 41
0.7407407407407408
  7
FDASTYLE1
 72
     5
 11
191.863228033234
 21
-165.4873041997729
 31
0.0
  0
TEXT
  5
1F0
  8
ZUWAKU
 62
     7
 10
201.4771920983751
 20
-165.4873041997729
 30
0.0
 40
3.0
  1
担  当
 41
0.7272727272727269
  7
FDASTYLE1
 72
     5
 11
211.0771920983751
 21
-165.4873041997729
 31
0.0
  0
TEXT
  5
1F1
  8
ZUWAKU
 62
     7
 10
214.6770574841112
 20
-165.4873041997729
 30
0.0
 40
3.0
  1
製  図
 41
0.7272727272727269
  7
FDASTYLE1
 72
     5
 11
224.2770574841112
 21
-165.4873041997729
 31
0.0
  0
TEXT
  5
1F2
  8
ZUWAKU
 62
     7
 10
226.9462372304199
 20
-153.2184960272417
 30
0.0
 40
3.0
  1
作図
 41
0.6666666666666683
  7
FDASTYLE1
 72
     5
 11
231.7462372304199
 21
-153.2184960272417
 31
0.0
  0
TEXT
  5
1F3
  8
ZUWAKU
 62
     7
 10
228.1036719636776
 20
-160.2371566401815
 30
0.0
 40
4.0
  1
第 三 角 法
 41
0.7179487179487182
  7
FDASTYLE1
 72
     5
 11
250.5036719636776
 21
-160.2371566401815
 31
0.0
  0
TEXT
  5
1F4
  8
ZUWAKU
 62
     7
 10
227.409211123723
 20
-166.413251986379
 30
0.0
 40
3.0
  1
尺度
 41
0.6666666666666683
  7
FDASTYLE1
 72
     5
 11
232.209211123723
 21
-166.413251986379
 31
0.0
  0
TEXT
  5
1F6
  8
ZUWAKU
 62
     3
 10
105.379154370034
 20
-185.9272077185017
 30
0.0
 40
7.0
  1
株式会社 野村製作所
 41
0.5763738641280831
  7
FDASTYLE2
 72
     5
 11
161.379154370034
 21
-185.9272077185017
 31
0.0
  0
TEXT
  5
1F8
  8
ZUWAKU
 62
     3
 10
176.0422636668242
 20
-187.1216685584563
 30
0.0
 40
8.0
  1
２－
 41
0.8244023083264632
  7
FDASTYLE3
 72
     5
 11
192.0422636668242
 21
-187.1216685584563
 31
0.0
  0
TEXT
  5
1F9
  8
ZUWAKU
 62
     3
 10
192.954221291231
 20
-187.1216685584563
 30
0.0
 40
8.0
  1
9308139
 41
1.564945226917058
  7
FDASTYLE3
 72
     5
 11
248.954221291231
 21
-187.1216685584563
 31
0.0
  0
TEXT
  5
1FA
  8
ZUWAKU
 62
     6
 10
231.384312273996
 20
-145.1178196492171
 30
0.0
 40
4.0
  1
一式
 41
0.5833333333333328
  7
FDASTYLE1
 72
     5
 11
236.984312273996
 21
-145.1178196492171
 31
0.0
  0
TEXT
  5
1FB
  8
ZUWAKU
 62
     6
 10
163.7236800359233
 20
-145.1021206743685
 30
0.0
 40
5.0
  1
外　形　図
 41
0.5833333333333334
  7
FDASTYLE1
 72
     5
 11
181.2236800359233
 21
-145.1021206743685
 31
0.0
  0
TEXT
  5
1FC
  8
ZUWAKU
 62
     4
 10
237.4612965606293
 20
-172.4797619591963
 30
0.0
 40
4.0
  1
1/1
 41
0.7000000000000005
  7
FDASTYLE1
 72
     5
 11
245.8612965606293
 21
-172.4797619591963
 31
0.0
  0
TEXT
  5
1FD
  8
0
 62
     6
 10
153.751689452146
 20
-154.3880453471329
 30
0.0
 40
5.0
  1
日鋼プレシジォン
 41
0.6666666666666666
  7
FDASTYLE1
 72
     5
 11
185.751689452146
 21
-154.3880453471329
 31
0.0
  0
TEXT
  5
1FE
  8
0
 62
     6
 10
162.4377590193254
 20
-160.9091595284539
 30
0.0
 40
5.0
  1
HWB3-215型チャック
 41
0.65
  7
FDASTYLE1
 72
     5
 11
207.9377590193254
 21
-160.9091595284539
 31
0.0
  0
TEXT
  5
1FF
  8
0
 62
     6
 10
-54.39421383708184
 20
-183.0018874767219
 30
0.0
 40
4.0
  1
アンバランス量
 41
0.663841963128279
  7
FDASTYLE1
 72
     5
 11
-27.53706971972649
 21
-183.0018874767219
 31
0.0
  0
TEXT
  5
200
  8
0
 62
     6
 10
-54.39421383708184
 20
-175.0018874767219
 30
0.0
 40
4.0
  1
質 量
 41
0.7364342569567148
  7
FDASTYLE1
 72
     5
 11
-43.53706971972649
 21
-175.0018874767219
 31
0.0
  0
TEXT
  5
201
  8
0
 62
     6
 10
-54.39421383708184
 20
-167.0018874767219
 30
0.0
 40
4.0
  1
慣性モーメント
 41
0.663841963128279
  7
FDASTYLE1
 72
     5
 11
-27.53706971972649
 21
-167.0018874767219
 31
0.0
  0
TEXT
  5
202
  8
0
 62
     6
 10
-54.39421383708184
 20
-159.0018874767219
 30
0.0
 40
4.0
  1
最高使用回転速度
 41
0.665024784134981
  7
FDASTYLE1
 72
     5
 11
-23.53706971972649
 21
-159.0018874767219
 31
0.0
  0
TEXT
  5
203
  8
0
 62
     6
 10
-54.39421383708184
 20
-151.0018874767219
 30
0.0
 40
4.0
  1
最大静的把握力
 41
0.663841963128279
  7
FDASTYLE1
 72
     5
 11
-27.53706971972649
 21
-151.0018874767219
 31
0.0
  0
TEXT
  5
204
  8
0
 62
     6
 10
-54.39421383708184
 20
-143.0018874767219
 30
0.0
 40
4.0
  1
許容シリンダー力
 41
0.665024784134981
  7
FDASTYLE1
 72
     5
 11
-23.53706971972649
 21
-143.0018874767219
 31
0.0
  0
TEXT
  5
205
  8
0
 62
     6
 10
-54.39421383708184
 20
-135.0018874767219
 30
0.0
 40
4.0
  1
推奨シリンダー
 41
0.663841963128279
  7
FDASTYLE1
 72
     5
 11
-27.53706971972649
 21
-135.0018874767219
 31
0.0
  0
TEXT
  5
206
  8
0
 62
     6
 10
-54.39421383708184
 20
-127.0018874767219
 30
0.0
 40
4.0
  1
ピストンストローク
 41
0.6659390169707117
  7
FDASTYLE1
 72
     5
 11
-19.53706971972649
 21
-127.0018874767219
 31
0.0
  0
TEXT
  5
207
  8
0
 62
     6
 10
-54.39421383708184
 20
-119.0018798473274
 30
0.0
 40
4.0
  1
爪ﾉｽﾄﾛｰｸ
 41
0.7781458739383595
  7
FDASTYLE1
 72
     5
 11
-27.53706971972649
 21
-119.0018798473274
 31
0.0
  0
TEXT
  5
208
  8
0
 62
     6
 10
-54.39421383708184
 20
-111.0018798473274
 30
0.0
 40
4.0
  1
仕 様
 41
0.7364342569567148
  7
FDASTYLE1
 72
     5
 11
-43.53706971972649
 21
-111.0018798473274
 31
0.0
  0
TEXT
  5
209
  8
0
 62
     6
 10
27.96432765156563
 20
-118.7265426280891
 30
0.0
 40
4.0
  1
(直径ﾆﾃ)  5.8 mm
 41
0.7692309500212766
  7
FDASTYLE1
 72
     5
 11
82.82147176892097
 21
-118.7265426280891
 31
0.0
  0
TEXT
  5
20A
  8
0
 62
     6
 10
63.9537933650666
 20
-126.5062820079719
 30
0.0
 40
4.0
  1
18 mm
 41
0.7674420691942423
  7
FDASTYLE1
 72
     5
 11
82.81093748242195
 21
-126.5062820079719
 31
0.0
  0
TEXT
  5
20B
  8
0
 62
     6
 10
48.08488523621
 20
-134.7825881603156
 30
0.0
 40
4.0
  1
52TS-TA1型
 41
0.7780614058262111
  7
FDASTYLE1
 72
     5
 11
82.94202935356535
 21
-134.7825881603156
 31
0.0
  0
TEXT
  5
20C
  8
0
 62
     6
 10
56.38250048786934
 20
-142.7278548839485
 30
0.0
 40
4.0
  1
  24 kN
 41
0.7704920065688554
  7
FDASTYLE1
 72
     5
 11
83.23964460522468
 21
-142.7278548839485
 31
0.0
  0
TEXT
  5
20D
  8
0
 62
     6
 10
56.47171481282051
 20
-150.6731063487922
 30
0.0
 40
4.0
  1
78.5 kN
 41
0.7704920065688554
  7
FDASTYLE1
 72
     5
 11
83.32885893017586
 21
-150.6731063487922
 31
0.0
  0
TEXT
  5
20E
  8
0
 62
     6
 10
52.42775424153145
 20
-158.618373072425
 30
0.0
 40
4.0
  1
4600 min
 41
0.7714287730626143
  7
FDASTYLE1
 72
     5
 11
83.28489835888679
 21
-158.618373072425
 31
0.0
  0
TEXT
  5
20F
  8
0
 62
     6
 10
84.14204027087028
 20
-156.1183730128204
 30
0.0
 40
2.0
  1
-1
 41
0.75000024121258
  7
FDASTYLE1
 72
     5
 11
87.57061232954796
 21
-156.1183730128204
 31
0.0
  0
TEXT
  5
210
  8
0
 62
     6
 10
36.7893966145125
 20
-166.7291518810188
 30
0.0
 40
4.0
  1
　　0.125 kg・m
 41
0.7578559974021695
  7
FDASTYLE1
 72
     5
 11
83.64654073186784
 21
-166.7291518810188
 31
0.0
  0
TEXT
  5
211
  8
0
 62
     6
 10
84.71203233629997
 20
-164.2291518214141
 30
0.0
 40
2.0
  1
2
 41
0.7142860293388367
  7
FDASTYLE1
 72
     5
 11
86.14060439497764
 21
-164.2291518214141
 31
0.0
  0
TEXT
  5
212
  8
0
 62
     6
 10
56.91008833372909
 20
-174.6744186046516
 30
0.0
 40
4.0
  1
18.5 kg
 41
0.7704920065688552
  7
FDASTYLE1
 72
     5
 11
83.76723245108443
 21
-174.6744186046516
 31
0.0
  0
TEXT
  5
213
  8
0
 62
     6
 10
37.28353579670723
 20
-182.7851974132453
 30
0.0
 40
4.0
  1
外周ﾆﾃ 　　4 g以内
 41
0.7295375293094948
  7
FDASTYLE1
 72
     5
 11
84.14067991406257
 21
-182.7851974132453
 31
0.0
  0
TEXT
  5
214
  8
0
 62
     6
 10
-15.9230928308834
 20
-142.7299605968391
 30
0.0
 40
3.0
  1
52TS-TA1型 引側使用圧  3.5MPa
 41
0.7521287655849324
  7
FDASTYLE1
 72
     5
 11
52.21975840259896
 21
-142.7299605968391
 31
0.0
  0
TEXT
  5
215
  8
0
 62
     7
 10
257.1813850232905
 20
-146.9637506240703
 30
0.0
 40
3.0
  1
M72×P1.5
 41
0.7804878048780483
  7
FDASTYLE1
 72
     5
 11
276.3813850232905
 21
-146.9637506240703
 31
0.0
  0
TEXT
  5
216
  8
0
 62
     7
 10
-11.12602709941109
 20
38.22081864927105
 30
0.0
 40
4.0
  1
MIN 44.55
 50
90.0
 41
0.8000000000000002
  7
FDASTYLE1
 72
     5
 11
-11.12602709941109
 21
67.02081864927105
 31
0.0
  0
TEXT
  5
217
  8
0
 62
     7
 10
-206.0073352735444
 20
-106.4920628204555
 30
0.0
 40
4.0
  1
MIN18.2
 41
0.8000000000000002
  7
FDASTYLE1
 72
     5
 11
-183.6073352735444
 21
-106.4920628204555
 31
0.0
  0
LINE
  5
218
  8
0
  6
CONTINUOUS
 62
     6
 10
-56.96564177840416
 20
-160.6685439708625
 30
0.0
 11
86.03435822159584
 21
-160.6685439708625
 31
0.0
  0
LINE
  5
219
  8
0
  6
CONTINUOUS
 62
     6
 10
-56.96564177840416
 20
-152.6685439708625
 30
0.0
 11
86.03435822159584
 21
-152.6685439708625
 31
0.0
  0
LINE
  5
21A
  8
0
  6
CONTINUOUS
 62
     6
 10
-56.96564177840416
 20
-144.6685439708625
 30
0.0
 11
86.03435822159584
 21
-144.6685439708625
 31
0.0
  0
LINE
  5
21B
  8
0
  6
CONTINUOUS
 62
     6
 10
-56.96564177840416
 20
-136.6685439708625
 30
0.0
 11
86.03435822159584
 21
-136.6685439708625
 31
0.0
  0
LINE
  5
21C
  8
0
  6
CONTINUOUS
 62
     6
 10
-56.96564177840416
 20
-128.6685439708625
 30
0.0
 11
86.03435822159584
 21
-128.6685439708625
 31
0.0
  0
LINE
  5
21D
  8
0
  6
CONTINUOUS
 62
     6
 10
-56.96564177840416
 20
-120.668536341468
 30
0.0
 11
86.03435822159584
 21
-120.668536341468
 31
0.0
  0
LINE
  5
21E
  8
0
  6
CONTINUOUS
 62
     6
 10
-56.96564177840416
 20
-112.668536341468
 30
0.0
 11
-40.96564177840416
 21
-112.668536341468
 31
0.0
  0
LINE
  5
21F
  8
0
  6
CONTINUOUS
 62
     6
 10
-56.96564177840416
 20
-168.6685439708625
 30
0.0
 11
86.03435822159584
 21
-168.6685439708625
 31
0.0
  0
LINE
  5
220
  8
0
  6
CONTINUOUS
 62
     6
 10
-56.96564177840416
 20
-184.6685439708625
 30
0.0
 11
86.03435822159584
 21
-184.6685439708625
 31
0.0
  0
LINE
  5
221
  8
0
  6
CONTINUOUS
 62
     6
 10
-56.96564177840416
 20
-176.6685439708625
 30
0.0
 11
86.03435822159584
 21
-176.6685439708625
 31
0.0
  0
LINE
  5
222
  8
0
  6
CENTER
 62
     7
 10
-184.2658491487047
 20
29.49002717588238
 30
0.0
 11
-62.19116019419869
 21
29.49002717588238
 31
0.0
  0
LINE
  5
223
  8
0
  6
CENTER
 62
     7
 10
121.679052360733
 20
142.8516108855992
 30
0.0
 11
121.679052360733
 21
-89.92001081850239
 31
0.0
  0
LINE
  5
224
  8
0
  6
CENTER
 62
     7
 10
4.864890583236615
 20
29.49002717588238
 30
0.0
 11
239.1421794969634
 21
29.49002717588238
 31
0.0
  0
LINE
  5
225
  8
0
  6
CENTER
 62
     7
 10
19.64180778842814
 20
-29.42120223833504
 30
0.0
 11
121.6790516719183
 21
29.49002147653951
 31
0.0
  0
LINE
  5
226
  8
0
  6
CENTER
 62
     7
 10
77.94477343564165
 20
54.74002097573023
 30
0.0
 11
87.74934411692982
 21
49.07935007900167
 31
0.0
  0
LINE
  5
227
  8
0
  6
CENTER
 62
     7
 10
66.67905236073295
 20
107.9900233611851
 30
0.0
 11
96.67905236073295
 21
107.9900233611851
 31
0.0
  0
LINE
  5
228
  8
0
  6
CENTER
 62
     7
 10
66.19606516061242
 20
-31.41061453566644
 30
0.0
 11
81.1960650414029
 21
-57.39137287926619
 31
0.0
  0
LINE
  5
229
  8
0
  6
CENTER
 62
     7
 10
202.1620644482506
 20
11.89066067395552
 30
0.0
 11
217.1620662363899
 21
37.87142232117995
 31
0.0
  0
LINE
  5
22A
  8
0
  6
CENTER
 62
     7
 10
156.9092064217893
 20
38.92992047318532
 30
0.0
 11
200.5710399548788
 21
50.62907225936871
 31
0.0
  0
LINE
  5
22B
  8
0
  6
CENTER
 62
     7
 10
42.7870491902105
 20
50.62906508284132
 30
0.0
 11
86.54871637949611
 21
38.90316295195876
 31
0.0
  0
LINE
  5
22C
  8
0
  6
CENTER
 62
     7
 10
147.3331546790176
 20
55.14411439478036
 30
0.0
 11
179.4320240278065
 21
87.24298103783704
 31
0.0
  0
LINE
  5
22D
  8
0
  6
CENTER
 62
     7
 10
63.92609710428053
 20
87.2429780023862
 30
0.0
 11
95.86608024135478
 21
55.30299755765103
 31
0.0
  0
LINE
  5
22E
  8
0
  6
CENTER
 62
     7
 10
100.5400026141457
 20
-49.40196324565929
 30
0.0
 11
112.0447009311951
 21
-6.465849904525925
 31
0.0
  0
LINE
  5
22F
  8
0
  6
CENTER
 62
     7
 10
131.3396716346564
 20
-6.563964178854889
 30
0.0
 11
142.8180819117559
 21
-49.40196923138328
 31
0.0
  0
LINE
  5
230
  8
0
  6
CENTER
 62
     7
 10
81.67905236073295
 20
122.9900233611851
 30
0.0
 11
81.67905236073295
 21
92.99002336118511
 31
0.0
  0
LINE
  5
231
  8
0
  6
CENTER
 62
     7
 10
60.7056786671991
 20
-51.90099148787712
 30
0.0
 11
86.68644540618777
 21
-36.90099047459827
 31
0.0
  0
LINE
  5
232
  8
0
  6
CENTER
 62
     7
 10
196.6716814383973
 20
32.38106401611131
 30
0.0
 11
222.6524580882607
 21
17.38105728078691
 31
0.0
  0
LINE
  5
233
  8
0
  6
CENTER
 62
     7
 10
109.2726726610259
 20
116.9900233611851
 30
0.0
 11
133.9074993211822
 21
116.9900233611851
 31
0.0
  0
LINE
  5
234
  8
0
  6
CENTER
 62
     7
 10
191.1084170078321
 20
-25.25481411837117
 30
0.0
 11
203.657029190999
 21
-3.519983233744
 31
0.0
  0
LINE
  5
235
  8
0
  6
CENTER
 62
     7
 10
39.71042393095672
 20
-3.5361506187987
 30
0.0
 11
51.9480304847026
 21
-24.73230402571252
 31
0.0
  0
LINE
  5
236
  8
0
  6
CENTER
 62
     7
 10
65.56615219453227
 20
11.67998806670258
 30
0.0
 11
78.15941922921377
 21
-10.13218727894409
 31
0.0
  0
LINE
  5
237
  8
0
  6
CENTER
 62
     7
 10
109.1674022752837
 20
86.99002336118511
 30
0.0
 11
133.6969280321197
 21
86.99002336118511
 31
0.0
  0
LINE
  5
238
  8
0
  6
CENTER
 62
     7
 10
165.2690469848127
 20
-10.01037265056593
 30
0.0
 11
177.5289857326881
 21
11.22446124591934
 31
0.0
  0
LINE
  5
239
  8
0
  6
CENTER
 62
     7
 10
-145.6575641553803
 20
67.10438798520855
 30
0.0
 11
-145.6575641553803
 21
60.35094712827495
 31
0.0
  0
LINE
  5
23A
  8
0
  6
CENTER
 62
     7
 10
-145.6575641553803
 20
-1.394814266225779
 30
0.0
 11
-145.6575641553803
 21
-8.148256911298716
 31
0.0
  0
LINE
  5
23B
  8
0
  6
CENTER
 62
     7
 10
-147.6575641553803
 20
-8.044556273481334
 30
0.0
 11
-147.6575641553803
 21
-22.06574257975137
 31
0.0
  0
LINE
  5
23C
  8
0
  6
CENTER
 62
     7
 10
-95.38469885997017
 20
-15.5099742546291
 30
0.0
 11
-66.62049292735298
 21
-15.5099742546291
 31
0.0
  0
LINE
  5
23D
  8
0
  6
CENTER
 62
     7
 10
-175.9876270215913
 20
-37.18497778322407
 30
0.0
 11
-64.987623206894
 21
-37.18497778322407
 31
0.0
  0
LINE
  5
23E
  8
0
  6
CENTER
 62
     7
 10
-87.68428229502877
 20
116.9900233611851
 30
0.0
 11
-43.92622946910103
 21
116.9900233611851
 31
0.0
  0
LINE
  5
23F
  8
0
  6
CENTER
 62
     7
 10
-87.59498023204048
 20
86.99002336118511
 30
0.0
 11
-44.10483359507759
 21
86.99002336118511
 31
0.0
  0
LINE
  5
240
  8
0
  6
CENTER
 62
     7
 10
121.6790486409626
 20
29.49002820279307
 30
0.0
 11
222.9041045999182
 21
-28.95227864702574
 31
0.0
  0
ARC
  5
241
  8
0
  6
CENTER
 62
     7
 10
121.679052360733
 20
29.49002717588238
 30
0.0
 40
66.67500305175781
 50
2.082721259318937
 51
57.91727891622929
  0
ARC
  5
242
  8
0
  6
CENTER
 62
     7
 10
121.679052360733
 20
29.49002717588238
 30
0.0
 40
45.0
 50
3.270353484983696
 51
55.76955666757005
  0
ARC
  5
243
  8
0
  6
CENTER
 62
     7
 10
121.679052360733
 20
29.49002717588238
 30
0.0
 40
66.67500305175781
 50
122.0827465832946
 51
177.9172890857227
  0
ARC
  5
244
  8
0
  6
CENTER
 62
     7
 10
121.679052360733
 20
29.49002717588238
 30
0.0
 40
66.67500305175781
 50
242.0826989235511
 51
297.9172824071142
  0
ARC
  5
245
  8
0
  6
CENTER
 62
     7
 10
121.679052360733
 20
29.49002717588238
 30
0.0
 40
45.0
 50
123.7535611184414
 51
177.449871920062
  0
ARC
  5
246
  8
0
  6
CENTER
 62
     7
 10
121.679052360733
 20
29.49002717588238
 30
0.0
 40
45.0
 50
244.5322096655928
 51
297.4731698469017
  0
LINE
  5
247
  8
0
  6
CENTER
 62
     7
 10
-112.7256763379975
 20
-49.97565515603855
 30
0.0
 11
-112.7256763379975
 21
-83.50997663881489
 31
0.0
  0
LINE
  5
248
  8
0
  6
CENTER
 62
     7
 10
155.5515473234217
 20
49.04631379844241
 30
0.0
 11
166.0384346043191
 21
55.10092032410511
 31
0.0
  0
LINE
  5
249
  8
0
  6
CENTER
 62
     7
 10
191.4227794035053
 20
69.75657700793219
 30
0.0
 11
216.62731173493
 21
84.30841892656326
 31
0.0
  0
LINE
  5
24A
  8
0
  6
DASHED
 62
     7
 10
-84.92566870860298
 20
-47.18497587587544
 30
0.0
 11
-71.92566870860298
 21
-47.18497587587544
 31
0.0
  0
LINE
  5
24B
  8
0
  6
DASHED
 62
     7
 10
-84.92566870860298
 20
-27.18497778322407
 30
0.0
 11
-71.92566870860298
 21
-27.18497778322407
 31
0.0
  0
LINE
  5
24C
  8
0
  6
DASHED
 62
     7
 10
-92.92566870860298
 20
-18.50997377779194
 30
0.0
 11
-82.96795081309517
 21
-18.50997377779194
 31
0.0
  0
LINE
  5
24D
  8
0
  6
DASHED
 62
     7
 10
-92.92566870860298
 20
-12.50997401621052
 30
0.0
 11
-83.28260230235298
 21
-12.50997401621052
 31
0.0
  0
LINE
  5
24E
  8
0
  6
DASHED
 62
     7
 10
-92.92566870860298
 20
-12.95997477914997
 30
0.0
 11
-83.12527655772408
 21
-12.95997477914997
 31
0.0
  0
LINE
  5
24F
  8
0
  6
DASHED
 62
     7
 10
-92.92566870860298
 20
-18.05997301485249
 30
0.0
 11
-82.81062506846627
 21
-18.05997301485249
 31
0.0
  0
LINE
  5
250
  8
0
  6
DASHED
 62
     7
 10
-84.92566870860298
 20
-27.18497778322407
 30
0.0
 11
-84.92566870860298
 21
-47.18497587587544
 31
0.0
  0
LINE
  5
251
  8
0
  6
DASHED
 62
     7
 10
-89.92566870860298
 20
-12.50997401621052
 30
0.0
 11
-89.92566870860298
 21
-18.50997377779194
 31
0.0
  0
LINE
  5
252
  8
0
  6
DASHED
 62
     7
 10
-169.9256763379975
 20
-31.18497778322407
 30
0.0
 11
-84.92566870860298
 21
-31.18497778322407
 31
0.0
  0
LINE
  5
253
  8
0
  6
DASHED
 62
     7
 10
-169.9256763379975
 20
-43.18497587587544
 30
0.0
 11
-84.92566870860298
 21
-43.18497587587544
 31
0.0
  0
LINE
  5
254
  8
0
  6
DASHED
 62
     7
 10
-84.92566870860298
 20
-28.18497778322407
 30
0.0
 11
-72.92566870860298
 21
-28.18497778322407
 31
0.0
  0
LINE
  5
255
  8
0
  6
DASHED
 62
     7
 10
-84.92566870860298
 20
-46.18497587587544
 30
0.0
 11
-72.92566870860298
 21
-46.18497587587544
 31
0.0
  0
LINE
  5
256
  8
0
  6
DASHED
 62
     7
 10
-72.92566870860298
 20
-28.18497778322407
 30
0.0
 11
-72.92566870860298
 21
-46.18497587587544
 31
0.0
  0
LINE
  5
257
  8
0
  6
DASHED
 62
     7
 10
-169.9256763379975
 20
-32.03497625734516
 30
0.0
 11
-133.9256763379975
 21
-32.03497625734516
 31
0.0
  0
LINE
  5
258
  8
0
  6
DASHED
 62
     7
 10
-169.9256763379975
 20
-42.33497740175434
 30
0.0
 11
-133.9256763379975
 21
-42.33497740175434
 31
0.0
  0
LINE
  5
259
  8
0
  6
DASHED
 62
     7
 10
-169.9256763379975
 20
-31.18497778322407
 30
0.0
 11
-169.9256763379975
 21
-43.18497587587544
 31
0.0
  0
LINE
  5
25A
  8
0
  6
DASHED
 62
     7
 10
-133.9256763379975
 20
-31.18497778322407
 30
0.0
 11
-133.9256763379975
 21
-43.18497587587544
 31
0.0
  0
LINE
  5
25B
  8
0
  6
CONTINUOUS
 62
     3
 10
-71.92566870860298
 20
136.9900233611851
 30
0.0
 11
-71.92566870860298
 21
133.7440516814976
 31
0.0
  0
LINE
  5
25C
  8
0
  6
CONTINUOUS
 62
     3
 10
-156.9256763379975
 20
136.9900233611851
 30
0.0
 11
-123.425668708603
 21
136.9900233611851
 31
0.0
  0
LINE
  5
25D
  8
0
  6
CONTINUOUS
 62
     3
 10
-156.9256763379975
 20
-78.00997663881489
 30
0.0
 11
-73.92566870860298
 21
-78.00997663881489
 31
0.0
  0
LINE
  5
25E
  8
0
  6
CONTINUOUS
 62
     3
 10
205.9767819018194
 20
-39.50202025004191
 30
0.0
 11
223.5767786593261
 21
-9.017935834114354
 31
0.0
  0
LINE
  5
25F
  8
0
  6
CONTINUOUS
 62
     3
 10
19.78131523871593
 20
-9.017923087630123
 30
0.0
 11
37.38132057929249
 21
-39.50202236986874
 31
0.0
  0
LINE
  5
260
  8
0
  6
CONTINUOUS
 62
     3
 10
104.0790538866119
 20
136.9900233611851
 30
0.0
 11
139.2790508348541
 21
136.9900233611851
 31
0.0
  0
LINE
  5
261
  8
0
  6
CONTINUOUS
 62
     3
 10
139.2790508348541
 20
136.9900233611851
 30
0.0
 11
139.2790508348541
 21
68.66002153013042
 31
0.0
  0
LINE
  5
262
  8
0
  6
CONTINUOUS
 62
     3
 10
104.0790538866119
 20
136.9900233611851
 30
0.0
 11
104.0790538866119
 21
68.66002153013042
 31
0.0
  0
LINE
  5
263
  8
0
  6
CONTINUOUS
 62
     3
 10
19.78131801412997
 20
-9.017926153594004
 30
0.0
 11
78.9568434065875
 21
25.14707558656338
 31
0.0
  0
LINE
  5
264
  8
0
  6
CONTINUOUS
 62
     3
 10
37.38132255753135
 20
-39.50202397475553
 30
0.0
 11
96.55684464636397
 21
-5.337024141946671
 31
0.0
  0
LINE
  5
265
  8
0
  6
CONTINUOUS
 62
     3
 10
146.8012717420394
 20
-5.337020089649826
 30
0.0
 11
205.9767921790595
 21
-39.50201896878443
 31
0.0
  0
LINE
  5
266
  8
0
  6
CONTINUOUS
 62
     3
 10
164.4012729818159
 20
25.14707963886022
 30
0.0
 11
223.576793418836
 21
-9.017919240274381
 31
0.0
  0
LINE
  5
267
  8
0
  6
CONTINUOUS
 62
     3
 10
197.9290657367598
 20
-46.28719068663494
 30
0.0
 11
198.7294944084348
 21
-46.74931834463686
 31
0.0
  0
LINE
  5
268
  8
0
  6
CONTINUOUS
 62
     3
 10
225.429064097632
 20
1.344208944865301
 30
0.0
 11
226.2294927693071
 21
0.8820812868633823
 31
0.0
  0
LINE
  5
269
  8
0
  6
CONTINUOUS
 62
     3
 10
149.1790447313384
 20
134.3373439178257
 30
0.0
 11
149.1790447313384
 21
133.413088546732
 31
0.0
  0
LINE
  5
26A
  8
0
  6
CONTINUOUS
 62
     3
 10
94.17905236073295
 20
134.3373439178257
 30
0.0
 11
94.17905236073295
 21
133.413088546732
 31
0.0
  0
LINE
  5
26B
  8
0
  6
CONTINUOUS
 62
     3
 10
44.62861893187971
 20
-46.74932856158139
 30
0.0
 11
45.4290459517423
 21
-46.28720185725373
 31
0.0
  0
LINE
  5
26C
  8
0
  6
CONTINUOUS
 62
     3
 10
17.12861860405429
 20
0.8820744767820372
 30
0.0
 11
17.92904727572932
 21
1.344202134783956
 31
0.0
  0
LINE
  5
26D
  8
0
  6
CONTINUOUS
 62
     3
 10
94.17903701880198
 20
134.3373112937951
 30
0.0
 11
104.0790396562835
 21
136.9900087223568
 31
0.0
  0
LINE
  5
26E
  8
0
  6
CONTINUOUS
 62
     3
 10
139.2790422427912
 20
136.9900039810511
 30
0.0
 11
149.1790375108436
 21
134.3373085271218
 31
0.0
  0
LINE
  5
26F
  8
0
  6
CONTINUOUS
 62
     3
 10
198.7295111413311
 20
-46.74933712869378
 30
0.0
 11
205.9768058661081
 21
-39.50204301481799
 31
0.0
  0
LINE
  5
270
  8
0
  6
CONTINUOUS
 62
     3
 10
37.38131492880305
 20
-39.50201941345992
 30
0.0
 11
44.62861504837704
 21
-46.74931892213223
 31
0.0
  0
LINE
  5
271
  8
0
  6
CONTINUOUS
 62
     3
 10
223.5767915661429
 20
-9.017887050068651
 30
0.0
 11
226.2294787451261
 21
0.8820750555527468
 31
0.0
  0
LINE
  5
272
  8
0
  6
CONTINUOUS
 62
     3
 10
17.12861646467549
 20
0.8820734135459531
 30
0.0
 11
19.78131351682283
 21
-9.017925539221011
 31
0.0
  0
LINE
  5
273
  8
0
  6
CONTINUOUS
 62
     3
 10
104.0790538866119
 20
72.99002336118511
 30
0.0
 11
139.2790508348541
 21
72.99002336118511
 31
0.0
  0
LINE
  5
274
  8
0
  6
CONTINUOUS
 62
     3
 10
150.5511570544073
 20
-7.502016435344643
 30
0.0
 11
168.1511576266117
 21
22.98207458783227
 31
0.0
  0
LINE
  5
275
  8
0
  6
CONTINUOUS
 62
     3
 10
75.20695050807512
 20
22.9820779345155
 30
0.0
 11
92.80695584865168
 21
-7.502021347723115
 31
0.0
  0
LINE
  5
276
  8
0
  6
CONTINUOUS
 62
     3
 10
78.95684297857213
 20
25.14707745631873
 30
0.0
 11
96.55685118017198
 21
-5.337026781356911
 31
0.0
  0
LINE
  5
277
  8
0
  6
CONTINUOUS
 62
     3
 10
104.0790538866119
 20
68.66002153013042
 30
0.0
 11
139.2790508348541
 21
68.66002153013042
 31
0.0
  0
LINE
  5
278
  8
0
  6
CONTINUOUS
 62
     3
 10
146.8012825667812
 20
-5.337016283875158
 30
0.0
 11
164.4012793242879
 21
25.1470681320524
 31
0.0
  0
LINE
  5
279
  8
0
  6
CONTINUOUS
 62
     3
 10
104.0790538866119
 20
75.49002336118511
 30
0.0
 11
114.679052360733
 21
75.49002336118511
 31
0.0
  0
LINE
  5
27A
  8
0
  6
CONTINUOUS
 62
     3
 10
152.7162413689035
 20
-8.752010999252974
 30
0.0
 11
158.0162374230755
 21
0.4278501874004235
 31
0.0
  0
LINE
  5
27B
  8
0
  6
CONTINUOUS
 62
     3
 10
73.0418841764498
 20
21.73208274094091
 30
0.0
 11
78.34188881369164
 21
12.55220668797645
 31
0.0
  0
LINE
  5
27C
  8
0
  6
CONTINUOUS
 62
     3
 10
32.08131816986588
 20
-30.32214989546807
 30
0.0
 11
46.04771952670035
 21
-22.25864520336094
 31
0.0
  0
LINE
  5
27D
  8
0
  6
CONTINUOUS
 62
     3
 10
25.0813178889602
 20
-18.19779623111836
 30
0.0
 11
39.04772750485694
 21
-10.13428677063993
 31
0.0
  0
LINE
  5
27E
  8
0
  6
CONTINUOUS
 62
     3
 10
128.6790447313384
 20
136.9900233611851
 30
0.0
 11
128.6790447313384
 21
120.8630092010289
 31
0.0
  0
LINE
  5
27F
  8
0
  6
CONTINUOUS
 62
     3
 10
114.679052360733
 20
136.9900233611851
 30
0.0
 11
114.679052360733
 21
120.8630092010289
 31
0.0
  0
LINE
  5
280
  8
0
  6
CONTINUOUS
 62
     3
 10
158.0162430869165
 20
0.4278466019403879
 30
0.0
 11
164.6218146611788
 21
-3.385881503263221
 31
0.0
  0
LINE
  5
281
  8
0
  6
CONTINUOUS
 62
     3
 10
165.0162294551843
 20
12.55221050117089
 30
0.0
 11
171.6214178089573
 21
8.7387036483955
 31
0.0
  0
LINE
  5
282
  8
0
  6
CONTINUOUS
 62
     3
 10
128.6790447313384
 20
75.49002336118511
 30
0.0
 11
139.2790508348541
 21
75.49002336118511
 31
0.0
  0
LINE
  5
283
  8
0
  6
CONTINUOUS
 62
     3
 10
85.34188869448224
 20
0.4278529044173922
 30
0.0
 11
90.64188856335193
 21
-8.752014889485366
 31
0.0
  0
LINE
  5
284
  8
0
  6
CONTINUOUS
 62
     3
 10
165.0162382575405
 20
12.55220562277182
 30
0.0
 11
170.3162419411079
 21
21.73208002392394
 31
0.0
  0
LINE
  5
285
  8
0
  6
CONTINUOUS
 62
     3
 10
114.679052360733
 20
113.1170375213414
 30
0.0
 11
114.679052360733
 21
90.86300920102886
 31
0.0
  0
LINE
  5
286
  8
0
  6
CONTINUOUS
 62
     3
 10
114.679052360733
 20
83.11703752134136
 30
0.0
 11
114.679052360733
 21
75.49002336118511
 31
0.0
  0
LINE
  5
287
  8
0
  6
CONTINUOUS
 62
     3
 10
128.6790447313384
 20
113.1170375213414
 30
0.0
 11
128.6790447313384
 21
90.86300920102886
 31
0.0
  0
LINE
  5
288
  8
0
  6
CONTINUOUS
 62
     3
 10
128.6790447313384
 20
83.11703752134136
 30
0.0
 11
128.6790447313384
 21
75.49002336118511
 31
0.0
  0
LINE
  5
289
  8
0
  6
CONTINUOUS
 62
     3
 10
45.75592288325692
 20
-6.261308791038204
 30
0.0
 11
65.02809450523176
 21
4.865483453468102
 31
0.0
  0
LINE
  5
28A
  8
0
  6
CONTINUOUS
 62
     3
 10
71.73670614037013
 20
8.73870175898324
 30
0.0
 11
78.34188127964347
 21
12.55220098236455
 31
0.0
  0
LINE
  5
28B
  8
0
  6
CONTINUOUS
 62
     3
 10
78.7363017272246
 20
-3.385885555560066
 30
0.0
 11
85.3418799087367
 21
0.4278463643405814
 31
0.0
  0
LINE
  5
28C
  8
0
  6
CONTINUOUS
 62
     3
 10
52.75592811959996
 20
-18.38565959436514
 30
0.0
 11
72.02850278381357
 21
-7.258634653339499
 31
0.0
  0
LINE
  5
28D
  8
0
  6
CONTINUOUS
 62
     3
 10
171.3296268190894
 20
-7.258638230436731
 30
0.0
 11
190.6022080905528
 21
-18.38566698615941
 31
0.0
  0
LINE
  5
28E
  8
0
  6
CONTINUOUS
 62
     3
 10
197.3104034689528
 20
-22.25864496576114
 30
0.0
 11
211.2768081294122
 21
-30.32215156521679
 31
0.0
  0
LINE
  5
28F
  8
0
  6
CONTINUOUS
 62
     3
 10
204.3104030517203
 20
-10.13428869592471
 30
0.0
 11
218.2768077121797
 21
-18.19779529538036
 31
0.0
  0
LINE
  5
290
  8
0
  6
CONTINUOUS
 62
     3
 10
178.3300360513455
 20
4.865481528183324
 30
0.0
 11
197.6021812443211
 21
-6.261295457534828
 31
0.0
  0
LINE
  5
291
  8
0
  6
CONTINUOUS
 62
     3
 10
75.97905473509229
 20
107.9900355485471
 30
0.0
 11
78.82905185022821
 21
103.0536927989816
 31
0.0
  0
LINE
  5
292
  8
0
  6
CONTINUOUS
 62
     3
 10
78.82905388661186
 20
103.0536753997593
 30
0.0
 11
84.52905083485405
 21
103.0536753997593
 31
0.0
  0
LINE
  5
293
  8
0
  6
CONTINUOUS
 62
     3
 10
84.52904247979427
 20
103.0536703914956
 30
0.0
 11
87.3790443513783
 21
107.9900104230907
 31
0.0
  0
LINE
  5
294
  8
0
  6
CONTINUOUS
 62
     3
 10
87.37905601613807
 20
107.9900281376773
 30
0.0
 11
84.52905559592682
 21
112.9263781739866
 31
0.0
  0
LINE
  5
295
  8
0
  6
CONTINUOUS
 62
     3
 10
84.52905083485405
 20
112.9263713226109
 30
0.0
 11
78.82905388661186
 21
112.9263713226109
 31
0.0
  0
LINE
  5
296
  8
0
  6
CONTINUOUS
 62
     3
 10
78.82905198622586
 20
112.92637261927
 30
0.0
 11
75.97905249286589
 21
107.9900308889434
 31
0.0
  0
LINE
  5
297
  8
0
  6
CONTINUOUS
 62
     3
 10
203.9620946125202
 20
24.88105789606189
 30
0.0
 11
206.8120917276561
 21
19.94471514649641
 31
0.0
  0
LINE
  5
298
  8
0
  6
CONTINUOUS
 62
     3
 10
206.8120403368072
 20
19.94470094297222
 30
0.0
 11
212.5120525438384
 21
19.94470094297222
 31
0.0
  0
LINE
  5
299
  8
0
  6
CONTINUOUS
 62
     3
 10
212.5120156863155
 20
19.9447075094312
 30
0.0
 11
215.3620175578996
 21
24.88104754102633
 31
0.0
  0
LINE
  5
29A
  8
0
  6
CONTINUOUS
 62
     3
 10
215.3620833448025
 20
24.88105832617876
 30
0.0
 11
212.512086739286
 21
29.81740175523683
 31
0.0
  0
LINE
  5
29B
  8
0
  6
CONTINUOUS
 62
     3
 10
212.5120525438384
 20
29.81739305112652
 30
0.0
 11
206.8120403368072
 21
29.81739305112652
 31
0.0
  0
LINE
  5
29C
  8
0
  6
CONTINUOUS
 62
     3
 10
206.8120605697174
 20
29.81739056299185
 30
0.0
 11
203.9620610763574
 21
24.88104883266524
 31
0.0
  0
LINE
  5
29D
  8
0
  6
CONTINUOUS
 62
     3
 10
67.9960598643969
 20
-44.40099136111857
 30
0.0
 11
70.84605697953282
 21
-49.33733411068405
 31
0.0
  0
LINE
  5
29E
  8
0
  6
CONTINUOUS
 62
     3
 10
70.84605980702202
 20
-49.3373348846645
 30
0.0
 11
76.5460567552642
 21
-49.3373348846645
 31
0.0
  0
LINE
  5
29F
  8
0
  6
CONTINUOUS
 62
     3
 10
76.5460383028913
 20
-49.33732427564132
 30
0.0
 11
79.39604136656965
 21
-44.40098217928161
 31
0.0
  0
LINE
  5
2A0
  8
0
  6
CONTINUOUS
 62
     3
 10
79.39605910619264
 20
-44.40098663955141
 30
0.0
 11
76.54606250067616
 21
-39.46464321049334
 31
0.0
  0
LINE
  5
2A1
  8
0
  6
CONTINUOUS
 62
     3
 10
76.54606438465874
 20
-39.4646484985561
 30
0.0
 11
70.84605980702202
 21
-39.4646484985561
 31
0.0
  0
LINE
  5
2A2
  8
0
  6
CONTINUOUS
 62
     3
 10
70.84607445582628
 20
-39.46465668019377
 30
0.0
 11
67.996073055117
 21
-44.40100171414483
 31
0.0
  0
LINE
  5
2A3
  8
0
  6
CONTINUOUS
 62
     3
 10
-123.425668708603
 20
136.9900233611851
 30
0.0
 11
-123.425668708603
 21
121.4144753161135
 31
0.0
  0
LINE
  5
2A4
  8
0
  6
CONTINUOUS
 62
     3
 10
-77.92566870860298
 20
136.9900233611851
 30
0.0
 11
-77.92566870860298
 21
125.9900233611851
 31
0.0
  0
LINE
  5
2A5
  8
0
  6
CONTINUOUS
 62
     3
 10
-84.92566870860298
 20
136.9900233611851
 30
0.0
 11
-84.92566870860298
 21
71.49002336118511
 31
0.0
  0
LINE
  5
2A6
  8
0
  6
CONTINUOUS
 62
     3
 10
-80.92566870860298
 20
75.49002336118511
 30
0.0
 11
-69.92566870860298
 21
75.49002336118511
 31
0.0
  0
LINE
  5
2A7
  8
0
  6
CONTINUOUS
 62
     3
 10
-80.92566870860298
 20
75.49002336118511
 30
0.0
 11
-80.92566870860298
 21
69.99002336118511
 31
0.0
  0
LINE
  5
2A8
  8
0
  6
CONTINUOUS
 62
     3
 10
-91.42566870860298
 20
69.99002336118511
 30
0.0
 11
-80.92566870860298
 21
69.99002336118511
 31
0.0
  0
LINE
  5
2A9
  8
0
  6
CONTINUOUS
 62
     3
 10
-84.92566870860298
 20
71.49002336118511
 30
0.0
 11
-80.92566870860298
 21
71.49002336118511
 31
0.0
  0
LINE
  5
2AA
  8
0
  6
CONTINUOUS
 62
     3
 10
-91.42566870860298
 20
79.49002336118511
 30
0.0
 11
-91.42566870860298
 21
69.99002336118511
 31
0.0
  0
LINE
  5
2AB
  8
0
  6
CONTINUOUS
 62
     3
 10
-99.64212989024361
 20
72.49002336118511
 30
0.0
 11
-91.42566870860298
 21
72.49002336118511
 31
0.0
  0
LINE
  5
2AC
  8
0
  6
CONTINUOUS
 62
     3
 10
-101.6575565259858
 20
76.49002336118511
 30
0.0
 11
-101.6575565259858
 21
64.99002336118511
 31
0.0
  0
LINE
  5
2AD
  8
0
  6
CONTINUOUS
 62
     3
 10
-81.1575565259858
 20
64.99002336118511
 30
0.0
 11
-81.1575565259858
 21
-6.009974016210521
 31
0.0
  0
LINE
  5
2AE
  8
0
  6
CONTINUOUS
 62
     3
 10
-152.7256793897553
 20
-19.50997377779194
 30
0.0
 11
-92.92566870860298
 21
-19.50997377779194
 31
0.0
  0
LINE
  5
2AF
  8
0
  6
CONTINUOUS
 62
     3
 10
-152.7256793897553
 20
78.49002336118511
 30
0.0
 11
-103.6575574910072
 21
78.49002336118511
 31
0.0
  0
LINE
  5
2B0
  8
0
  6
CONTINUOUS
 62
     3
 10
-101.6575565259858
 20
-6.009974016210521
 30
0.0
 11
-71.92566870860298
 21
-6.009974016210521
 31
0.0
  0
LINE
  5
2B1
  8
0
  6
CONTINUOUS
 62
     3
 10
-101.6575565259858
 20
64.99002336118511
 30
0.0
 11
-71.92566870860298
 21
64.99002336118511
 31
0.0
  0
LINE
  5
2B2
  8
0
  6
CONTINUOUS
 62
     3
 10
-101.6575565259858
 20
-6.009974016210521
 30
0.0
 11
-101.6575565259858
 21
-17.50997377779194
 31
0.0
  0
LINE
  5
2B3
  8
0
  6
CONTINUOUS
 62
     3
 10
-137.6575641553803
 20
74.74002336118511
 30
0.0
 11
-137.6575641553803
 21
73.69002793882183
 31
0.0
  0
LINE
  5
2B4
  8
0
  6
CONTINUOUS
 62
     3
 10
-134.6575641553803
 20
74.74002336118511
 30
0.0
 11
-134.6575641553803
 21
72.49002336118511
 31
0.0
  0
LINE
  5
2B5
  8
0
  6
CONTINUOUS
 62
     3
 10
-159.6575641553803
 20
62.49002336118511
 30
0.0
 11
-81.1575565259858
 21
62.49002336118511
 31
0.0
  0
LINE
  5
2B6
  8
0
  6
CONTINUOUS
 62
     3
 10
-159.6575641553803
 20
-3.5099742546291
 30
0.0
 11
-81.1575565259858
 21
-3.5099742546291
 31
0.0
  0
LINE
  5
2B7
  8
0
  6
CONTINUOUS
 62
     3
 10
-136.6575641553803
 20
-13.5099742546291
 30
0.0
 11
-129.6575565259858
 21
-13.5099742546291
 31
0.0
  0
LINE
  5
2B8
  8
0
  6
CONTINUOUS
 62
     3
 10
-136.6575794141694
 20
72.49002336118511
 30
0.0
 11
-129.6575565259858
 21
72.49002336118511
 31
0.0
  0
LINE
  5
2B9
  8
0
  6
CONTINUOUS
 62
     3
 10
-137.6575641553803
 20
74.74002336118511
 30
0.0
 11
-134.6575641553803
 21
74.74002336118511
 31
0.0
  0
LINE
  5
2BA
  8
0
  6
CONTINUOUS
 62
     3
 10
-137.6575641553803
 20
-15.7599742546291
 30
0.0
 11
-134.6575641553803
 21
-15.7599742546291
 31
0.0
  0
LINE
  5
2BB
  8
0
  6
CONTINUOUS
 62
     3
 10
-151.6575641553803
 20
74.49002336118511
 30
0.0
 11
-137.6575641553803
 21
74.49002336118511
 31
0.0
  0
LINE
  5
2BC
  8
0
  6
CONTINUOUS
 62
     3
 10
-151.6575641553803
 20
-15.5099742546291
 30
0.0
 11
-149.6575641553803
 21
-15.5099742546291
 31
0.0
  0
LINE
  5
2BD
  8
0
  6
CONTINUOUS
 62
     3
 10
-137.6575641553803
 20
-14.70997501756855
 30
0.0
 11
-137.6575641553803
 21
-15.7599742546291
 31
0.0
  0
LINE
  5
2BE
  8
0
  6
CONTINUOUS
 62
     3
 10
-134.6575641553803
 20
-13.5099742546291
 30
0.0
 11
-134.6575641553803
 21
-15.7599742546291
 31
0.0
  0
LINE
  5
2BF
  8
0
  6
CONTINUOUS
 62
     3
 10
-129.6575565259858
 20
72.49002336118511
 30
0.0
 11
-129.6575565259858
 21
-13.5099742546291
 31
0.0
  0
LINE
  5
2C0
  8
0
  6
CONTINUOUS
 62
     3
 10
-103.6575574910072
 20
78.49002336118511
 30
0.0
 11
-101.6575604440163
 21
76.49002631419424
 31
0.0
  0
LINE
  5
2C1
  8
0
  6
CONTINUOUS
 62
     3
 10
-101.6575563979189
 20
-17.50997232278414
 30
0.0
 11
-103.6575585210979
 21
-19.50997444596314
 31
0.0
  0
LINE
  5
2C2
  8
0
  6
CONTINUOUS
 62
     3
 10
-100.7979312272799
 20
79.49002336118511
 30
0.0
 11
-91.42566870860298
 21
79.49002336118511
 31
0.0
  0
LINE
  5
2C3
  8
0
  6
CONTINUOUS
 62
     3
 10
-179.6575641553803
 20
66.99002336118511
 30
0.0
 11
-179.6575641553803
 21
-8.009970320722545
 31
0.0
  0
LINE
  5
2C4
  8
0
  6
CONTINUOUS
 62
     3
 10
-163.6575641553803
 20
65.74002336118511
 30
0.0
 11
-163.6575641553803
 21
-6.759974016210521
 31
0.0
  0
LINE
  5
2C5
  8
0
  6
CONTINUOUS
 62
     3
 10
-159.6575641553803
 20
65.74002336118511
 30
0.0
 11
-159.6575641553803
 21
-6.759974016210521
 31
0.0
  0
LINE
  5
2C6
  8
0
  6
CONTINUOUS
 62
     3
 10
-163.6575641553803
 20
65.74002336118511
 30
0.0
 11
-159.6575641553803
 21
65.74002336118511
 31
0.0
  0
LINE
  5
2C7
  8
0
  6
CONTINUOUS
 62
     3
 10
-163.6575641553803
 20
-6.759974016210521
 30
0.0
 11
-159.6575641553803
 21
-6.759974016210521
 31
0.0
  0
LINE
  5
2C8
  8
0
  6
CONTINUOUS
 62
     3
 10
-179.6575641553803
 20
64.69002793882183
 30
0.0
 11
-163.6575641553803
 21
64.69002793882183
 31
0.0
  0
LINE
  5
2C9
  8
0
  6
CONTINUOUS
 62
     3
 10
-179.6575641553803
 20
-5.709974779149974
 30
0.0
 11
-163.6575641553803
 21
-5.709974779149974
 31
0.0
  0
LINE
  5
2CA
  8
0
  6
CONTINUOUS
 62
     3
 10
-178.6575488965913
 20
-9.009974090716327
 30
0.0
 11
-137.6575641553803
 21
-9.009974090716327
 31
0.0
  0
LINE
  5
2CB
  8
0
  6
CONTINUOUS
 62
     3
 10
-178.6575641553803
 20
67.99002336118511
 30
0.0
 11
-137.6575641553803
 21
67.99002336118511
 31
0.0
  0
LINE
  5
2CC
  8
0
  6
CONTINUOUS
 62
     3
 10
-137.6575641553803
 20
73.69002793882183
 30
0.0
 11
-137.6575641553803
 21
67.99002336118511
 31
0.0
  0
LINE
  5
2CD
  8
0
  6
CONTINUOUS
 62
     3
 10
-137.6575641553803
 20
-9.009974090716327
 30
0.0
 11
-137.6575641553803
 21
-14.70997501756855
 31
0.0
  0
LINE
  5
2CE
  8
0
  6
CONTINUOUS
 62
     3
 10
-178.6575461039805
 20
-9.009972067382563
 30
0.0
 11
-179.6575506215989
 21
-8.009963672228963
 31
0.0
  0
LINE
  5
2CF
  8
0
  6
CONTINUOUS
 62
     3
 10
-179.6575582799522
 20
66.99002566998789
 30
0.0
 11
-178.6575572183627
 21
67.99002673157739
 31
0.0
  0
LINE
  5
2D0
  8
0
  6
CONTINUOUS
 62
     3
 10
-137.6575622463619
 20
71.49003584193716
 30
0.0
 11
-136.6575638821706
 21
72.4900342061284
 31
0.0
  0
LINE
  5
2D1
  8
0
  6
CONTINUOUS
 62
     3
 10
-130.6575602100319
 20
72.49003150873014
 30
0.0
 11
-129.6575591484424
 21
71.49003044714064
 31
0.0
  0
LINE
  5
2D2
  8
0
  6
CONTINUOUS
 62
     3
 10
-129.6575537536459
 20
-12.50997780442967
 30
0.0
 11
-130.6575548152354
 21
-13.50997886601917
 31
0.0
  0
LINE
  5
2D3
  8
0
  6
CONTINUOUS
 62
     3
 10
-136.6575533998333
 20
-13.50997195550653
 30
0.0
 11
-137.6575525226657
 21
-12.50996895515991
 31
0.0
  0
LINE
  5
2D4
  8
0
  6
CONTINUOUS
 62
     3
 10
-149.1575641553803
 20
-3.5099742546291
 30
0.0
 11
-149.1575641553803
 21
-6.309973253271068
 31
0.0
  0
LINE
  5
2D5
  8
0
  6
CONTINUOUS
 62
     3
 10
-142.1575641553803
 20
-3.5099742546291
 30
0.0
 11
-142.1575641553803
 21
-6.309973253271068
 31
0.0
  0
LINE
  5
2D6
  8
0
  6
CONTINUOUS
 62
     3
 10
-149.1575641553803
 20
65.29002641294292
 30
0.0
 11
-149.1575641553803
 21
62.49002336118511
 31
0.0
  0
LINE
  5
2D7
  8
0
  6
CONTINUOUS
 62
     3
 10
-142.1575641553803
 20
65.29002641294292
 30
0.0
 11
-142.1575641553803
 21
62.49002336118511
 31
0.0
  0
LINE
  5
2D8
  8
0
  6
CONTINUOUS
 62
     3
 10
-149.1575641553803
 20
65.29002641294292
 30
0.0
 11
-142.1575641553803
 21
65.29002641294292
 31
0.0
  0
LINE
  5
2D9
  8
0
  6
CONTINUOUS
 62
     3
 10
-149.1575641553803
 20
-6.309973253271068
 30
0.0
 11
-142.1575641553803
 21
-6.309973253271068
 31
0.0
  0
LINE
  5
2DA
  8
0
  6
CONTINUOUS
 62
     3
 10
-145.6575641553803
 20
-15.5099742546291
 30
0.0
 11
-137.6575641553803
 21
-15.5099742546291
 31
0.0
  0
LINE
  5
2DB
  8
0
  6
CONTINUOUS
 62
     3
 10
-80.92566870860298
 20
69.99002336118511
 30
0.0
 11
-80.92566870860298
 21
67.49002336118511
 31
0.0
  0
LINE
  5
2DC
  8
0
  6
CONTINUOUS
 62
     3
 10
-92.92566870860298
 20
-6.009974016210521
 30
0.0
 11
-92.92566870860298
 21
-19.50997377779194
 31
0.0
  0
LINE
  5
2DD
  8
0
  6
CONTINUOUS
 62
     3
 10
-80.92566870860298
 20
-23.50997377779194
 30
0.0
 11
-71.92566870860298
 21
-23.50997377779194
 31
0.0
  0
LINE
  5
2DE
  8
0
  6
CONTINUOUS
 62
     3
 10
-92.92566870860298
 20
-8.509974075815165
 30
0.0
 11
-80.92566870860298
 21
-8.509974075815165
 31
0.0
  0
LINE
  5
2DF
  8
0
  6
CONTINUOUS
 62
     3
 10
-91.92566870860298
 20
67.49002336118511
 30
0.0
 11
-91.92566870860298
 21
64.99002336118511
 31
0.0
  0
LINE
  5
2E0
  8
0
  6
CONTINUOUS
 62
     3
 10
-91.92566870860298
 20
-6.009974016210521
 30
0.0
 11
-91.92566870860298
 21
-8.509974075815165
 31
0.0
  0
LINE
  5
2E1
  8
0
  6
CONTINUOUS
 62
     3
 10
-91.92566870860298
 20
67.49002336118511
 30
0.0
 11
-80.92566870860298
 21
67.49002336118511
 31
0.0
  0
LINE
  5
2E2
  8
0
  6
CONTINUOUS
 62
     3
 10
-80.92566870860298
 20
-8.509974075815165
 30
0.0
 11
-80.92566870860298
 21
-23.50997377779194
 31
0.0
  0
LINE
  5
2E3
  8
0
  6
CONTINUOUS
 62
     3
 10
-71.925672826821
 20
-76.00997516730195
 30
0.0
 11
-73.92567495
 21
-78.00997729048095
 31
0.0
  0
LINE
  5
2E4
  8
0
  6
CONTINUOUS
 62
     3
 10
-80.92566870860298
 20
72.99002336118511
 30
0.0
 11
-79.42566870860298
 21
72.99002336118511
 31
0.0
  0
LINE
  5
2E5
  8
0
  6
CONTINUOUS
 62
     3
 10
-79.42567345202065
 20
72.99002813154712
 30
0.0
 11
-71.92567847020496
 21
68.65990448827543
 31
0.0
  0
LINE
  5
2E6
  8
0
  6
CONTINUOUS
 62
     3
 10
-83.92566870860298
 20
125.9900233611851
 30
0.0
 11
-83.92566870860298
 21
77.99002336118511
 31
0.0
  0
LINE
  5
2E7
  8
0
  6
CONTINUOUS
 62
     3
 10
-68.92566870860298
 20
125.9900233611851
 30
0.0
 11
-68.92566870860298
 21
121.9900233611851
 31
0.0
  0
LINE
  5
2E8
  8
0
  6
CONTINUOUS
 62
     3
 10
-83.92566870860298
 20
125.9900233611851
 30
0.0
 11
-68.92566870860298
 21
125.9900233611851
 31
0.0
  0
LINE
  5
2E9
  8
0
  6
CONTINUOUS
 62
     3
 10
-83.92566870860298
 20
77.99002336118511
 30
0.0
 11
-68.92566870860298
 21
77.99002336118511
 31
0.0
  0
LINE
  5
2EA
  8
0
  6
CONTINUOUS
 62
     3
 10
-83.92566870860298
 20
111.9900233611851
 30
0.0
 11
-60.92567252330025
 21
111.9900233611851
 31
0.0
  0
LINE
  5
2EB
  8
0
  6
CONTINUOUS
 62
     3
 10
-83.92566870860298
 20
121.9900233611851
 30
0.0
 11
-60.92567252330025
 21
121.9900233611851
 31
0.0
  0
LINE
  5
2EC
  8
0
  6
CONTINUOUS
 62
     3
 10
-83.92566870860298
 20
91.99002336118511
 30
0.0
 11
-60.92567252330025
 21
91.99002336118511
 31
0.0
  0
LINE
  5
2ED
  8
0
  6
CONTINUOUS
 62
     3
 10
-83.92566870860298
 20
81.99002336118511
 30
0.0
 11
-60.92567252330025
 21
81.99002336118511
 31
0.0
  0
LINE
  5
2EE
  8
0
  6
CONTINUOUS
 62
     3
 10
-60.92567252330025
 20
94.99002336118511
 30
0.0
 11
-50.92567252330025
 21
94.99002336118511
 31
0.0
  0
LINE
  5
2EF
  8
0
  6
CONTINUOUS
 62
     3
 10
-60.92567252330025
 20
78.99002336118511
 30
0.0
 11
-50.92567252330025
 21
78.99002336118511
 31
0.0
  0
LINE
  5
2F0
  8
0
  6
CONTINUOUS
 62
     3
 10
-60.92567252330025
 20
124.9900233611851
 30
0.0
 11
-50.92567252330025
 21
124.9900233611851
 31
0.0
  0
LINE
  5
2F1
  8
0
  6
CONTINUOUS
 62
     3
 10
-60.92567252330025
 20
108.9900233611851
 30
0.0
 11
-50.92567252330025
 21
108.9900233611851
 31
0.0
  0
LINE
  5
2F2
  8
0
  6
CONTINUOUS
 62
     3
 10
-60.92567252330025
 20
124.9900233611851
 30
0.0
 11
-60.92567252330025
 21
108.9900233611851
 31
0.0
  0
LINE
  5
2F3
  8
0
  6
CONTINUOUS
 62
     3
 10
-50.92567252330025
 20
124.9900233611851
 30
0.0
 11
-50.92567252330025
 21
108.9900233611851
 31
0.0
  0
LINE
  5
2F4
  8
0
  6
CONTINUOUS
 62
     3
 10
-80.92566870860298
 20
121.9900233611851
 30
0.0
 11
-80.92566870860298
 21
111.9900233611851
 31
0.0
  0
LINE
  5
2F5
  8
0
  6
CONTINUOUS
 62
     3
 10
-77.92566870860298
 20
77.99002336118511
 30
0.0
 11
-77.92566870860298
 21
75.49002336118511
 31
0.0
  0
LINE
  5
2F6
  8
0
  6
CONTINUOUS
 62
     3
 10
-80.92566870860298
 20
91.99002336118511
 30
0.0
 11
-80.92566870860298
 21
81.99002336118511
 31
0.0
  0
LINE
  5
2F7
  8
0
  6
CONTINUOUS
 62
     3
 10
-60.92567252330025
 20
94.99002336118511
 30
0.0
 11
-60.92567252330025
 21
78.99002336118511
 31
0.0
  0
LINE
  5
2F8
  8
0
  6
CONTINUOUS
 62
     3
 10
-50.92567252330025
 20
94.99002336118511
 30
0.0
 11
-50.92567252330025
 21
78.99002336118511
 31
0.0
  0
LINE
  5
2F9
  8
0
  6
CONTINUOUS
 62
     3
 10
-68.92566870860298
 20
111.9900233611851
 30
0.0
 11
-68.92566870860298
 21
91.99002336118511
 31
0.0
  0
LINE
  5
2FA
  8
0
  6
CONTINUOUS
 62
     3
 10
-68.92566870860298
 20
81.99002336118511
 30
0.0
 11
-68.92566870860298
 21
77.99002336118511
 31
0.0
  0
LINE
  5
2FB
  8
0
  6
CONTINUOUS
 62
     3
 10
-123.425668708603
 20
136.9900233611851
 30
0.0
 11
-69.92566870860298
 21
136.9900233611851
 31
0.0
  0
LINE
  5
2FC
  8
0
  6
CONTINUOUS
 62
     3
 10
-71.92566870860298
 20
74.40466569516948
 30
0.0
 11
-71.92566870860298
 21
-76.00997663881489
 31
0.0
  0
LINE
  5
2FD
  8
0
  6
CONTINUOUS
 62
     3
 10
-151.6575641553803
 20
77.49002336118511
 30
0.0
 11
-151.6575641553803
 21
67.99002336118511
 31
0.0
  0
LINE
  5
2FE
  8
0
  6
CONTINUOUS
 62
     3
 10
-151.6575641553803
 20
-9.009974090716327
 30
0.0
 11
-151.6575641553803
 21
-18.50997377779194
 31
0.0
  0
LINE
  5
2FF
  8
0
  6
CONTINUOUS
 62
     3
 10
-151.6575501346323
 20
-18.50997877917015
 30
0.0
 11
-150.6575544678393
 21
-19.50997444596314
 31
0.0
  0
LINE
  5
300
  8
0
  6
CONTINUOUS
 62
     3
 10
-151.6575528320306
 20
77.49002332968635
 30
0.0
 11
-150.6575517704411
 21
78.49002439127585
 31
0.0
  0
LINE
  5
301
  8
0
  6
CONTINUOUS
 62
     3
 10
-156.9256763379975
 20
136.9900233611851
 30
0.0
 11
-156.9256763379975
 21
69.12423966977886
 31
0.0
  0
LINE
  5
302
  8
0
  6
CONTINUOUS
 62
     3
 10
-156.9256763379975
 20
-10.20908798124501
 30
0.0
 11
-156.9256763379975
 21
-49.83872350345308
 31
0.0
  0
LINE
  5
303
  8
0
  6
CONTINUOUS
 62
     3
 10
-152.7256793897553
 20
-10.20908798124501
 30
0.0
 11
-152.7256793897553
 21
-65.50997282411763
 31
0.0
  0
LINE
  5
304
  8
0
  6
CONTINUOUS
 62
     3
 10
-152.7256793897553
 20
124.4900233611851
 30
0.0
 11
-152.7256793897553
 21
69.12423966977886
 31
0.0
  0
LINE
  5
305
  8
0
  6
CONTINUOUS
 62
     3
 10
-156.9256763379975
 20
124.4900233611851
 30
0.0
 11
-152.7256793897553
 21
124.4900233611851
 31
0.0
  0
LINE
  5
306
  8
0
  6
CONTINUOUS
 62
     3
 10
-156.9256763379975
 20
-65.50997282411763
 30
0.0
 11
-152.7256793897553
 21
-65.50997282411763
 31
0.0
  0
LINE
  5
307
  8
0
  6
CONTINUOUS
 62
     3
 10
114.679052360733
 20
125.9900233611851
 30
0.0
 11
128.6790447313384
 21
125.9900233611851
 31
0.0
  0
LINE
  5
308
  8
0
  6
CONTINUOUS
 62
     3
 10
114.679052360733
 20
77.99002336118511
 30
0.0
 11
128.6790447313384
 21
77.99002336118511
 31
0.0
  0
LINE
  5
309
  8
0
  6
CONTINUOUS
 62
     3
 10
76.17657079034575
 20
11.3022049323454
 30
0.0
 11
83.17657257848521
 21
-0.822152154838335
 31
0.0
  0
LINE
  5
30A
  8
0
  6
CONTINUOUS
 62
     3
 10
34.60759984474464
 20
-12.69779587945672
 30
0.0
 11
41.6076016328841
 21
-24.82215296664046
 31
0.0
  0
LINE
  5
30B
  8
0
  6
CONTINUOUS
 62
     3
 10
160.1815507465209
 20
-0.8221444499082224
 30
0.0
 11
167.1815477662882
 21
11.30220437821382
 31
0.0
  0
LINE
  5
30C
  8
0
  6
CONTINUOUS
 62
     3
 10
201.7505271586321
 20
-24.82213960813542
 30
0.0
 11
208.7505203637016
 21
-12.69779738726274
 31
0.0
  0
LINE
  5
30D
  8
0
  6
CONTINUOUS
 62
     3
 10
-156.9256763379975
 20
-57.41180540468403
 30
0.0
 11
-156.9256763379975
 21
-78.00997663881489
 31
0.0
  0
ARC
  5
30E
  8
0
  6
CONTINUOUS
 62
     3
 10
121.679052360733
 20
29.49002717588238
 30
0.0
 40
107.5
 50
0.0
 51
80.57705986515023
  0
ARC
  5
30F
  8
0
  6
CONTINUOUS
 62
     3
 10
121.679052360733
 20
29.49002717588238
 30
0.0
 40
105.5
 50
0.0
 51
80.39674970125107
  0
ARC
  5
310
  8
0
  6
CONTINUOUS
 62
     3
 10
121.679052360733
 20
29.49002717588238
 30
0.0
 40
107.5
 50
219.4229179746301
 51
320.5770633560352
  0
ARC
  5
311
  8
0
  6
CONTINUOUS
 62
     3
 10
121.679052360733
 20
29.49002717588238
 30
0.0
 40
105.5
 50
219.6032213083401
 51
320.396753192136
  0
ARC
  5
312
  8
0
  6
CONTINUOUS
 62
     3
 10
121.679052360733
 20
29.49002717588238
 30
0.0
 40
105.5
 50
339.603251968401
 51
360.0
  0
ARC
  5
313
  8
0
  6
CONTINUOUS
 62
     3
 10
121.679052360733
 20
29.49002717588238
 30
0.0
 40
107.5
 50
339.4229418045019
 51
360.0
  0
ARC
  5
314
  8
0
  6
CONTINUOUS
 62
     3
 10
121.679052360733
 20
29.49002717588238
 30
0.0
 40
105.5
 50
99.60326896808361
 51
200.3967120594203
  0
ARC
  5
315
  8
0
  6
CONTINUOUS
 62
     3
 10
121.679052360733
 20
29.49002717588238
 30
0.0
 40
107.5
 50
99.42295880418443
 51
200.5770290535086
  0
CIRCLE
  5
316
  8
0
  6
CONTINUOUS
 62
     3
 10
121.679052360733
 20
29.49002717588238
 30
0.0
 40
33.0
  0
CIRCLE
  5
317
  8
0
  6
CONTINUOUS
 62
     3
 10
121.679052360733
 20
29.49002717588238
 30
0.0
 40
35.5
  0
ARC
  5
318
  8
0
  6
CONTINUOUS
 62
     3
 10
121.679052360733
 20
29.49002717588238
 30
0.0
 40
53.0
 50
0.0
 51
70.60520224298506
  0
ARC
  5
319
  8
0
  6
CONTINUOUS
 62
     3
 10
121.679052360733
 20
29.49002717588238
 30
0.0
 40
53.0
 50
109.3948164263496
 51
190.6051577709651
  0
ARC
  5
31A
  8
0
  6
CONTINUOUS
 62
     3
 10
121.679052360733
 20
29.49002717588238
 30
0.0
 40
53.0
 50
229.3947755967953
 51
310.6052091489646
  0
ARC
  5
31B
  8
0
  6
CONTINUOUS
 62
     3
 10
121.679052360733
 20
29.49002717588238
 30
0.0
 40
53.0
 50
349.3948002804407
 51
360.0
  0
CIRCLE
  5
31C
  8
0
  6
CONTINUOUS
 62
     3
 10
89.85924340077202
 20
61.30983232114605
 30
0.0
 40
5.5
  0
CIRCLE
  5
31D
  8
0
  6
CONTINUOUS
 62
     3
 10
78.21239281483452
 20
41.13688539121441
 30
0.0
 40
5.5
  0
CIRCLE
  5
31E
  8
0
  6
CONTINUOUS
 62
     3
 10
110.0321941454009
 20
-13.97663380052754
 30
0.0
 40
5.5
  0
CIRCLE
  5
31F
  8
0
  6
CONTINUOUS
 62
     3
 10
133.3258953172759
 20
-13.97663380052754
 30
0.0
 40
5.5
  0
CIRCLE
  5
320
  8
0
  6
CONTINUOUS
 62
     3
 10
165.1457042772369
 20
41.13688539121441
 30
0.0
 40
5.5
  0
CIRCLE
  5
321
  8
0
  6
CONTINUOUS
 62
     3
 10
153.4988536912994
 20
61.30983232114605
 30
0.0
 40
5.5
  0
CIRCLE
  5
322
  8
0
  6
CONTINUOUS
 62
     3
 10
168.8253917772369
 20
76.63637040708355
 30
0.0
 40
10.0
  0
CIRCLE
  5
323
  8
0
  6
CONTINUOUS
 62
     3
 10
186.0821514207916
 20
46.74678681943706
 30
0.0
 40
10.0
  0
CIRCLE
  5
324
  8
0
  6
CONTINUOUS
 62
     3
 10
138.9358043748931
 20
-34.91308142091938
 30
0.0
 40
10.0
  0
CIRCLE
  5
325
  8
0
  6
CONTINUOUS
 62
     3
 10
104.4222927171783
 20
-34.91308142091938
 30
0.0
 40
10.0
  0
CIRCLE
  5
326
  8
0
  6
CONTINUOUS
 62
     3
 10
57.27594185658256
 20
46.74678681943706
 30
0.0
 40
10.0
  0
CIRCLE
  5
327
  8
0
  6
CONTINUOUS
 62
     3
 10
74.53270531483452
 20
76.63637040708355
 30
0.0
 40
10.0
  0
CIRCLE
  5
328
  8
0
  6
CONTINUOUS
 62
     3
 10
73.69606591053764
 20
-44.40099073793598
 30
0.0
 40
9.0
  0
CIRCLE
  5
329
  8
0
  6
CONTINUOUS
 62
     3
 10
209.6620464403228
 20
24.881048904398
 30
0.0
 40
9.0
  0
CIRCLE
  5
32A
  8
0
  6
CONTINUOUS
 62
     3
 10
81.67905236073295
 20
107.9900233611851
 30
0.0
 40
9.0
  0
ARC
  5
32B
  8
0
  6
CONTINUOUS
 62
     3
 10
76.64573479481499
 20
3.490027175882375
 30
0.0
 40
10.0
 50
61.7883842509824
 51
83.13015042595515
  0
ARC
  5
32C
  8
0
  6
CONTINUOUS
 62
     3
 10
121.679052360733
 20
81.49002336118511
 30
0.0
 40
10.0
 50
216.8698752251494
 51
238.211634569933
  0
ARC
  5
32D
  8
0
  6
CONTINUOUS
 62
     3
 10
166.7123699266509
 20
3.490030990579641
 30
0.0
 40
10.0
 50
96.86990922451454
 51
118.2117368711898
  0
ARC
  5
32E
  8
0
  6
CONTINUOUS
 62
     3
 10
121.679052360733
 20
81.49002336118511
 30
0.0
 40
10.0
 50
301.7883467607323
 51
323.1301026904213
  0
ARC
  5
32F
  8
0
  6
CONTINUOUS
 62
     3
 10
76.64573479481499
 20
3.490027175882375
 30
0.0
 40
10.0
 50
336.8698683191699
 51
358.2116159245658
  0
ARC
  5
330
  8
0
  6
CONTINUOUS
 62
     3
 10
166.7123699266509
 20
3.490030990579641
 30
0.0
 40
10.0
 50
181.7882614591581
 51
203.1300617850767
  0
CIRCLE
  5
331
  8
0
  6
CONTINUOUS
 62
     3
 10
81.67905236073295
 20
107.9900233611851
 30
0.0
 40
0.75
  0
CIRCLE
  5
332
  8
0
  6
CONTINUOUS
 62
     3
 10
81.67905236073295
 20
107.9900233611851
 30
0.0
 40
2.400000095367432
  0
CIRCLE
  5
333
  8
0
  6
CONTINUOUS
 62
     3
 10
81.67905236073295
 20
107.9900233611851
 30
0.0
 40
3.299999952316284
  0
CIRCLE
  5
334
  8
0
  6
CONTINUOUS
 62
     3
 10
209.6620464403228
 20
24.881048904398
 30
0.0
 40
0.75
  0
CIRCLE
  5
335
  8
0
  6
CONTINUOUS
 62
     3
 10
209.6620464403228
 20
24.881048904398
 30
0.0
 40
2.400000095367432
  0
CIRCLE
  5
336
  8
0
  6
CONTINUOUS
 62
     3
 10
209.6620464403228
 20
24.881048904398
 30
0.0
 40
3.299999952316284
  0
CIRCLE
  5
337
  8
0
  6
CONTINUOUS
 62
     3
 10
73.69606591053764
 20
-44.40099073793598
 30
0.0
 40
0.75
  0
CIRCLE
  5
338
  8
0
  6
CONTINUOUS
 62
     3
 10
73.69606591053764
 20
-44.40099073793598
 30
0.0
 40
2.400000095367432
  0
CIRCLE
  5
339
  8
0
  6
CONTINUOUS
 62
     3
 10
73.69606591053764
 20
-44.40099073793598
 30
0.0
 40
3.299999952316284
  0
CIRCLE
  5
33A
  8
0
  6
CONTINUOUS
 62
     3
 10
121.679052360733
 20
-15.5099742546291
 30
0.0
 40
2.0
  0
CIRCLE
  5
33B
  8
0
  6
CONTINUOUS
 62
     3
 10
82.70790673085014
 20
51.99002717588238
 30
0.0
 40
2.0
  0
CIRCLE
  5
33C
  8
0
  6
CONTINUOUS
 62
     3
 10
160.6501903612212
 20
51.99002336118511
 30
0.0
 40
2.0
  0
LINE
  5
33D
  8
0
  6
CONTINUOUS
 62
     2
 10
163.7591598648909
 20
79.56137471993307
 30
0.0
 11
168.825416810087
 21
82.48637254137785
 31
0.0
  0
LINE
  5
33E
  8
0
  6
CONTINUOUS
 62
     2
 10
168.8254208536561
 20
82.48638782796834
 30
0.0
 11
173.89166386917
 21
79.5613812684791
 31
0.0
  0
LINE
  5
33F
  8
0
  6
CONTINUOUS
 62
     2
 10
173.8916454393462
 20
79.56136582944683
 30
0.0
 11
173.8916454393462
 21
73.7113597259312
 31
0.0
  0
LINE
  5
340
  8
0
  6
CONTINUOUS
 62
     2
 10
173.891655452575
 20
73.71136884040143
 30
0.0
 11
168.825398507379
 21
70.78637101895666
 31
0.0
  0
LINE
  5
341
  8
0
  6
CONTINUOUS
 62
     2
 10
168.8253878664606
 20
70.78637227412301
 30
0.0
 11
163.7591365002651
 21
73.71137951013125
 31
0.0
  0
LINE
  5
342
  8
0
  6
CONTINUOUS
 62
     2
 10
163.7591381151275
 20
73.71137498472027
 30
0.0
 11
163.7591381151275
 21
79.56137345884136
 31
0.0
  0
LINE
  5
343
  8
0
  6
CONTINUOUS
 62
     2
 10
181.0159186562408
 20
49.6717813297245
 30
0.0
 11
186.0821756014369
 21
52.59677915116927
 31
0.0
  0
LINE
  5
344
  8
0
  6
CONTINUOUS
 62
     2
 10
186.082154846236
 20
52.59680351595753
 30
0.0
 11
191.1484044689938
 21
49.67179314176147
 31
0.0
  0
LINE
  5
345
  8
0
  6
CONTINUOUS
 62
     2
 10
191.1484050829009
 20
49.67178224180034
 30
0.0
 11
191.1484050829009
 21
43.82178376767925
 31
0.0
  0
LINE
  5
346
  8
0
  6
CONTINUOUS
 62
     2
 10
191.1484106676527
 20
43.82178164449297
 30
0.0
 11
186.0821537224566
 21
40.8967838230482
 31
0.0
  0
LINE
  5
347
  8
0
  6
CONTINUOUS
 62
     2
 10
186.082165430888
 20
40.89676656522434
 30
0.0
 11
181.0159140646925
 21
43.82177380123258
 31
0.0
  0
LINE
  5
348
  8
0
  6
CONTINUOUS
 62
     2
 10
181.0158977586822
 20
43.82179139707378
 30
0.0
 11
181.0158977586822
 21
49.67178987119488
 31
0.0
  0
LINE
  5
349
  8
0
  6
CONTINUOUS
 62
     2
 10
133.869564659649
 20
-31.98807750376645
 30
0.0
 11
138.9358216048451
 21
-29.06307968232167
 31
0.0
  0
LINE
  5
34A
  8
0
  6
CONTINUOUS
 62
     2
 10
138.935820011929
 20
-29.06307564753101
 30
0.0
 11
144.0020696346868
 21
-31.98808602172707
 31
0.0
  0
LINE
  5
34B
  8
0
  6
CONTINUOUS
 62
     2
 10
144.0020580370025
 20
-31.98808981325337
 30
0.0
 11
144.0020580370025
 21
-37.83808828737446
 31
0.0
  0
LINE
  5
34C
  8
0
  6
CONTINUOUS
 62
     2
 10
144.0020728150404
 20
-37.83808989244116
 30
0.0
 11
138.9358158698443
 21
-40.76308771388594
 31
0.0
  0
LINE
  5
34D
  8
0
  6
CONTINUOUS
 62
     2
 10
138.9357963071303
 20
-40.76307407926569
 30
0.0
 11
133.8695449409348
 21
-37.83806684325745
 31
0.0
  0
LINE
  5
34E
  8
0
  6
CONTINUOUS
 62
     2
 10
133.8695659715728
 20
-37.83807684328266
 30
0.0
 11
133.8695659715728
 21
-31.98807836916157
 31
0.0
  0
LINE
  5
34F
  8
0
  6
CONTINUOUS
 62
     2
 10
99.35604855706572
 20
-31.98808391987777
 30
0.0
 11
104.4223055022618
 21
-29.06308609843299
 31
0.0
  0
LINE
  5
350
  8
0
  6
CONTINUOUS
 62
     2
 10
104.422308582113
 20
-29.06308287772512
 30
0.0
 11
109.4885582048709
 21
-31.98809325192119
 31
0.0
  0
LINE
  5
351
  8
0
  6
CONTINUOUS
 62
     2
 10
109.4885387498931
 20
-31.98808981325337
 30
0.0
 11
109.4885387498931
 21
-37.83808828737446
 31
0.0
  0
LINE
  5
352
  8
0
  6
CONTINUOUS
 62
     2
 10
109.4885358685693
 20
-37.83809072342646
 30
0.0
 11
104.4222855306267
 21
-40.76308473018079
 31
0.0
  0
LINE
  5
353
  8
0
  6
CONTINUOUS
 62
     2
 10
104.422288156317
 20
-40.76308215357412
 30
0.0
 11
99.35603679012149
 21
-37.83807491756588
 31
0.0
  0
LINE
  5
354
  8
0
  6
CONTINUOUS
 62
     2
 10
99.35604668446342
 20
-37.83807684328266
 30
0.0
 11
99.35604668446342
 21
-31.98807836916157
 31
0.0
  0
LINE
  5
355
  8
0
  6
CONTINUOUS
 62
     2
 10
52.20969706009259
 20
49.67178903625009
 30
0.0
 11
57.27595400528867
 21
52.59678685769487
 31
0.0
  0
LINE
  5
356
  8
0
  6
CONTINUOUS
 62
     2
 10
57.27596069529284
 20
52.5967946271293
 30
0.0
 11
62.34220205899578
 21
49.67178902131676
 31
0.0
  0
LINE
  5
357
  8
0
  6
CONTINUOUS
 62
     2
 10
62.3421993333892
 20
49.67178224180034
 30
0.0
 11
62.3421993333892
 21
43.82178376767925
 31
0.0
  0
LINE
  5
358
  8
0
  6
CONTINUOUS
 62
     2
 10
62.34219193252227
 20
43.82178439557848
 30
0.0
 11
57.27594159457965
 21
40.89679038882414
 31
0.0
  0
LINE
  5
359
  8
0
  6
CONTINUOUS
 62
     2
 10
57.27593423687233
 20
40.89678006994373
 30
0.0
 11
52.20968782611146
 21
43.82178444492493
 31
0.0
  0
LINE
  5
35A
  8
0
  6
CONTINUOUS
 62
     2
 10
52.20969200917045
 20
43.82179139707378
 30
0.0
 11
52.20969200917045
 21
49.67178987119488
 31
0.0
  0
LINE
  5
35B
  8
0
  6
CONTINUOUS
 62
     2
 10
69.46645229401736
 20
79.56137718176606
 30
0.0
 11
74.53270923921343
 21
82.48637500321084
 31
0.0
  0
LINE
  5
35C
  8
0
  6
CONTINUOUS
 62
     2
 10
74.53271945152324
 20
82.48638814518066
 30
0.0
 11
79.59896246703715
 21
79.56138158569141
 31
0.0
  0
LINE
  5
35D
  8
0
  6
CONTINUOUS
 62
     2
 10
79.59895134754936
 20
79.56136582944683
 30
0.0
 11
79.59895134754936
 21
73.7113597259312
 31
0.0
  0
LINE
  5
35E
  8
0
  6
CONTINUOUS
 62
     2
 10
79.59895663471832
 20
73.7113714003448
 30
0.0
 11
74.53269968952225
 21
70.78637357890003
 31
0.0
  0
LINE
  5
35F
  8
0
  6
CONTINUOUS
 62
     2
 10
74.5326888338119
 20
70.78636677611931
 30
0.0
 11
69.46644407486258
 21
73.71137019742483
 31
0.0
  0
LINE
  5
360
  8
0
  6
CONTINUOUS
 62
     2
 10
69.46645165272514
 20
73.71137498472027
 30
0.0
 11
69.46645165272514
 21
79.56137345884136
 31
0.0
  0
LINE
  5
361
  8
0
  6
CONTINUOUS
 62
     2
 10
121.6790700628702
 20
121.6900275253878
 30
0.0
 11
117.6087376452564
 21
119.3400257640818
 31
0.0
  0
LINE
  5
362
  8
0
  6
CONTINUOUS
 62
     2
 10
117.6087322313384
 20
119.3400294647007
 30
0.0
 11
117.6087322313384
 21
114.640024887064
 31
0.0
  0
LINE
  5
363
  8
0
  6
CONTINUOUS
 62
     2
 10
117.6087197409748
 20
114.6400155301953
 30
0.0
 11
121.6790344618154
 21
112.2900136943744
 31
0.0
  0
LINE
  5
364
  8
0
  6
CONTINUOUS
 62
     2
 10
121.6790413369109
 20
112.2900384810909
 30
0.0
 11
125.7493737545248
 21
114.6400403824681
 31
0.0
  0
LINE
  5
365
  8
0
  6
CONTINUOUS
 62
     2
 10
125.7493572313384
 20
114.6400172576695
 30
0.0
 11
125.7493572313384
 21
119.3400142059117
 31
0.0
  0
LINE
  5
366
  8
0
  6
CONTINUOUS
 62
     2
 10
125.7493426767957
 20
119.3399818643447
 30
0.0
 11
121.6790290765217
 21
121.6899859412987
 31
0.0
  0
LINE
  5
367
  8
0
  6
CONTINUOUS
 62
     2
 10
71.8823414773338
 20
5.440027772165564
 30
0.0
 11
67.81201566697342
 21
3.090029825549806
 31
0.0
  0
LINE
  5
368
  8
0
  6
CONTINUOUS
 62
     2
 10
67.81201744862358
 20
3.090030418375051
 30
0.0
 11
67.81201744862358
 21
-1.609968914052928
 31
0.0
  0
LINE
  5
369
  8
0
  6
CONTINUOUS
 62
     2
 10
67.81200683553527
 20
-1.609966702723881
 30
0.0
 11
71.88232816362199
 21
-3.95997235324748
 31
0.0
  0
LINE
  5
36A
  8
0
  6
CONTINUOUS
 62
     2
 10
71.88234825134271
 20
-3.959991348320813
 30
0.0
 11
75.95267406170308
 21
-1.609993261634003
 31
0.0
  0
LINE
  5
36B
  8
0
  6
CONTINUOUS
 62
     2
 10
75.95265770741264
 20
-1.609976543447459
 30
0.0
 11
75.95265770741264
 21
3.090022788980519
 31
0.0
  0
LINE
  5
36C
  8
0
  6
CONTINUOUS
 62
     2
 10
75.95265146283566
 20
3.09001730720766
 30
0.0
 11
71.88233786256171
 21
5.440021384161724
 31
0.0
  0
LINE
  5
36D
  8
0
  6
CONTINUOUS
 62
     2
 10
45.90182694110143
 20
-9.559973149044339
 30
0.0
 11
41.83150113074106
 21
-11.9099710956601
 31
0.0
  0
LINE
  5
36E
  8
0
  6
CONTINUOUS
 62
     2
 10
41.83150292225639
 20
-11.90997172739216
 30
0.0
 11
41.83150292225639
 21
-16.60997272875019
 31
0.0
  0
LINE
  5
36F
  8
0
  6
CONTINUOUS
 62
     2
 10
41.83150109909514
 20
-16.60996801066094
 30
0.0
 11
45.90181581993568
 21
-18.95996984648181
 31
0.0
  0
LINE
  5
370
  8
0
  6
CONTINUOUS
 62
     2
 10
45.90183180776978
 20
-18.95998985996729
 30
0.0
 11
49.97215431450343
 21
-16.60999368062571
 31
0.0
  0
LINE
  5
371
  8
0
  6
CONTINUOUS
 62
     2
 10
49.97214318104545
 20
-16.60998035814473
 30
0.0
 11
49.97214318104545
 21
-11.90997935678669
 31
0.0
  0
LINE
  5
372
  8
0
  6
CONTINUOUS
 62
     2
 10
49.97214256764539
 20
-11.9099761205367
 30
0.0
 11
45.90182896737144
 21
-9.559972043582633
 31
0.0
  0
LINE
  5
373
  8
0
  6
CONTINUOUS
 62
     2
 10
171.4757933374016
 20
5.440039156511745
 30
0.0
 11
167.4054609197877
 21
3.090037395205769
 31
0.0
  0
LINE
  5
374
  8
0
  6
CONTINUOUS
 62
     2
 10
167.4054546434478
 20
3.090034233072316
 30
0.0
 11
167.4054546434478
 21
-1.609965099355662
 31
0.0
  0
LINE
  5
375
  8
0
  6
CONTINUOUS
 62
     2
 10
167.4054419248192
 20
-1.609966024304498
 30
0.0
 11
171.4757698601521
 21
-3.95997548953082
 31
0.0
  0
LINE
  5
376
  8
0
  6
CONTINUOUS
 62
     2
 10
171.4757988713574
 20
-3.960003192836751
 30
0.0
 11
175.5461312889712
 21
-1.610001291459497
 31
0.0
  0
LINE
  5
377
  8
0
  6
CONTINUOUS
 62
     2
 10
175.5460796434478
 20
-1.609972728750194
 30
0.0
 11
175.5460796434478
 21
3.090026603677785
 31
0.0
  0
LINE
  5
378
  8
0
  6
CONTINUOUS
 62
     2
 10
175.5460988960464
 20
3.090003744030497
 30
0.0
 11
171.4757720812837
 21
5.440015450397283
 31
0.0
  0
LINE
  5
379
  8
0
  6
CONTINUOUS
 62
     2
 10
197.4562932705377
 20
-9.559958894236019
 30
0.0
 11
193.3859608529239
 21
-11.90996065554199
 31
0.0
  0
LINE
  5
37A
  8
0
  6
CONTINUOUS
 62
     2
 10
193.385969169815
 20
-11.90996409799763
 30
0.0
 11
193.385969169815
 21
-16.60996509935566
 31
0.0
  0
LINE
  5
37B
  8
0
  6
CONTINUOUS
 62
     2
 10
193.3859658608295
 20
-16.60998080115232
 30
0.0
 11
197.4562937961624
 21
-18.95999026637864
 31
0.0
  0
LINE
  5
37C
  8
0
  6
CONTINUOUS
 62
     2
 10
197.4563166079735
 20
-18.95999977442816
 30
0.0
 11
201.5266490255873
 21
-16.6099978730509
 31
0.0
  0
LINE
  5
37D
  8
0
  6
CONTINUOUS
 62
     2
 10
201.526594169815
 20
-16.60997272875019
 30
0.0
 11
201.526594169815
 21
-11.90997172739216
 31
0.0
  0
LINE
  5
37E
  8
0
  6
CONTINUOUS
 62
     2
 10
201.5266121387564
 20
-11.90997043552042
 30
0.0
 11
197.4562853239937
 21
-9.559958729153635
 31
0.0
  0
LINE
  5
37F
  8
0
  6
CONTINUOUS
 62
     2
 10
87.3044764476266
 20
62.78483762069655
 30
0.0
 11
89.85925028253894
 21
64.25983345731484
 31
0.0
  0
LINE
  5
380
  8
0
  6
CONTINUOUS
 62
     2
 10
89.85924575379192
 20
64.25981937533894
 30
0.0
 11
92.41401589620034
 21
62.78481720871392
 31
0.0
  0
LINE
  5
381
  8
0
  6
CONTINUOUS
 62
     2
 10
92.41402245350639
 20
62.78482316587261
 30
0.0
 11
92.41402245350639
 21
59.83482621763042
 31
0.0
  0
LINE
  5
382
  8
0
  6
CONTINUOUS
 62
     2
 10
92.41401185369574
 20
59.83482794914167
 30
0.0
 11
89.8592380187834
 21
58.35983220044014
 31
0.0
  0
LINE
  5
383
  8
0
  6
CONTINUOUS
 62
     2
 10
89.8592367436446
 20
58.35983363620622
 30
0.0
 11
87.30446572206859
 21
59.83483439616308
 31
0.0
  0
LINE
  5
384
  8
0
  6
CONTINUOUS
 62
     2
 10
87.30446434803764
 20
59.83483384702495
 30
0.0
 11
87.30446434803764
 21
62.78483079526714
 31
0.0
  0
LINE
  5
385
  8
0
  6
CONTINUOUS
 62
     2
 10
75.65762808582747
 20
42.61189075113626
 30
0.0
 11
78.21240192073981
 21
44.08688658775455
 31
0.0
  0
LINE
  5
386
  8
0
  6
CONTINUOUS
 62
     2
 10
78.21239523269867
 20
44.08687375457581
 30
0.0
 11
80.76716537510708
 21
42.61187158795079
 31
0.0
  0
LINE
  5
387
  8
0
  6
CONTINUOUS
 62
     2
 10
80.76717186756889
 20
42.6118838653355
 30
0.0
 11
80.76717186756889
 21
39.66188310239605
 31
0.0
  0
LINE
  5
388
  8
0
  6
CONTINUOUS
 62
     2
 10
80.76715573287784
 20
39.66187925980879
 30
0.0
 11
78.2123818979655
 21
38.18688351110725
 31
0.0
  0
LINE
  5
389
  8
0
  6
CONTINUOUS
 62
     2
 10
78.21239072262245
 20
38.18688488809826
 30
0.0
 11
75.65761970104643
 21
39.66188564805512
 31
0.0
  0
LINE
  5
38A
  8
0
  6
CONTINUOUS
 62
     2
 10
75.65761376210014
 20
39.66188691709331
 30
0.0
 11
75.65761376210014
 21
42.61188768003277
 31
0.0
  0
LINE
  5
38B
  8
0
  6
CONTINUOUS
 62
     2
 10
107.4774310982185
 20
-12.50163438326226
 30
0.0
 11
110.0322049331309
 21
-11.02663854664397
 31
0.0
  0
LINE
  5
38C
  8
0
  6
CONTINUOUS
 62
     2
 10
110.0321907218944
 20
-11.02663494336761
 30
0.0
 11
112.5869608643028
 21
-12.50163710999263
 31
0.0
  0
LINE
  5
38D
  8
0
  6
CONTINUOUS
 62
     2
 10
112.5869655687408
 20
-12.5016369953365
 30
0.0
 11
112.5869655687408
 21
-15.4516360893459
 31
0.0
  0
LINE
  5
38E
  8
0
  6
CONTINUOUS
 62
     2
 10
112.586952884959
 20
-15.45163900924226
 30
0.0
 11
110.0321790500467
 21
-16.92663475794379
 31
0.0
  0
LINE
  5
38F
  8
0
  6
CONTINUOUS
 62
     2
 10
110.0321940363516
 20
-16.92663293057612
 30
0.0
 11
107.4774230147756
 21
-15.45163217061926
 31
0.0
  0
LINE
  5
390
  8
0
  6
CONTINUOUS
 62
     2
 10
107.4774227220611
 20
-15.45163227464863
 30
0.0
 11
107.4774227220611
 21
-12.5016312732906
 31
0.0
  0
LINE
  5
391
  8
0
  6
CONTINUOUS
 62
     2
 10
130.7711498854116
 20
-12.50163075141026
 30
0.0
 11
133.3259237203239
 21
-11.02663491479197
 31
0.0
  0
LINE
  5
392
  8
0
  6
CONTINUOUS
 62
     2
 10
133.3259010094076
 20
-11.0266344194043
 30
0.0
 11
135.8806711518161
 21
-12.50163658602932
 31
0.0
  0
LINE
  5
393
  8
0
  6
CONTINUOUS
 62
     2
 10
135.8806743700103
 20
-12.5016369953365
 30
0.0
 11
135.8806743700103
 21
-15.4516360893459
 31
0.0
  0
LINE
  5
394
  8
0
  6
CONTINUOUS
 62
     2
 10
135.880681746993
 20
-15.45163877115473
 30
0.0
 11
133.3259079120807
 21
-16.92663451985627
 31
0.0
  0
LINE
  5
395
  8
0
  6
CONTINUOUS
 62
     2
 10
133.3259122746359
 20
-16.92663685664465
 30
0.0
 11
130.7711412530599
 21
-15.45163609668779
 31
0.0
  0
LINE
  5
396
  8
0
  6
CONTINUOUS
 62
     2
 10
130.7711315233306
 20
-15.45163227464863
 30
0.0
 11
130.7711315233306
 21
-12.5016312732906
 31
0.0
  0
LINE
  5
397
  8
0
  6
CONTINUOUS
 62
     2
 10
150.9440741033814
 20
62.78483700575171
 30
0.0
 11
153.4988611528006
 21
64.25984047175089
 31
0.0
  0
LINE
  5
398
  8
0
  6
CONTINUOUS
 62
     2
 10
153.4988552734654
 20
64.25982863354412
 30
0.0
 11
156.0536254158739
 21
62.7848264669191
 31
0.0
  0
LINE
  5
399
  8
0
  6
CONTINUOUS
 62
     2
 10
156.0536327440337
 20
62.78483079526714
 30
0.0
 11
156.0536327440337
 21
59.83483384702495
 31
0.0
  0
LINE
  5
39A
  8
0
  6
CONTINUOUS
 62
     2
 10
156.0536444584332
 20
59.83483980969632
 30
0.0
 11
153.498857409014
 21
58.35983643161436
 31
0.0
  0
LINE
  5
39B
  8
0
  6
CONTINUOUS
 62
     2
 10
153.4988492858871
 20
58.35985120648311
 30
0.0
 11
150.9440782643111
 21
59.83485196643997
 31
0.0
  0
LINE
  5
39C
  8
0
  6
CONTINUOUS
 62
     2
 10
150.944074638565
 20
59.83483384702495
 30
0.0
 11
150.944074638565
 21
62.78483842466167
 31
0.0
  0
LINE
  5
39D
  8
0
  6
CONTINUOUS
 62
     2
 10
162.5909388751944
 20
42.61188830153961
 30
0.0
 11
165.1457259246137
 21
44.08689176753879
 31
0.0
  0
LINE
  5
39E
  8
0
  6
CONTINUOUS
 62
     2
 10
165.1457027105813
 20
44.08687744058526
 30
0.0
 11
167.7004728529897
 21
42.61187527396024
 31
0.0
  0
LINE
  5
39F
  8
0
  6
CONTINUOUS
 62
     2
 10
167.7004833299712
 20
42.6118838653355
 30
0.0
 11
167.7004833299712
 21
39.66188310239605
 31
0.0
  0
LINE
  5
3A0
  8
0
  6
CONTINUOUS
 62
     2
 10
167.7004934141874
 20
39.6618867797296
 30
0.0
 11
165.1457063647681
 21
38.18688340164763
 31
0.0
  0
LINE
  5
3A1
  8
0
  6
CONTINUOUS
 62
     2
 10
165.1457138737429
 20
38.18688531781427
 30
0.0
 11
162.5909428521669
 21
39.66188607777113
 31
0.0
  0
LINE
  5
3A2
  8
0
  6
CONTINUOUS
 62
     2
 10
162.5909252245025
 20
39.66188691709331
 30
0.0
 11
162.5909252245025
 21
42.61188768003277
 31
0.0
  0
LINE
  5
3A3
  8
0
  6
CONTINUOUS
 62
     2
 10
121.679070581626
 20
91.69003287918386
 30
0.0
 11
117.6087381640122
 21
89.34003111787789
 31
0.0
  0
LINE
  5
3A4
  8
0
  6
CONTINUOUS
 62
     2
 10
117.6087322313384
 20
89.3400218353062
 30
0.0
 11
117.6087322313384
 21
84.64002488706402
 31
0.0
  0
LINE
  5
3A5
  8
0
  6
CONTINUOUS
 62
     2
 10
117.6087172336144
 20
84.64002461509054
 30
0.0
 11
121.6790319544549
 21
82.29002277926966
 31
0.0
  0
LINE
  5
3A6
  8
0
  6
CONTINUOUS
 62
     2
 10
121.6790606128241
 20
82.29004275816706
 30
0.0
 11
125.7493930304379
 21
84.64004465954432
 31
0.0
  0
LINE
  5
3A7
  8
0
  6
CONTINUOUS
 62
     2
 10
125.7493572313384
 20
84.64001725766948
 30
0.0
 11
125.7493572313384
 21
89.34001420591167
 31
0.0
  0
LINE
  5
3A8
  8
0
  6
CONTINUOUS
 62
     2
 10
125.7493374190577
 20
89.33998236155449
 30
0.0
 11
121.6790304260281
 21
91.68998262380219
 31
0.0
  0
CIRCLE
  5
3A9
  8
0
  6
CONTINUOUS
 62
     2
 10
168.8253917772369
 20
76.63637040708355
 30
0.0
 40
9.0
  0
CIRCLE
  5
3AA
  8
0
  6
CONTINUOUS
 62
     2
 10
186.0821514207916
 20
46.74678681943706
 30
0.0
 40
9.0
  0
CIRCLE
  5
3AB
  8
0
  6
CONTINUOUS
 62
     2
 10
138.9358043748931
 20
-34.91308142091938
 30
0.0
 40
9.0
  0
CIRCLE
  5
3AC
  8
0
  6
CONTINUOUS
 62
     2
 10
104.4222927171783
 20
-34.91308142091938
 30
0.0
 40
9.0
  0
CIRCLE
  5
3AD
  8
0
  6
CONTINUOUS
 62
     2
 10
57.27594185658256
 20
46.74678681943706
 30
0.0
 40
9.0
  0
CIRCLE
  5
3AE
  8
0
  6
CONTINUOUS
 62
     2
 10
74.53270531483452
 20
76.63637040708355
 30
0.0
 40
9.0
  0
CIRCLE
  5
3AF
  8
0
  6
CONTINUOUS
 62
     2
 10
121.679052360733
 20
116.9900233611851
 30
0.0
 40
8.0
  0
CIRCLE
  5
3B0
  8
0
  6
CONTINUOUS
 62
     2
 10
71.88233757801811
 20
0.7400281295566913
 30
0.0
 40
8.0
  0
CIRCLE
  5
3B1
  8
0
  6
CONTINUOUS
 62
     2
 10
45.90182305165092
 20
-14.2599742546291
 30
0.0
 40
8.0
  0
CIRCLE
  5
3B2
  8
0
  6
CONTINUOUS
 62
     2
 10
171.4757671434478
 20
0.7400319442539569
 30
0.0
 40
8.0
  0
CIRCLE
  5
3B3
  8
0
  6
CONTINUOUS
 62
     2
 10
197.456281669815
 20
-14.25996662523457
 30
0.0
 40
8.0
  0
CIRCLE
  5
3B4
  8
0
  6
CONTINUOUS
 62
     2
 10
89.85924340077202
 20
61.30983232114605
 30
0.0
 40
5.0
  0
CIRCLE
  5
3B5
  8
0
  6
CONTINUOUS
 62
     2
 10
78.21239281483452
 20
41.13688539121441
 30
0.0
 40
5.0
  0
CIRCLE
  5
3B6
  8
0
  6
CONTINUOUS
 62
     2
 10
110.0321941454009
 20
-13.97663380052754
 30
0.0
 40
5.0
  0
CIRCLE
  5
3B7
  8
0
  6
CONTINUOUS
 62
     2
 10
133.3258953172759
 20
-13.97663380052754
 30
0.0
 40
5.0
  0
CIRCLE
  5
3B8
  8
0
  6
CONTINUOUS
 62
     2
 10
153.4988536912994
 20
61.30983232114605
 30
0.0
 40
5.0
  0
CIRCLE
  5
3B9
  8
0
  6
CONTINUOUS
 62
     2
 10
165.1457042772369
 20
41.13688539121441
 30
0.0
 40
5.0
  0
CIRCLE
  5
3BA
  8
0
  6
CONTINUOUS
 62
     2
 10
121.679052360733
 20
86.99002336118511
 30
0.0
 40
8.0
  0
LINE
  5
3BB
  8
0
  6
CONTINUOUS
 62
     4
 10
105.5310573656158
 20
135.4900233611851
 30
0.0
 11
113.1977214891509
 21
135.4900233611851
 31
0.0
  0
LINE
  5
3BC
  8
0
  6
CONTINUOUS
 62
     4
 10
130.1977214891509
 20
135.4900233611851
 30
0.0
 11
137.8643779832916
 21
135.4900233611851
 31
0.0
  0
LINE
  5
3BD
  8
0
  6
CONTINUOUS
 62
     4
 10
130.1977214891509
 20
133.9900233611851
 30
0.0
 11
137.8643779832916
 21
133.9900233611851
 31
0.0
  0
LINE
  5
3BE
  8
0
  6
CONTINUOUS
 62
     4
 10
130.1977214891509
 20
132.4900233611851
 30
0.0
 11
137.8643779832916
 21
132.4900233611851
 31
0.0
  0
LINE
  5
3BF
  8
0
  6
CONTINUOUS
 62
     4
 10
130.1977214891509
 20
130.9900233611851
 30
0.0
 11
137.8643779832916
 21
130.9900233611851
 31
0.0
  0
LINE
  5
3C0
  8
0
  6
CONTINUOUS
 62
     4
 10
130.1977214891509
 20
129.4900233611851
 30
0.0
 11
137.8643779832916
 21
129.4900233611851
 31
0.0
  0
LINE
  5
3C1
  8
0
  6
CONTINUOUS
 62
     4
 10
130.1977214891509
 20
127.9900233611851
 30
0.0
 11
137.8643779832916
 21
127.9900233611851
 31
0.0
  0
LINE
  5
3C2
  8
0
  6
CONTINUOUS
 62
     4
 10
130.1977214891509
 20
126.4900233611851
 30
0.0
 11
137.8643779832916
 21
126.4900233611851
 31
0.0
  0
LINE
  5
3C3
  8
0
  6
CONTINUOUS
 62
     4
 10
105.5310573656158
 20
133.9900233611851
 30
0.0
 11
113.1977214891509
 21
133.9900233611851
 31
0.0
  0
LINE
  5
3C4
  8
0
  6
CONTINUOUS
 62
     4
 10
105.5310573656158
 20
132.4900233611851
 30
0.0
 11
113.1977214891509
 21
132.4900233611851
 31
0.0
  0
LINE
  5
3C5
  8
0
  6
CONTINUOUS
 62
     4
 10
105.5310573656158
 20
130.9900233611851
 30
0.0
 11
113.1977214891509
 21
130.9900233611851
 31
0.0
  0
LINE
  5
3C6
  8
0
  6
CONTINUOUS
 62
     4
 10
105.5310573656158
 20
129.4900233611851
 30
0.0
 11
113.1977214891509
 21
129.4900233611851
 31
0.0
  0
LINE
  5
3C7
  8
0
  6
CONTINUOUS
 62
     4
 10
105.5310573656158
 20
127.9900233611851
 30
0.0
 11
113.1977214891509
 21
127.9900233611851
 31
0.0
  0
LINE
  5
3C8
  8
0
  6
CONTINUOUS
 62
     4
 10
105.5310573656158
 20
126.4900233611851
 30
0.0
 11
113.1977214891509
 21
126.4900233611851
 31
0.0
  0
LINE
  5
3C9
  8
0
  6
CONTINUOUS
 62
     4
 10
105.5310573656158
 20
84.49002336118511
 30
0.0
 11
113.1977214891509
 21
84.49002336118511
 31
0.0
  0
LINE
  5
3CA
  8
0
  6
CONTINUOUS
 62
     4
 10
105.5310573656158
 20
82.99002336118511
 30
0.0
 11
113.1977214891509
 21
82.99002336118511
 31
0.0
  0
LINE
  5
3CB
  8
0
  6
CONTINUOUS
 62
     4
 10
130.1977214891509
 20
84.49002336118511
 30
0.0
 11
137.8643779832916
 21
84.49002336118511
 31
0.0
  0
LINE
  5
3CC
  8
0
  6
CONTINUOUS
 62
     4
 10
130.1977214891509
 20
82.99002336118511
 30
0.0
 11
137.8643779832916
 21
82.99002336118511
 31
0.0
  0
LINE
  5
3CD
  8
0
  6
CONTINUOUS
 62
     4
 10
130.1977214891509
 20
81.49002336118511
 30
0.0
 11
137.8643779832916
 21
81.49002336118511
 31
0.0
  0
LINE
  5
3CE
  8
0
  6
CONTINUOUS
 62
     4
 10
130.1977214891509
 20
79.99002336118511
 30
0.0
 11
137.8643779832916
 21
79.99002336118511
 31
0.0
  0
LINE
  5
3CF
  8
0
  6
CONTINUOUS
 62
     4
 10
130.1977214891509
 20
78.49002336118511
 30
0.0
 11
137.8643779832916
 21
78.49002336118511
 31
0.0
  0
LINE
  5
3D0
  8
0
  6
CONTINUOUS
 62
     4
 10
105.5310573656158
 20
81.49002336118511
 30
0.0
 11
113.1977214891509
 21
81.49002336118511
 31
0.0
  0
LINE
  5
3D1
  8
0
  6
CONTINUOUS
 62
     4
 10
105.5310573656158
 20
79.99002336118511
 30
0.0
 11
113.1977214891509
 21
79.99002336118511
 31
0.0
  0
LINE
  5
3D2
  8
0
  6
CONTINUOUS
 62
     4
 10
105.5310573656158
 20
78.49002336118511
 30
0.0
 11
113.1977214891509
 21
78.49002336118511
 31
0.0
  0
LINE
  5
3D3
  8
0
  6
CONTINUOUS
 62
     4
 10
105.5310573656158
 20
76.99002336118511
 30
0.0
 11
113.1977214891509
 21
76.99002336118511
 31
0.0
  0
LINE
  5
3D4
  8
0
  6
CONTINUOUS
 62
     4
 10
130.1977214891509
 20
76.99002336118511
 30
0.0
 11
137.8643779832916
 21
76.99002336118511
 31
0.0
  0
LINE
  5
3D5
  8
0
  6
CONTINUOUS
 62
     4
 10
-69.92566870860298
 20
136.9900233611851
 30
0.0
 11
-69.92566870860298
 21
125.9900233611851
 31
0.0
  0
LINE
  5
3D6
  8
0
  6
CONTINUOUS
 62
     4
 10
-70.92566870860298
 20
136.9900233611851
 30
0.0
 11
-70.92566870860298
 21
125.9900233611851
 31
0.0
  0
LINE
  5
3D7
  8
0
  6
CONTINUOUS
 62
     4
 10
-151.6575641553803
 20
-14.70997501756855
 30
0.0
 11
-149.6575641553803
 21
-14.70997501756855
 31
0.0
  0
LINE
  5
3D8
  8
0
  6
CONTINUOUS
 62
     4
 10
-151.6575641553803
 20
73.69002793882183
 30
0.0
 11
-137.6575641553803
 21
73.69002793882183
 31
0.0
  0
LINE
  5
3D9
  8
0
  6
CONTINUOUS
 62
     4
 10
-179.6575641553803
 20
-6.509974016210521
 30
0.0
 11
-163.6575641553803
 21
-6.509974016210521
 31
0.0
  0
LINE
  5
3DA
  8
0
  6
CONTINUOUS
 62
     4
 10
-179.6575641553803
 20
65.49002336118511
 30
0.0
 11
-163.6575641553803
 21
65.49002336118511
 31
0.0
  0
LINE
  5
3DB
  8
0
  6
CONTINUOUS
 62
     4
 10
-149.3075580518647
 20
-9.009974090716327
 30
0.0
 11
-149.3075580518647
 21
-19.50997377779194
 31
0.0
  0
LINE
  5
3DC
  8
0
  6
CONTINUOUS
 62
     4
 10
-146.007570258896
 20
-9.009974090716327
 30
0.0
 11
-146.007570258896
 21
-19.50997377779194
 31
0.0
  0
LINE
  5
3DD
  8
0
  6
CONTINUOUS
 62
     4
 10
-149.6575641553803
 20
-9.009974090716327
 30
0.0
 11
-149.6575641553803
 21
-19.50997377779194
 31
0.0
  0
LINE
  5
3DE
  8
0
  6
CONTINUOUS
 62
     4
 10
-145.6575641553803
 20
-9.009974090716327
 30
0.0
 11
-145.6575641553803
 21
-19.50997377779194
 31
0.0
  0
LINE
  5
3DF
  8
0
  6
CONTINUOUS
 62
     4
 10
-145.6575641553803
 20
-14.70997501756855
 30
0.0
 11
-137.6575641553803
 21
-14.70997501756855
 31
0.0
  0
LINE
  5
3E0
  8
0
  6
CONTINUOUS
 62
     4
 10
-149.6575641553803
 20
-11.50997401621052
 30
0.0
 11
-145.6575641553803
 21
-11.50997401621052
 31
0.0
  0
LINE
  5
3E1
  8
0
  6
CONTINUOUS
 62
     4
 10
-83.92566870860298
 20
91.14002488706402
 30
0.0
 11
-60.92567252330025
 21
91.14002488706402
 31
0.0
  0
LINE
  5
3E2
  8
0
  6
CONTINUOUS
 62
     4
 10
-83.92566870860298
 20
82.8400218353062
 30
0.0
 11
-60.92567252330025
 21
82.8400218353062
 31
0.0
  0
LINE
  5
3E3
  8
0
  6
CONTINUOUS
 62
     4
 10
-83.92566870860298
 20
112.8400218353062
 30
0.0
 11
-60.92567252330025
 21
112.8400218353062
 31
0.0
  0
LINE
  5
3E4
  8
0
  6
CONTINUOUS
 62
     4
 10
-83.92566870860298
 20
121.1400325164586
 30
0.0
 11
-60.92567252330025
 21
121.1400325164586
 31
0.0
  0
LINE
  5
3E5
  8
0
  6
CONTINUOUS
 62
     4
 10
-69.92566870860298
 20
77.99002336118511
 30
0.0
 11
-69.92566870860298
 21
75.49002336118511
 31
0.0
  0
LINE
  5
3E6
  8
0
  6
CONTINUOUS
 62
     4
 10
-70.92566870860298
 20
77.99002336118511
 30
0.0
 11
-70.92566870860298
 21
75.49002336118511
 31
0.0
  0
LINE
  5
3E7
  8
0
  6
CONTINUOUS
 62
     4
 10
-59.92567043936685
 20
113.6806242213841
 30
0.0
 11
-55.92566782993197
 21
115.9900265495533
 31
0.0
  0
LINE
  5
3E8
  8
0
  6
CONTINUOUS
 62
     4
 10
-55.92567108576156
 20
115.9900296546518
 30
0.0
 11
-51.92567508357649
 21
113.6806311411796
 31
0.0
  0
LINE
  5
3E9
  8
0
  6
CONTINUOUS
 62
     4
 10
-58.92567085705275
 20
115.9900293388045
 30
0.0
 11
-51.92567289779152
 21
111.9485790792054
 31
0.0
  0
LINE
  5
3EA
  8
0
  6
CONTINUOUS
 62
     4
 10
-59.92567593087631
 20
114.8353316735696
 30
0.0
 11
-51.92567731925635
 21
110.2165308319283
 31
0.0
  0
LINE
  5
3EB
  8
0
  6
CONTINUOUS
 62
     4
 10
-59.92567374509133
 20
113.1032796115955
 30
0.0
 11
-54.53336502548962
 21
109.9900290647378
 31
0.0
  0
LINE
  5
3EC
  8
0
  6
CONTINUOUS
 62
     4
 10
-59.92567816655617
 20
111.3712313643183
 30
0.0
 11
-57.5333647967808
 21
109.9900287488905
 31
0.0
  0
LINE
  5
3ED
  8
0
  6
CONTINUOUS
 62
     4
 10
-59.92566932152693
 20
111.9485740667585
 30
0.0
 11
-52.92566640682833
 21
115.9900271873803
 31
0.0
  0
LINE
  5
3EE
  8
0
  6
CONTINUOUS
 62
     4
 10
-59.9256715073119
 20
110.2165220047843
 30
0.0
 11
-51.92566959206704
 21
114.8353247537742
 31
0.0
  0
LINE
  5
3EF
  8
0
  6
CONTINUOUS
 62
     4
 10
-57.31797389020392
 20
109.9900259596394
 30
0.0
 11
-51.92566847422711
 21
113.1032745991485
 31
0.0
  0
LINE
  5
3F0
  8
0
  6
CONTINUOUS
 62
     4
 10
-54.3179732930065
 20
109.9900261206292
 30
0.0
 11
-51.92567066001209
 21
111.3712225371744
 31
0.0
  0
LINE
  5
3F1
  8
0
  6
CONTINUOUS
 62
     4
 10
-52.92567131447038
 20
115.990029970499
 30
0.0
 11
-51.92567726936147
 21
115.4126832031538
 31
0.0
  0
LINE
  5
3F2
  8
0
  6
CONTINUOUS
 62
     4
 10
-59.92567155720678
 20
115.4126743760098
 30
0.0
 11
-58.92566677531693
 21
115.9900273422377
 31
0.0
  0
LINE
  5
3F3
  8
0
  6
CONTINUOUS
 62
     4
 10
-55.92567644188716
 20
85.99003245281202
 30
0.0
 11
-51.92567383245228
 21
83.68063012464282
 31
0.0
  0
LINE
  5
3F4
  8
0
  6
CONTINUOUS
 62
     4
 10
-59.92567369595861
 20
83.68063526148917
 30
0.0
 11
-55.92568202978123
 21
85.99003127156641
 31
0.0
  0
LINE
  5
3F5
  8
0
  6
CONTINUOUS
 62
     4
 10
-52.92567667059598
 20
85.99003276865929
 30
0.0
 11
-51.92567601823726
 21
85.41268218661699
 31
0.0
  0
LINE
  5
3F6
  8
0
  6
CONTINUOUS
 62
     4
 10
-59.92567522675165
 20
85.41268517769626
 30
0.0
 11
-58.92568200754897
 21
85.99003146820439
 31
0.0
  0
LINE
  5
3F7
  8
0
  6
CONTINUOUS
 62
     4
 10
-59.92567588174359
 20
81.948583199515
 30
0.0
 11
-52.92568184553693
 21
85.99003119413769
 31
0.0
  0
LINE
  5
3F8
  8
0
  6
CONTINUOUS
 62
     4
 10
-59.92567476390366
 20
80.21653304488935
 30
0.0
 11
-51.92567326161191
 21
84.83533555546066
 31
0.0
  0
LINE
  5
3F9
  8
0
  6
CONTINUOUS
 62
     4
 10
-57.31798623176417
 20
79.99003175453599
 30
0.0
 11
-51.92567524092033
 21
83.10328361269578
 31
0.0
  0
LINE
  5
3FA
  8
0
  6
CONTINUOUS
 62
     4
 10
-54.31798581523374
 20
79.99003181121772
 30
0.0
 11
-51.92567391660384
 21
81.3712335772794
 31
0.0
  0
LINE
  5
3FB
  8
0
  6
CONTINUOUS
 62
     4
 10
-58.92567621317835
 20
85.99003213696474
 30
0.0
 11
-51.92567825391711
 21
81.94858187736568
 31
0.0
  0
LINE
  5
3FC
  8
0
  6
CONTINUOUS
 62
     4
 10
-59.92567467975209
 20
84.83533065703287
 30
0.0
 11
-51.92567606813213
 21
80.21652981539151
 31
0.0
  0
LINE
  5
3FD
  8
0
  6
CONTINUOUS
 62
     4
 10
-59.92567910121693
 20
83.10328240975574
 30
0.0
 11
-54.53337038161521
 21
79.99003186289806
 31
0.0
  0
LINE
  5
3FE
  8
0
  6
CONTINUOUS
 62
     4
 10
-59.92567691543195
 20
81.37123034778156
 30
0.0
 11
-57.5333701529064
 21
79.99003154705079
 31
0.0
  0
LINE
  5
3FF
  8
0
  6
CONTINUOUS
 62
     4
 10
-80.92566870860298
 20
-17.50997377779194
 30
0.0
 11
-71.92566870860298
 21
-17.50997377779194
 31
0.0
  0
LINE
  5
400
  8
0
  6
CONTINUOUS
 62
     4
 10
-80.92566870860298
 20
-13.5099742546291
 30
0.0
 11
-71.92566870860298
 21
-13.5099742546291
 31
0.0
  0
LINE
  5
401
  8
0
  6
CONTINUOUS
 62
     4
 10
-80.92566870860298
 20
-18.00997377779194
 30
0.0
 11
-71.92566870860298
 21
-18.00997377779194
 31
0.0
  0
LINE
  5
402
  8
0
  6
CONTINUOUS
 62
     4
 10
-80.92566870860298
 20
-13.00997401621052
 30
0.0
 11
-71.92566870860298
 21
-13.00997401621052
 31
0.0
  0
CIRCLE
  5
403
  8
0
  6
CONTINUOUS
 62
     4
 10
121.679052360733
 20
-15.5099742546291
 30
0.0
 40
2.5
  0
CIRCLE
  5
404
  8
0
  6
CONTINUOUS
 62
     4
 10
160.6501903612212
 20
51.99002717588238
 30
0.0
 40
2.5
  0
CIRCLE
  5
405
  8
0
  6
CONTINUOUS
 62
     4
 10
82.70790673085014
 20
51.99002717588238
 30
0.0
 40
2.5
  0
ARC
  5
406
  8
0
  6
CONTINUOUS
 62
     4
 10
121.679052360733
 20
29.49002717588238
 30
0.0
 40
75.5
 50
20.95717871337685
 51
39.04281954118068
  0
ARC
  5
407
  8
0
  6
CONTINUOUS
 62
     4
 10
121.679052360733
 20
29.49002717588238
 30
0.0
 40
69.5
 50
24.39327613008101
 51
35.60672212447652
  0
ARC
  5
408
  8
0
  6
CONTINUOUS
 62
     4
 10
121.679052360733
 20
29.49002717588238
 30
0.0
 40
63.5
 50
24.74448616475036
 51
35.25551379735446
  0
ARC
  5
409
  8
0
  6
CONTINUOUS
 62
     4
 10
121.679052360733
 20
29.49002717588238
 30
0.0
 40
57.5
 50
21.41901219939101
 51
38.5809894702611
  0
ARC
  5
40A
  8
0
  6
CONTINUOUS
 62
     4
 10
121.679052360733
 20
29.49002717588238
 30
0.0
 40
75.5
 50
104.6539479724979
 51
129.0428322909426
  0
ARC
  5
40B
  8
0
  6
CONTINUOUS
 62
     4
 10
121.679052360733
 20
29.49002717588238
 30
0.0
 40
69.5
 50
105.9513150845852
 51
125.6067417044276
  0
ARC
  5
40C
  8
0
  6
CONTINUOUS
 62
     4
 10
121.679052360733
 20
29.49002717588238
 30
0.0
 40
63.5
 50
107.5049167433854
 51
125.2555333773056
  0
ARC
  5
40D
  8
0
  6
CONTINUOUS
 62
     4
 10
121.679052360733
 20
29.49002717588238
 30
0.0
 40
57.5
 50
109.4007928418734
 51
128.581002220023
  0
ARC
  5
40E
  8
0
  6
CONTINUOUS
 62
     4
 10
121.679052360733
 20
29.49002717588238
 30
0.0
 40
75.5
 50
50.80870831111974
 51
75.34606386664758
  0
ARC
  5
40F
  8
0
  6
CONTINUOUS
 62
     4
 10
121.679052360733
 20
29.49002717588238
 30
0.0
 40
69.5
 50
54.39328379509623
 51
74.04869675456035
  0
ARC
  5
410
  8
0
  6
CONTINUOUS
 62
     4
 10
121.679052360733
 20
29.49002717588238
 30
0.0
 40
63.5
 50
54.74448187693454
 51
72.49509509576008
  0
ARC
  5
411
  8
0
  6
CONTINUOUS
 62
     4
 10
121.679052360733
 20
29.49002717588238
 30
0.0
 40
57.5
 50
51.41900961912248
 51
70.59921899727213
  0
ARC
  5
412
  8
0
  6
CONTINUOUS
 62
     4
 10
121.679052360733
 20
29.49002717588238
 30
0.0
 40
75.5
 50
344.6539378030045
 51
369.04281529126
  0
ARC
  5
413
  8
0
  6
CONTINUOUS
 62
     4
 10
121.679052360733
 20
29.49002717588238
 30
0.0
 40
69.5
 50
345.9513023537708
 51
365.6067110443667
  0
ARC
  5
414
  8
0
  6
CONTINUOUS
 62
     4
 10
121.679052360733
 20
29.49002717588238
 30
0.0
 40
63.5
 50
347.5049099889866
 51
365.2555027172447
  0
ARC
  5
415
  8
0
  6
CONTINUOUS
 62
     4
 10
121.679052360733
 20
29.49002717588238
 30
0.0
 40
57.5
 50
349.4007860874746
 51
368.5809852203404
  0
ARC
  5
416
  8
0
  6
CONTINUOUS
 62
     4
 10
121.679052360733
 20
29.49002717588238
 30
0.0
 40
57.5
 50
229.4007588425083
 51
248.5809682206579
  0
ARC
  5
417
  8
0
  6
CONTINUOUS
 62
     4
 10
121.679052360733
 20
29.49002717588238
 30
0.0
 40
63.5
 50
227.5048895742095
 51
245.2554993779404
  0
ARC
  5
418
  8
0
  6
CONTINUOUS
 62
     4
 10
121.679052360733
 20
29.49002717588238
 30
0.0
 40
69.5
 50
225.95128108522
 51
245.6067008748733
  0
ARC
  5
419
  8
0
  6
CONTINUOUS
 62
     4
 10
121.679052360733
 20
29.49002717588238
 30
0.0
 40
75.5
 50
224.6539139731328
 51
249.0428051217666
  0
ARC
  5
41A
  8
0
  6
CONTINUOUS
 62
     4
 10
121.679052360733
 20
29.49002717588238
 30
0.0
 40
57.5
 50
261.4189986148031
 51
278.5809758856731
  0
ARC
  5
41B
  8
0
  6
CONTINUOUS
 62
     4
 10
121.679052360733
 20
29.49002717588238
 30
0.0
 40
63.5
 50
264.7444674575205
 51
275.2555138731448
  0
ARC
  5
41C
  8
0
  6
CONTINUOUS
 62
     4
 10
121.679052360733
 20
29.49002717588238
 30
0.0
 40
69.5
 50
264.3932591303985
 51
275.6067222002669
  0
ARC
  5
41D
  8
0
  6
CONTINUOUS
 62
     4
 10
121.679052360733
 20
29.49002717588238
 30
0.0
 40
75.5
 50
260.9571617136943
 51
279.042819616971
  0
ARC
  5
41E
  8
0
  6
CONTINUOUS
 62
     4
 10
121.679052360733
 20
29.49002717588238
 30
0.0
 40
75.5
 50
290.9571762088987
 51
315.3460741877217
  0
ARC
  5
41F
  8
0
  6
CONTINUOUS
 62
     4
 10
121.679052360733
 20
29.49002717588238
 30
0.0
 40
69.5
 50
294.3932872859812
 51
314.048710490729
  0
ARC
  5
420
  8
0
  6
CONTINUOUS
 62
     4
 10
121.679052360733
 20
29.49002717588238
 30
0.0
 40
63.5
 50
294.7444887829141
 51
312.4951054168342
  0
ARC
  5
421
  8
0
  6
CONTINUOUS
 62
     4
 10
121.679052360733
 20
29.49002717588238
 30
0.0
 40
57.5
 50
291.4190199401966
 51
310.5992259032516
  0
ARC
  5
422
  8
0
  6
CONTINUOUS
 62
     4
 10
121.679052360733
 20
29.49002717588238
 30
0.0
 40
75.5
 50
170.9572033780746
 51
195.3460330550059
  0
ARC
  5
423
  8
0
  6
CONTINUOUS
 62
     4
 10
121.679052360733
 20
29.49002717588238
 30
0.0
 40
69.5
 50
174.3932939645896
 51
194.0486659429187
  0
ARC
  5
424
  8
0
  6
CONTINUOUS
 62
     4
 10
121.679052360733
 20
29.49002717588238
 30
0.0
 40
63.5
 50
174.7445022917117
 51
192.4950574539293
  0
ARC
  5
425
  8
0
  6
CONTINUOUS
 62
     4
 10
121.679052360733
 20
29.49002717588238
 30
0.0
 40
57.5
 50
171.4190334489942
 51
190.5991881856305
  0
ARC
  5
426
  8
0
  6
CONTINUOUS
 62
     4
 10
121.679052360733
 20
29.49002717588238
 30
0.0
 40
57.5
 50
141.4190394443573
 51
158.5809962246599
  0
ARC
  5
427
  8
0
  6
CONTINUOUS
 62
     4
 10
121.679052360733
 20
29.49002717588238
 30
0.0
 40
63.5
 50
144.7445082870748
 51
155.2555410423208
  0
ARC
  5
428
  8
0
  6
CONTINUOUS
 62
     4
 10
121.679052360733
 20
29.49002717588238
 30
0.0
 40
69.5
 50
144.3932999599527
 51
155.6067357090645
  0
ARC
  5
429
  8
0
  6
CONTINUOUS
 62
     4
 10
121.679052360733
 20
29.49002717588238
 30
0.0
 40
75.5
 50
140.9571957130594
 51
159.0428399559578
  0
LINE
  5
42A
  8
0
  6
DIVIDE
 62
     9
 10
-188.6575641553803
 20
4.712443099954641
 30
0.0
 11
-188.6575641553803
 21
-8.00997413541981
 31
0.0
  0
LINE
  5
42B
  8
0
  6
DIVIDE
 62
     9
 10
-188.6575516498682
 20
-8.009973027276914
 30
0.0
 11
-188.1885711990466
 21
-8.478953478098532
 31
0.0
  0
LINE
  5
42C
  8
0
  6
DIVIDE
 62
     9
 10
-170.6575641553803
 20
4.712443099954641
 30
0.0
 11
-170.6575641553803
 21
-8.00997413541981
 31
0.0
  0
LINE
  5
42D
  8
0
  6
DIVIDE
 62
     9
 10
-170.6575487256467
 20
-8.009978422073431
 30
0.0
 11
-170.2635721308019
 21
-8.403955016918275
 31
0.0
  0
LINE
  5
42E
  8
0
  6
DIVIDE
 62
     9
 10
-160.9256763379975
 20
77.49002336118511
 30
0.0
 11
-160.9256763379975
 21
69.12423966977886
 31
0.0
  0
LINE
  5
42F
  8
0
  6
DIVIDE
 62
     9
 10
-160.9256621940482
 20
77.49002332968635
 30
0.0
 11
-159.9256638298569
 21
78.49002169387759
 31
0.0
  0
LINE
  5
430
  8
0
  6
DIVIDE
 62
     9
 10
-142.9256763379975
 20
77.49002336118511
 30
0.0
 11
-142.9256763379975
 21
69.12423966977886
 31
0.0
  0
LINE
  5
431
  8
0
  6
DIVIDE
 62
     9
 10
-142.9256723331276
 20
77.49002751415188
 30
0.0
 11
-141.9256738846428
 21
78.49002587834312
 31
0.0
  0
LINE
  5
432
  8
0
  6
CONTINUOUS
 62
     5
 10
195.4708646745163
 20
88.63958243520747
 30
0.0
 11
191.7208646745163
 21
95.13477284701358
 31
0.0
  0
LINE
  5
433
  8
0
  6
CONTINUOUS
 62
     5
 10
189.3506742627102
 20
84.24006339402686
 30
0.0
 11
191.6006742627102
 21
80.3429491469432
 31
0.0
  0
LINE
  5
434
  8
0
  6
CONTINUOUS
 62
     5
 10
191.6006392648857
 20
80.34295753243615
 30
0.0
 11
190.5761264907147
 21
80.61747490521148
 31
0.0
  0
LINE
  5
435
  8
0
  6
CONTINUOUS
 62
     5
 10
191.6007173644599
 20
80.34292717934196
 30
0.0
 11
191.8752385916692
 21
81.36745475559192
 31
0.0
  0
LINE
  5
436
  8
0
  6
CONTINUOUS
 62
     5
 10
189.076187879724
 20
83.21552732534693
 30
0.0
 11
189.3507091069333
 21
84.24005490159689
 31
0.0
  0
LINE
  5
437
  8
0
  6
CONTINUOUS
 62
     5
 10
190.375158994542
 20
83.96556402748129
 30
0.0
 11
189.350646220371
 21
84.24008140025663
 31
0.0
  0
LINE
  5
438
  8
0
  6
CONTINUOUS
 62
     5
 10
182.480455514558
 20
81.13957048004309
 30
0.0
 11
195.4708363381702
 21
88.63957048004309
 31
0.0
  0
LINE
  5
439
  8
0
  6
CONTINUOUS
 62
     5
 10
182.4804706364054
 20
81.13957480581294
 30
0.0
 11
176.8554687290567
 21
90.88236372714678
 31
0.0
  0
LINE
  5
43A
  8
0
  6
CONTINUOUS
 62
     5
 10
176.8554687290567
 20
90.88236372714678
 30
0.0
 11
178.8040258525986
 21
92.00736372714678
 31
0.0
  0
LINE
  5
43B
  8
0
  6
CONTINUOUS
 62
     5
 10
183.401040221641
 20
93.04514756735344
 30
0.0
 11
183.6755614488503
 21
94.06967514360341
 31
0.0
  0
LINE
  5
43C
  8
0
  6
CONTINUOUS
 62
     5
 10
183.6755184463569
 20
94.06971267104646
 30
0.0
 11
182.6509909333278
 21
94.34423399308699
 31
0.0
  0
LINE
  5
43D
  8
0
  6
CONTINUOUS
 62
     5
 10
181.1124063884923
 20
92.58985029835381
 30
0.0
 11
183.6755169895965
 21
94.06966292042412
 31
0.0
  0
LINE
  5
43E
  8
0
  6
CONTINUOUS
 62
     5
 10
179.3665277599472
 20
91.03308186175119
 30
0.0
 11
178.8040296672958
 21
92.00735711989742
 31
0.0
  0
LINE
  5
43F
  8
0
  6
CONTINUOUS
 62
     5
 10
179.3665145454485
 20
91.03307423235665
 30
0.0
 11
180.6655526278097
 21
91.78307423235665
 31
0.0
  0
LINE
  5
440
  8
0
  6
CONTINUOUS
 62
     5
 10
181.2280658423084
 20
90.80880329998027
 30
0.0
 11
180.6655658423084
 21
91.78308186175119
 31
0.0
  0
LINE
  5
441
  8
0
  6
CONTINUOUS
 62
     5
 10
183.2771039246696
 20
90.25976521761905
 30
0.0
 11
182.5271039246696
 21
91.55880329998027
 31
0.0
  0
LINE
  5
442
  8
0
  6
CONTINUOUS
 62
     5
 10
181.2280507204611
 20
90.80879897421042
 30
0.0
 11
182.527102017321
 21
91.55880660360495
 31
0.0
  0
LINE
  5
443
  8
0
  6
CONTINUOUS
 62
     5
 10
178.7304706364054
 20
87.63476521761905
 30
0.0
 11
191.7208382455189
 21
95.13475758822452
 31
0.0
  0
LINE
  5
444
  8
0
  6
CONTINUOUS
 62
     5
 10
187.8366034310769
 20
90.61405083603236
 30
0.0
 11
187.0698927002981
 21
89.99318085870542
 31
0.0
  0
LINE
  5
445
  8
0
  6
CONTINUOUS
 62
     5
 10
187.8366264157504
 20
90.61405202145525
 30
0.0
 11
187.2157659234828
 21
91.38075077631984
 31
0.0
  0
ARC
  5
446
  8
0
  6
CONTINUOUS
 62
     5
 10
187.15720940419
 20
88.07847093198589
 30
0.0
 40
2.625001907348633
 50
75.00010795499728
 51
369.999953377945
  0
TEXT
  5
447
  8
0
 62
     5
 10
93.19334019013206
 20
-62.30997587587544
 30
0.0
 40
5.0
  1
NIKKO
 41
0.7674421159044379
  7
FDASTYLE1
 72
     5
 11
116.7647715885238
 21
-62.30997587587544
 31
0.0
  0
TEXT
  5
448
  8
0
 62
     5
 10
128.5504756052093
 20
-61.80997587587544
 30
0.0
 40
4.0
  1
HWB3-215
 41
0.7714288207463406
  7
FDASTYLE1
 72
     5
 11
159.4076216299133
 21
-61.80997587587544
 31
0.0
  0
TEXT
  5
449
  8
0
 62
     5
 10
128.9076187688903
 20
-68.30997587587544
 30
0.0
 40
3.0
  1
0001
 41
0.7647060767727455
  7
FDASTYLE1
 72
     5
 11
140.0504764396743
 21
-68.30997587587544
 31
0.0
  0
TEXT
  5
44A
  8
0
 62
     5
 10
212.8481361879405
 20
51.18054531301132
 30
0.0
 40
3.0
  1
F MAX  24KN
 50
120.0
 41
0.7894738964517459
  7
FDASTYLE1
 72
     5
 11
196.348135770708
 21
79.75938436056572
 31
0.0
  0
TEXT
  5
44B
  8
0
 62
     5
 10
182.9619086994228
 20
95.45080336949364
 30
0.0
 40
3.0
  1
ΣS
 50
120.0
 41
0.9090909271529234
  7
FDASTYLE1
 72
     5
 11
179.9619086398181
 21
100.6469558954386
 31
0.0
  0
TEXT
  5
44C
  8
0
 62
     5
 10
189.6510346545276
 20
80.46003368825302
 30
0.0
 40
3.0
  1
F
 50
120.0
 41
0.8791213035583497
  7
FDASTYLE1
 72
     5
 11
188.3323526991901
 21
82.74405783392189
 31
0.0
  0
TEXT
  5
44D
  8
0
 62
     5
 10
192.2496284259853
 20
90.99731948441983
 30
0.0
 40
3.0
  1
N min
 50
120.0
 41
0.7983872414958763
  7
FDASTYLE1
 72
     5
 11
184.8246288312969
 21
103.8577960285985
 31
0.0
  0
TEXT
  5
44E
  8
0
 62
     5
 10
182.638497957179
 20
103.3750546935567
 30
0.0
 40
1.5
  1
-1
 50
120.0
 41
0.7826088684192838
  7
FDASTYLE1
 72
     5
 11
181.2884978737325
 21
105.7133234283082
 31
0.0
  0
TEXT
  5
44F
  8
0
 62
     5
 10
217.1782600893077
 20
53.68054531301132
 30
0.0
 40
3.0
  1
ΣS MAX 78KN
 50
120.0
 41
0.7947978833511999
  7
FDASTYLE1
 72
     5
 11
200.6782596720752
 21
82.25938436056572
 31
0.0
  0
TEXT
  5
450
  8
0
 62
     5
 10
221.5083839906749
 20
56.18054531301132
 30
0.0
 40
3.0
  1
N MAX 4600 AT ΣS MAX
 50
120.0
 41
0.7943487080139173
  7
FDASTYLE1
 72
     5
 11
191.1483836485442
 21
108.7656084233901
 31
0.0
  0
LINE
  5
451
  8
LAYER0014
  6
CONTINUOUS
 62
     7
 10
-71.92566870860298
 20
154.3440883025914
 30
0.0
 11
-110.3971652906342
 21
154.3440883025914
 31
0.0
  0
LINE
  5
452
  8
LAYER0014
  6
CONTINUOUS
 62
     7
 10
-160.9256763379975
 20
154.3440883025914
 30
0.0
 11
-174.2974719922944
 21
154.3440883025914
 31
0.0
  0
LINE
  5
453
  8
LAYER0014
  6
CONTINUOUS
 62
     7
 10
-142.9256763379975
 20
154.3440883025914
 30
0.0
 11
-129.583871833603
 21
154.3440883025914
 31
0.0
  0
LINE
  5
454
  8
LAYER0014
  6
CONTINUOUS
 62
     7
 10
-179.6575641553803
 20
-101.8216297760219
 30
0.0
 11
-207.4658362804589
 21
-101.8216297760219
 31
0.0
  0
LINE
  5
455
  8
LAYER0014
  6
CONTINUOUS
 62
     7
 10
-179.6575641553803
 20
-10.54997032072254
 30
0.0
 11
-179.6575641553803
 21
-102.8216297760219
 31
0.0
  0
LINE
  5
456
  8
LAYER0014
  6
CONTINUOUS
 62
     7
 10
-152.7256793897553
 20
-101.8216297760219
 30
0.0
 11
-179.6575641553803
 21
-101.8216297760219
 31
0.0
  0
INSERT
  5
457
  8
LAYER0014
 62
     7
  2
_OPEN30
 10
-152.7256793897553
 20
-101.8216297760219
 30
0.0
 41
1.999998407630662
 42
2.000005728319971
 50
360.0
  0
INSERT
  5
458
  8
LAYER0014
 62
     7
  2
_OPEN30
 10
-179.6575641553803
 20
-101.8216297760219
 30
0.0
 41
1.999998407630662
 42
2.000005728319971
 50
180.0
  0
TEXT
  5
459
  8
LAYER0014
 62
     7
 10
-205.9630634229584
 20
-101.0856556517787
 30
0.0
 40
4.0
  1
MAX36.2
 41
0.7999999999999992
  7
FDASTYLE1
 72
     5
 11
-183.5630634229585
 21
-101.0856556517787
 31
0.0
  0
INSERT
  5
45A
  8
LAYER0014
  6
CONTINUOUS
  2
DA_IMAGEDIMGROUP_1
 10
0.0
 20
0.0
 30
0.0
  0
INSERT
  5
45B
  8
LAYER0014
  6
CONTINUOUS
  2
DA_IMAGEDIMGROUP_2
 10
0.0
 20
0.0
 30
0.0
  0
INSERT
  5
45C
  8
LAYER0014
  6
CONTINUOUS
  2
DA_IMAGEDIMGROUP_3
 10
0.0
 20
0.0
 30
0.0
  0
INSERT
  5
45D
  8
LAYER0014
  6
CONTINUOUS
  2
DA_IMAGEDIMGROUP_4
 10
0.0
 20
0.0
 30
0.0
  0
INSERT
  5
45E
  8
LAYER0014
  6
CONTINUOUS
  2
DA_IMAGEDIMGROUP_5
 10
0.0
 20
0.0
 30
0.0
  0
INSERT
  5
45F
  8
LAYER0014
  6
CONTINUOUS
  2
DA_IMAGEDIMGROUP_6
 10
0.0
 20
0.0
 30
0.0
  0
INSERT
  5
460
  8
LAYER0014
  6
CONTINUOUS
  2
DA_IMAGEDIMGROUP_7
 10
0.0
 20
0.0
 30
0.0
  0
INSERT
  5
461
  8
LAYER0014
  6
CONTINUOUS
  2
DA_IMAGEDIMGROUP_8
 10
0.0
 20
0.0
 30
0.0
  0
INSERT
  5
462
  8
LAYER0014
  6
CONTINUOUS
  2
DA_IMAGEDIMGROUP_9
 10
0.0
 20
0.0
 30
0.0
  0
INSERT
  5
463
  8
LAYER0014
  6
CONTINUOUS
  2
DA_IMAGEDIMGROUP_10
 10
0.0
 20
0.0
 30
0.0
  0
INSERT
  5
464
  8
LAYER0014
  6
CONTINUOUS
  2
DA_IMAGEDIMGROUP_11
 10
0.0
 20
0.0
 30
0.0
  0
INSERT
  5
465
  8
LAYER0014
  6
CONTINUOUS
  2
DA_IMAGEDIMGROUP_12
 10
0.0
 20
0.0
 30
0.0
  0
INSERT
  5
466
  8
LAYER0014
  6
CONTINUOUS
  2
DA_IMAGEDIMGROUP_13
 10
0.0
 20
0.0
 30
0.0
  0
INSERT
  5
467
  8
LAYER0014
  6
CONTINUOUS
  2
DA_IMAGEDIMGROUP_14
 10
0.0
 20
0.0
 30
0.0
  0
INSERT
  5
468
  8
LAYER0014
  6
CONTINUOUS
  2
DA_IMAGEDIMGROUP_15
 10
0.0
 20
0.0
 30
0.0
  0
INSERT
  5
469
  8
LAYER0014
  6
CONTINUOUS
  2
DA_IMAGEDIMGROUP_16
 10
0.0
 20
0.0
 30
0.0
  0
INSERT
  5
46A
  8
LAYER0014
  6
CONTINUOUS
  2
DC_GROUP_1
 10
0.0
 20
0.0
 30
0.0
  0
INSERT
  5
46B
  8
LAYER0014
  6
CONTINUOUS
  2
DC_GROUP_2
 10
0.0
 20
0.0
 30
0.0
  0
INSERT
  5
46C
  8
LAYER0014
  6
CONTINUOUS
  2
DA_IMAGEDIMGROUP_17
 10
0.0
 20
0.0
 30
0.0
  0
INSERT
  5
46D
  8
LAYER0014
  6
CONTINUOUS
  2
DA_IMAGEDIMGROUP_18
 10
0.0
 20
0.0
 30
0.0
  0
INSERT
  5
46E
  8
LAYER0014
  6
CONTINUOUS
  2
DA_IMAGEDIMGROUP_19
 10
0.0
 20
0.0
 30
0.0
  0
INSERT
  5
46F
  8
LAYER0014
  6
CONTINUOUS
  2
DA_IMAGEDIMGROUP_20
 10
0.0
 20
0.0
 30
0.0
  0
INSERT
  5
470
  8
LAYER0014
  6
CONTINUOUS
  2
DA_IMAGEDIMGROUP_21
 10
0.0
 20
0.0
 30
0.0
  0
INSERT
  5
471
  8
LAYER0014
  6
CONTINUOUS
  2
DA_IMAGEDIMGROUP_22
 10
0.0
 20
0.0
 30
0.0
  0
INSERT
  5
472
  8
LAYER0014
  6
CONTINUOUS
  2
DA_IMAGEDIMGROUP_23
 10
0.0
 20
0.0
 30
0.0
  0
INSERT
  5
473
  8
LAYER0014
  6
CONTINUOUS
  2
DA_IMAGEDIMGROUP_24
 10
0.0
 20
0.0
 30
0.0
  0
INSERT
  5
474
  8
LAYER0014
  6
CONTINUOUS
  2
DA_IMAGEDIMGROUP_25
 10
0.0
 20
0.0
 30
0.0
  0
INSERT
  5
475
  8
LAYER0014
  6
CONTINUOUS
  2
DA_IMAGEDIMGROUP_26
 10
0.0
 20
0.0
 30
0.0
  0
INSERT
  5
476
  8
LAYER0014
  6
CONTINUOUS
  2
DA_IMAGEDIMGROUP_27
 10
0.0
 20
0.0
 30
0.0
  0
INSERT
  5
477
  8
LAYER0014
  6
CONTINUOUS
  2
DC_GROUP_3
 10
0.0
 20
0.0
 30
0.0
  0
INSERT
  5
478
  8
LAYER0014
  6
CONTINUOUS
  2
DC_GROUP_4
 10
0.0
 20
0.0
 30
0.0
  0
INSERT
  5
479
  8
LAYER0014
  6
CONTINUOUS
  2
DA_IMAGEDIMGROUP_28
 10
0.0
 20
0.0
 30
0.0
  0
INSERT
  5
47A
  8
LAYER0014
  6
CONTINUOUS
  2
DA_IMAGEDIMGROUP_29
 10
0.0
 20
0.0
 30
0.0
  0
INSERT
  5
47B
  8
LAYER0014
  6
CONTINUOUS
  2
DA_IMAGEDIMGROUP_30
 10
0.0
 20
0.0
 30
0.0
  0
INSERT
  5
47C
  8
LAYER0014
  6
CONTINUOUS
  2
DA_IMAGEDIMGROUP_31
 10
0.0
 20
0.0
 30
0.0
  0
INSERT
  5
47D
  8
LAYER0014
  6
CONTINUOUS
  2
DA_IMAGEDIMGROUP_32
 10
0.0
 20
0.0
 30
0.0
  0
INSERT
  5
47E
  8
LAYER0014
  6
CONTINUOUS
  2
DA_IMAGEDIMGROUP_33
 10
0.0
 20
0.0
 30
0.0
  0
INSERT
  5
47F
  8
LAYER0014
  6
CONTINUOUS
  2
DA_IMAGEDIMGROUP_34
 10
0.0
 20
0.0
 30
0.0
  0
INSERT
  5
480
  8
LAYER0014
  6
CONTINUOUS
  2
DC_GROUP_5
 10
0.0
 20
0.0
 30
0.0
  0
LINE
  5
481
  8
0
  6
DASHED2
 62
     7
 10
-116.7256763379975
 20
-58.00997663881489
 30
0.0
 11
-108.7256763379975
 21
-58.00997663881489
 31
0.0
  0
LINE
  5
482
  8
0
  6
DASHED2
 62
     7
 10
-115.8256824415131
 20
-54.00997663881489
 30
0.0
 11
-109.6256778638764
 21
-54.00997663881489
 31
0.0
  0
LINE
  5
483
  8
0
  6
DASHED2
 62
     7
 10
-112.7256771955965
 20
-52.22019571283599
 30
0.0
 11
-109.6256811198092
 21
-54.00997908393978
 31
0.0
  0
LINE
  5
484
  8
0
  6
DASHED2
 62
     7
 10
-115.8256952028263
 20
-54.00998391951461
 30
0.0
 11
-112.7256793052896
 21
-52.2201891043197
 31
0.0
  0
LINE
  5
485
  8
0
  6
DASHED2
 62
     7
 10
-109.6256778638764
 20
-54.00997663881489
 30
0.0
 11
-109.6256778638764
 21
-78.00997663881489
 31
0.0
  0
LINE
  5
486
  8
0
  6
DASHED2
 62
     7
 10
-115.8256824415131
 20
-54.00997663881489
 30
0.0
 11
-115.8256824415131
 21
-78.00997663881489
 31
0.0
  0
LINE
  5
487
  8
0
  6
DASHED2
 62
     7
 10
-108.7256763379975
 20
-58.00997663881489
 30
0.0
 11
-108.7256763379975
 21
-78.00997663881489
 31
0.0
  0
LINE
  5
488
  8
0
  6
DASHED2
 62
     7
 10
-116.7256763379975
 20
-58.00997663881489
 30
0.0
 11
-116.7256763379975
 21
-78.00997663881489
 31
0.0
  0
LINE
  5
489
  8
0
  6
DASHED2
 62
     7
 10
192.4421779948796
 20
73.92469827516021
 30
0.0
 11
213.2267876857061
 21
85.92469827516021
 31
0.0
  0
LINE
  5
48A
  8
0
  6
DASHED2
 62
     7
 10
195.4562788470779
 20
76.70412246001607
 30
0.0
 11
212.7767869227667
 21
86.70412246001609
 31
0.0
  0
LINE
  5
48B
  8
0
  6
DASHED2
 62
     7
 10
199.4562788470779
 20
69.77591922974057
 30
0.0
 11
216.7767869227667
 21
79.7759192297406
 31
0.0
  0
LINE
  5
48C
  8
0
  6
DASHED2
 62
     7
 10
195.542180283698
 20
68.55533680734698
 30
0.0
 11
216.3267899745245
 21
80.555336807347
 31
0.0
  0
LINE
  5
48D
  8
0
  6
DASHED2
 62
     7
 10
199.4562788470779
 20
69.77591922974057
 30
0.0
 11
195.4562788470779
 21
76.70412246001607
 31
0.0
  0
LINE
  5
48E
  8
0
  6
DASHED2
 62
     7
 10
195.542180283698
 20
68.55533680734698
 30
0.0
 11
192.4421779948796
 21
73.92469827516021
 31
0.0
  0
LINE
  5
48F
  8
0
  6
DASHED2
 62
     7
 10
192.4421818159529
 20
70.34512980490931
 30
0.0
 11
192.4421816447061
 21
73.924696843725
 31
0.0
  0
LINE
  5
490
  8
0
  6
DASHED2
 62
     7
 10
195.5421928739453
 20
68.55532956179837
 30
0.0
 11
192.4421771476565
 21
70.34512467360327
 31
0.0
  0
INSERT
  5
491
  8
0
  6
CONTINUOUS
  2
DA_IMAGEDIMGROUP_35
 10
0.0
 20
0.0
 30
0.0
  0
VIEWPORT
  5
48
 67
     1
  8
0
 10
0.0
 20
0.0
 30
0.0
 40
1662.0
 41
1140.0
 68
     1
 69
     1
1001
ACAD
1000
MVIEW
1002
{
1070
    16
1010
0.0
1020
0.0
1030
0.0
1020
0.0
1030
0.0
1010
0.0
1020
0.0
1030
1.0
1020
0.0
1030
1.0
1040
0.0
1040
1140.0
1040
0.0
1040
0.0
1040
50.0
1040
0.0
1040
0.0
1070
     0
1070
   100
1070
     0
1070
     1
1070
     0
1070
     0
1070
     0
1070
     0
1040
0.0
1040
0.0
1040
0.0
1040
0.5
1040
0.5
1040
0.0
1040
0.0
1070
     0
1002
{
1002
}
1002
}
  0
ENDSEC
  0
EOF
