  0
SECTION
  2
HEADER
  9
$ACADVER
  1
AC1009
  9
$DWGCODEPAGE
  3
ansi_932
  9
$INSBASE
 10
0.0
 20
0.0
 30
0.0
  9
$EXTMIN
 10
-807.000292508917
 20
-582.0
 30
0.0
  9
$EXTMAX
 10
806.999707491083
 20
582.0
 30
0.0
  9
$LIMMIN
 10
-297.0
 20
-210.0
  9
$LIMMAX
 10
297.0
 20
210.0
  9
$ORTHOMODE
 70
     0
  9
$REGENMODE
 70
     1
  9
$FILLMODE
 70
     1
  9
$QTEXTMODE
 70
     0
  9
$MIRRTEXT
 70
     1
  9
$DRAGMODE
 70
     2
  9
$LTSCALE
 40
0.25
  9
$OSMODE
 70
    37
  9
$ATTMODE
 70
     1
  9
$TEXTSIZE
 40
0.2
  9
$TRACEWID
 40
0.05
  9
$TEXTSTYLE
  7
STANDARD
  9
$CLAYER
  8
0
  9
$CELTYPE
  6
BYLAYER
  9
$CECOLOR
 62
   256
  9
$DIMSCALE
 40
1.0
  9
$DIMASZ
 40
2.499996185302734
  9
$DIMEXO
 40
1.0
  9
$DIMDLI
 40
10.0
  9
$DIMRND
 40
0.0
  9
$DIMDLE
 40
0.0
  9
$DIMEXE
 40
1.0
  9
$DIMTP
 40
0.0
  9
$DIMTM
 40
0.0
  9
$DIMTXT
 40
4.0
  9
$DIMCEN
 40
0.0
  9
$DIMTSZ
 40
0.0
  9
$DIMTOL
 70
     0
  9
$DIMLIM
 70
     0
  9
$DIMTIH
 70
     0
  9
$DIMTOH
 70
     0
  9
$DIMSE1
 70
     0
  9
$DIMSE2
 70
     0
  9
$DIMTAD
 70
     1
  9
$DIMZIN
 70
     8
  9
$DIMBLK
  1

  9
$DIMASO
 70
     1
  9
$DIMSHO
 70
     1
  9
$DIMPOST
  1

  9
$DIMAPOST
  1

  9
$DIMALT
 70
     0
  9
$DIMALTD
 70
     2
  9
$DIMALTF
 40
0.0393700787401575
  9
$DIMLFAC
 40
1.0
  9
$DIMTOFL
 70
     0
  9
$DIMTVP
 40
0.0
  9
$DIMTIX
 70
     0
  9
$DIMSOXD
 70
     0
  9
$DIMSAH
 70
     0
  9
$DIMBLK1
  1

  9
$DIMBLK2
  1

  9
$DIMSTYLE
  2
STANDARD
  9
$DIMCLRD
 70
     0
  9
$DIMCLRE
 70
     0
  9
$DIMCLRT
 70
     0
  9
$DIMTFAC
 40
0.65
  9
$DIMGAP
 40
0.09
  9
$LUNITS
 70
     2
  9
$LUPREC
 70
     4
  9
$SKETCHINC
 40
0.1
  9
$FILLETRAD
 40
0.5
  9
$AUNITS
 70
     0
  9
$AUPREC
 70
     0
  9
$MENU
  1
.
  9
$ELEVATION
 40
0.0
  9
$PELEVATION
 40
0.0
  9
$THICKNESS
 40
0.0
  9
$LIMCHECK
 70
     0
  9
$CHAMFERA
 40
0.0
  9
$CHAMFERB
 40
0.0
  9
$SKPOLY
 70
     0
  9
$TDCREATE
 40
2459766.394237847
  9
$TDUPDATE
 40
2459766.394238391
  9
$TDINDWG
 40
0.0000000116
  9
$TDUSRTIMER
 40
0.0000000116
  9
$USRTIMER
 70
     1
  9
$ANGBASE
 50
0.0
  9
$ANGDIR
 70
     0
  9
$PDMODE
 70
     0
  9
$PDSIZE
 40
1.0
  9
$PLINEWID
 40
0.0
  9
$COORDS
 70
     1
  9
$SPLFRAME
 70
     0
  9
$SPLINETYPE
 70
     6
  9
$SPLINESEGS
 70
     8
  9
$ATTDIA
 70
     0
  9
$ATTREQ
 70
     1
  9
$HANDLING
 70
     1
  9
$HANDSEED
  5
799
  9
$SURFTAB1
 70
     6
  9
$SURFTAB2
 70
     6
  9
$SURFTYPE
 70
     6
  9
$SURFU
 70
     6
  9
$SURFV
 70
     6
  9
$UCSNAME
  2

  9
$UCSORG
 10
0.0
 20
0.0
 30
0.0
  9
$UCSXDIR
 10
1.0
 20
0.0
 30
0.0
  9
$UCSYDIR
 10
0.0
 20
1.0
 30
0.0
  9
$PUCSNAME
  2

  9
$PUCSORG
 10
0.0
 20
0.0
 30
0.0
  9
$PUCSXDIR
 10
1.0
 20
0.0
 30
0.0
  9
$PUCSYDIR
 10
0.0
 20
1.0
 30
0.0
  9
$USERI1
 70
     0
  9
$USERI2
 70
     0
  9
$USERI3
 70
     0
  9
$USERI4
 70
     0
  9
$USERI5
 70
     0
  9
$USERR1
 40
0.0
  9
$USERR2
 40
0.0
  9
$USERR3
 40
0.0
  9
$USERR4
 40
0.0
  9
$USERR5
 40
0.0
  9
$WORLDVIEW
 70
     1
  9
$SHADEDGE
 70
     3
  9
$SHADEDIF
 70
    70
  9
$TILEMODE
 70
     1
  9
$MAXACTVP
 70
    64
  9
$PLIMCHECK
 70
     0
  9
$PEXTMIN
 10
1.000000000000000E+20
 20
1.000000000000000E+20
 30
1.000000000000000E+20
  9
$PEXTMAX
 10
-1.000000000000000E+20
 20
-1.000000000000000E+20
 30
-1.000000000000000E+20
  9
$PLIMMIN
 10
0.0
 20
0.0
  9
$PLIMMAX
 10
12.0
 20
9.0
  9
$UNITMODE
 70
     0
  9
$VISRETAIN
 70
     0
  9
$PLINEGEN
 70
     1
  9
$PSLTSCALE
 70
     0
  0
ENDSEC
  0
SECTION
  2
TABLES
  0
TABLE
  2
VPORT
 70
     1
  0
VPORT
  2
*ACTIVE
 70
     0
 10
0.0
 20
0.0
 11
1.0
 21
1.0
 12
-0.0002925089170311
 22
0.0
 13
0.0
 23
0.0
 14
0.5
 24
0.5
 15
0.5
 25
0.5
 16
0.0
 26
0.0
 36
1.0
 17
0.0
 27
0.0
 37
0.0
 40
395.76
 41
1.38659793814433
 42
50.0
 43
0.0
 44
0.0
 50
0.0
 51
0.0
 71
     0
 72
  1000
 73
     1
 74
     1
 75
     0
 76
     0
 77
     0
 78
     0
  0
ENDTAB
  0
TABLE
  2
LTYPE
 70
    67
  0
LTYPE
  2
CONTINUOUS
 70
     0
  3
Solid line
 72
    65
 73
     0
 40
0.0
  0
LTYPE
  2
HIDDENX2
 70
     0
  3
Hidden (2x) ____ ____ ____ ____ ____ ____ ____ 
 72
    65
 73
     2
 40
19.05
 49
12.7
 49
-6.35
  0
LTYPE
  2
HIDDEN
 70
     0
  3
Hidden __ __ __ __ __ __ __ __ __ __ __ __ __ __
 72
    65
 73
     2
 40
9.524999999999999
 49
6.35
 49
-3.175
  0
LTYPE
  2
HIDDEN2
 70
     0
  3
Hidden (.5x) _ _ _ _ _ _ _ _ _ _ _ _ _ _ _ _ _ 
 72
    65
 73
     2
 40
4.762499999999999
 49
3.175
 49
-1.5875
  0
LTYPE
  2
DASHED
 70
     0
  3
Dashed __ __ __ __ __ __ __ __ __ __ __ __ __ _
 72
    65
 73
     2
 40
19.05
 49
12.7
 49
-6.35
  0
LTYPE
  2
DASHED2
 70
     0
  3
Dashed (.5x) _ _ _ _ _ _ _ _ _ _ _ _ _ _ _ _ _ 
 72
    65
 73
     2
 40
9.524999999999999
 49
6.35
 49
-3.175
  0
LTYPE
  2
DASHEDX2
 70
     0
  3
Dashed (2x) ____  ____  ____  ____  ____  ___
 72
    65
 73
     2
 40
38.09999999999999
 49
25.4
 49
-12.7
  0
LTYPE
  2
DOTX2
 70
     0
  3
Dot (2x) .  .  .  .  .  .  .  .  .  .  .  .  .  .
 72
    65
 73
     2
 40
12.7
 49
0.0
 49
-12.7
  0
LTYPE
  2
DOT
 70
     0
  3
Dot . . . . . . . . . . . . . . . . . . . . . . . .
 72
    65
 73
     2
 40
6.35
 49
0.0
 49
-6.35
  0
LTYPE
  2
DOT2
 70
     0
  3
Dot (.5x) ........................................
 72
    65
 73
     2
 40
3.175
 49
0.0
 49
-3.175
  0
LTYPE
  2
CENTERX2
 70
     0
  3
Center (2x) ________  __  ________  __  _____
 72
    65
 73
     4
 40
101.6
 49
63.5
 49
-12.7
 49
12.7
 49
-12.7
  0
LTYPE
  2
CENTER
 70
     0
  3
Center ____ _ ____ _ ____ _ ____ _ ____ _ ____
 72
    65
 73
     4
 40
50.8
 49
31.75
 49
-6.35
 49
6.35
 49
-6.35
  0
LTYPE
  2
CENTER2
 70
     0
  3
Center (.5x) ___ _ ___ _ ___ _ ___ _ ___ _ ___
 72
    65
 73
     4
 40
28.575
 49
19.05
 49
-3.175
 49
3.175
 49
-3.175
  0
LTYPE
  2
DASHDOTX2
 70
     0
  3
Dash dot (2x) ____  .  ____  .  ____  .  ___
 72
    65
 73
     4
 40
50.8
 49
25.4
 49
-12.7
 49
0.0
 49
-12.7
  0
LTYPE
  2
DASHDOT
 70
     0
  3
Dash dot __ . __ . __ . __ . __ . __ . __ . __
 72
    65
 73
     4
 40
25.4
 49
12.7
 49
-6.35
 49
0.0
 49
-6.35
  0
LTYPE
  2
DASHDOT2
 70
     0
  3
Dash dot (.5x) _._._._._._._._._._._._._._._.
 72
    65
 73
     4
 40
12.7
 49
6.35
 49
-3.175
 49
0.0
 49
-3.175
  0
LTYPE
  2
DIVIDEX2
 70
     0
  3
Divide (2x) ________  .  .  ________  .  .  _
 72
    65
 73
     6
 40
63.5
 49
25.4
 49
-12.7
 49
0.0
 49
-12.7
 49
0.0
 49
-12.7
  0
LTYPE
  2
DIVIDE
 70
     0
  3
Divide ____ . . ____ . . ____ . . ____ . . ____
 72
    65
 73
     6
 40
31.75
 49
12.7
 49
-6.35
 49
0.0
 49
-6.35
 49
0.0
 49
-6.35
  0
LTYPE
  2
DIVIDE2
 70
     0
  3
Divide (.5x) __..__..__..__..__..__..__..__.._
 72
    65
 73
     6
 40
15.875
 49
6.35
 49
-3.175
 49
0.0
 49
-3.175
 49
0.0
 49
-3.175
  0
LTYPE
  2
BORDERX2
 70
     0
  3
Border (2x) ____  ____  .  ____  ____  .  ___
 72
    65
 73
     6
 40
88.89999999999999
 49
25.4
 49
-12.7
 49
25.4
 49
-12.7
 49
0.0
 49
-12.7
  0
LTYPE
  2
BORDER
 70
     0
  3
Border __ __ . __ __ . __ __ . __ __ . __ __ .
 72
    65
 73
     6
 40
44.45
 49
12.7
 49
-6.35
 49
12.7
 49
-6.35
 49
0.0
 49
-6.35
  0
LTYPE
  2
BORDER2
 70
     0
  3
Border (.5x) __.__.__.__.__.__.__.__.__.__.__.
 72
    65
 73
     6
 40
22.225
 49
6.35
 49
-3.175
 49
6.35
 49
-3.175
 49
0.0
 49
-3.175
  0
LTYPE
  2
PHANTOMX2
 70
     0
  3
Phantom (2x) ____________    ____    ____   _
 72
    65
 73
     6
 40
127.0
 49
63.5
 49
-12.7
 49
12.7
 49
-12.7
 49
12.7
 49
-12.7
  0
LTYPE
  2
PHANTOM
 70
     0
  3
Phantom ______  __  __  ______  __  __  ______ 
 72
    65
 73
     6
 40
63.5
 49
31.75
 49
-6.35
 49
6.35
 49
-6.35
 49
6.35
 49
-6.35
  0
LTYPE
  2
PHANTOM2
 70
     0
  3
Phantom (.5x) ___ _ _ ___ _ _ ___ _ _ ___ _ _
 72
    65
 73
     6
 40
31.75
 49
15.875
 49
-3.175
 49
3.175
 49
-3.175
 49
3.175
 49
-3.175
  0
LTYPE
  2
ACAD_ISO06W100
 70
     0
  3
ISO long-dash triple-dot ____ ... ____ ... ____
 72
    65
 73
     8
 40
36.0
 49
24.0
 49
-3.0
 49
0.0
 49
-3.0
 49
0.0
 49
-3.0
 49
0.0
 49
-3.0
  0
LTYPE
  2
ACAD_ISO13W100
 70
     0
  3
ISO double-dash double-dot __ __ . . __ __ . . _
 72
    65
 73
     8
 40
36.0
 49
12.0
 49
-3.0
 49
12.0
 49
-3.0
 49
0.0
 49
-3.0
 49
0.0
 49
-3.0
  0
LTYPE
  2
ACAD_ISO14W100
 70
     0
  3
ISO dash triple-dot __ . . . __ . . . __ . . . _
 72
    65
 73
     8
 40
24.0
 49
12.0
 49
-3.0
 49
0.0
 49
-3.0
 49
0.0
 49
-3.0
 49
0.0
 49
-3.0
  0
LTYPE
  2
ACAD_ISO02W100
 70
     0
  3
ISO dash __ __ __ __ __ __ __ __ __ __ __ __ __
 72
    65
 73
     2
 40
15.0
 49
12.0
 49
-3.0
  0
LTYPE
  2
ACAD_ISO03W100
 70
     0
  3
ISO dash space __    __    __    __    __    __
 72
    65
 73
     2
 40
30.0
 49
12.0
 49
-18.0
  0
LTYPE
  2
ACAD_ISO04W100
 70
     0
  3
ISO long-dash dot ____ . ____ . ____ . ____ . _
 72
    65
 73
     4
 40
30.0
 49
24.0
 49
-3.0
 49
0.0
 49
-3.0
  0
LTYPE
  2
ACAD_ISO05W100
 70
     0
  3
ISO long-dash double-dot ____ .. ____ .. ____ . 
 72
    65
 73
     6
 40
33.0
 49
24.0
 49
-3.0
 49
0.0
 49
-3.0
 49
0.0
 49
-3.0
  0
LTYPE
  2
ACAD_ISO07W100
 70
     0
  3
ISO dot . . . . . . . . . . . . . . . . . . . . 
 72
    65
 73
     2
 40
3.0
 49
0.0
 49
-3.0
  0
LTYPE
  2
ACAD_ISO08W100
 70
     0
  3
ISO long-dash short-dash ____ __ ____ __ ____ _
 72
    65
 73
     4
 40
36.0
 49
24.0
 49
-3.0
 49
6.0
 49
-3.0
  0
LTYPE
  2
ACAD_ISO09W100
 70
     0
  3
ISO long-dash double-short-dash ____ __ __ ____
 72
    65
 73
     6
 40
45.0
 49
24.0
 49
-3.0
 49
6.0
 49
-3.0
 49
6.0
 49
-3.0
  0
LTYPE
  2
ACAD_ISO10W100
 70
     0
  3
ISO dash dot __ . __ . __ . __ . __ . __ . __ . 
 72
    65
 73
     4
 40
18.0
 49
12.0
 49
-3.0
 49
0.0
 49
-3.0
  0
LTYPE
  2
ACAD_ISO11W100
 70
     0
  3
ISO double-dash dot __ __ . __ __ . __ __ . __ _
 72
    65
 73
     6
 40
33.0
 49
12.0
 49
-3.0
 49
12.0
 49
-3.0
 49
0.0
 49
-3.0
  0
LTYPE
  2
ACAD_ISO12W100
 70
     0
  3
ISO dash double-dot __ . . __ . . __ . . __ . . 
 72
    65
 73
     6
 40
21.0
 49
12.0
 49
-3.0
 49
0.0
 49
-3.0
 49
0.0
 49
-3.0
  0
LTYPE
  2
ACAD_ISO15W100
 70
     0
  3
ISO double-dash triple-dot __ __ . . . __ __ . .
 72
    65
 73
    10
 40
39.0
 49
12.0
 49
-3.0
 49
12.0
 49
-3.0
 49
0.0
 49
-3.0
 49
0.0
 49
-3.0
 49
0.0
 49
-3.0
  0
LTYPE
  2
JIS_02_0_7
 70
     0
  3
HIDDEN0.75 _ _ _ _ _ _ _ _ _ _ _ _ _ _ _ _ _ 
 72
    65
 73
     2
 40
1.35
 49
0.75
 49
-0.6
  0
LTYPE
  2
JIS_02_1_0
 70
     0
  3
HIDDEN01 _ _ _ _ _ _ _ _ _ _ _ _ _ _ _ _ _ 
 72
    65
 73
     2
 40
2.0
 49
1.0
 49
-1.0
  0
LTYPE
  2
JIS_02_1_2
 70
     0
  3
HIDDEN01.25  _ _ _ _ _ _ _ _ _ _ _ _ _ _ _ _ _ 
 72
    65
 73
     2
 40
2.5
 49
1.25
 49
-1.25
  0
LTYPE
  2
JIS_02_2_0
 70
     0
  3
HIDDEN02 __ __ __ __ __ __ __ __ __ __ __ 
 72
    65
 73
     2
 40
3.0
 49
2.0
 49
-1.0
  0
LTYPE
  2
JIS_02_4_0
 70
     0
  3
HIDDEN04 ____ ____ ____ ____ ____ ____ ____ 
 72
    65
 73
     2
 40
5.5
 49
4.0
 49
-1.5
  0
LTYPE
  2
JIS_08_11
 70
     0
  3
1SASEN11 ___ _ ___ _ ___ _ ___ _ ___ _ ___
 72
    65
 73
     4
 40
12.8
 49
11.0
 49
-0.6
 49
0.6
 49
-0.6
  0
LTYPE
  2
JIS_08_15
 70
     0
  3
1SASEN15 ____ _ ____ _ ____ _ ____ _ ____ 
 72
    65
 73
     4
 40
17.25
 49
15.0
 49
-0.75
 49
0.75
 49
-0.75
  0
LTYPE
  2
JIS_08_25
 70
     0
  3
1SASEN25 ________  __  ________  __  _____
 72
    65
 73
     4
 40
28.0
 49
25.0
 49
-1.125
 49
0.75
 49
-1.125
  0
LTYPE
  2
JIS_08_37
 70
     0
  3
1SASEN37 ________  __  ________  __  _____
 72
    65
 73
     4
 40
40.5
 49
37.5
 49
-1.125
 49
0.75
 49
-1.125
  0
LTYPE
  2
JIS_08_50
 70
     0
  3
1SASEN50 _______________  __  ____________
 72
    65
 73
     4
 40
53.0
 49
50.0
 49
-1.125
 49
0.75
 49
-1.125
  0
LTYPE
  2
JIS_09_08
 70
     0
  3
2SASEN8 __ _ _ __ _ _ __ _ _ __ _ _ __ _ _ 
 72
    65
 73
     6
 40
10.75
 49
8.0
 49
-0.55
 49
0.55
 49
-0.55
 49
0.55
 49
-0.55
  0
LTYPE
  2
JIS_09_15
 70
     0
  3
2SASEN15 ___ _ _ ___ _ _ ___ _ _ ___ _ _ ___ 
 72
    65
 73
     6
 40
18.9
 49
15.0
 49
-0.9
 49
0.6
 49
-0.9
 49
0.6
 49
-0.9
  0
LTYPE
  2
JIS_09_29
 70
     0
  3
2SASEN29 ______　__  __  ______　__  __  ___
 72
    65
 73
     6
 40
34.0
 49
29.0
 49
-1.2
 49
0.7
 49
-1.2
 49
0.7
 49
-1.2
  0
LTYPE
  2
JIS_09_50
 70
     0
  3
2SASEN50 ____________　__  __  _____________
 72
    65
 73
     6
 40
55.0
 49
50.0
 49
-1.2
 49
0.7
 49
-1.2
 49
0.7
 49
-1.2
  0
LTYPE
  2
SXF_破線
 70
     0
  3
02 dashed -- -- -- -- -- --
 72
    65
 73
     2
 40
7.5
 49
6.0
 49
-1.5
  0
LTYPE
  2
SXF_跳び破線
 70
     0
  3
03 dashed_spaced --  --  --  --
 72
    65
 73
     2
 40
12.0
 49
6.0
 49
-6.0
  0
LTYPE
  2
SXF_一点長鎖線
 70
     0
  3
04 long_dashed_dotted ---- . ---- . ----
 72
    65
 73
     4
 40
15.25
 49
12.0
 49
-1.5
 49
0.25
 49
-1.5
  0
LTYPE
  2
SXF_二点長鎖線
 70
     0
  3
05 long_dashed_double-dotted ---- . . ---- 
 72
    65
 73
     6
 40
17.0
 49
12.0
 49
-1.5
 49
0.25
 49
-1.5
 49
0.25
 49
-1.5
  0
LTYPE
  2
SXF_三点長鎖線
 70
     0
  3
06 long_dashed_triplicate-dotted ---- ... ---- 
 72
    65
 73
     8
 40
18.75
 49
12.0
 49
-1.5
 49
0.25
 49
-1.5
 49
0.25
 49
-1.5
 49
0.25
 49
-1.5
  0
LTYPE
  2
SXF_点線
 70
     0
  3
07 dotted . . . . . . . . . . . . 
 72
    65
 73
     2
 40
1.75
 49
0.25
 49
-1.5
  0
LTYPE
  2
SXF_一点鎖線
 70
     0
  3
08 chain ---- - --- - --- - ---
 72
    65
 73
     4
 40
18.5
 49
12.0
 49
-1.5
 49
3.5
 49
-1.5
  0
LTYPE
  2
SXF_二点鎖線
 70
     0
  3
09 chain_double_dash ---- - - ---- - - ----
 72
    65
 73
     6
 40
23.5
 49
12.0
 49
-1.5
 49
3.5
 49
-1.5
 49
3.5
 49
-1.5
  0
LTYPE
  2
SXF_一点短鎖線
 70
     0
  3
10 dashed_dotted -- . -- . -- . --
 72
    65
 73
     4
 40
9.25
 49
6.0
 49
-1.5
 49
0.25
 49
-1.5
  0
LTYPE
  2
SXF_一点二短鎖線
 70
     0
  3
11 double-dashed_dotted -- -- . -- --
 72
    65
 73
     6
 40
16.75
 49
6.0
 49
-1.5
 49
6.0
 49
-1.5
 49
0.25
 49
-1.5
  0
LTYPE
  2
SXF_二点短鎖線
 70
     0
  3
12 dashed_double_dotted -- . . -- . . --
 72
    65
 73
     6
 40
11.0
 49
6.0
 49
-1.5
 49
0.25
 49
-1.5
 49
0.25
 49
-1.5
  0
LTYPE
  2
SXF_二点二短鎖線
 70
     0
  3
13 double-dashed_double-dotted -- -- . . -- --
 72
    65
 73
     8
 40
18.5
 49
6.0
 49
-1.5
 49
6.0
 49
-1.5
 49
0.25
 49
-1.5
 49
0.25
 49
-1.5
  0
LTYPE
  2
SXF_三点短鎖線
 70
     0
  3
14 dashed triplicate-dotted -- . . . -- . . . --
 72
    65
 73
     8
 40
12.75
 49
6.0
 49
-1.5
 49
0.25
 49
-1.5
 49
0.25
 49
-1.5
 49
0.25
 49
-1.5
  0
LTYPE
  2
SXF_三点二短鎖線
 70
     0
  3
15 double-dashed triplicate-dotted -- -- . . . -- -- 
 72
    65
 73
    10
 40
20.25
 49
6.0
 49
-1.5
 49
6.0
 49
-1.5
 49
0.25
 49
-1.5
 49
0.25
 49
-1.5
 49
0.25
 49
-1.5
  0
ENDTAB
  0
TABLE
  2
LAYER
 70
     3
  0
LAYER
  2
0
 70
     0
 62
     7
  6
CONTINUOUS
  0
LAYER
  2
LAYER0015
 70
     0
 62
     7
  6
CONTINUOUS
  0
LAYER
  2
ZUWAKU
 70
     0
 62
     7
  6
CONTINUOUS
  0
ENDTAB
  0
TABLE
  2
STYLE
 70
     4
  0
STYLE
  2
STANDARD
 70
     0
 40
0.0
 41
1.0
 50
0.0
 71
     0
 42
0.2
  3
txt.shx
  4
bigfont.shx
  0
STYLE
  2
DCSTYLE0
 70
     0
 40
0.0
 41
0.7142860412597656
 50
0.0
 71
     0
 42
0.2
  3
txt.shx
  4
bigfont
  0
STYLE
  2
DCSTYLE1
 70
     0
 40
0.0
 41
0.8
 50
0.0
 71
     0
 42
0.2
  3
ＭＳ 明朝
  4

  0
STYLE
  2
DCSTYLE2
 70
     0
 40
0.0
 41
1.0
 50
0.0
 71
     0
 42
0.2
  3
ＭＳ ゴシック
  4

  0
ENDTAB
  0
TABLE
  2
VIEW
 70
     0
  0
ENDTAB
  0
TABLE
  2
UCS
 70
     0
  0
ENDTAB
  0
TABLE
  2
APPID
 70
     2
  0
APPID
  2
ACAD
 70
     0
  0
APPID
  2
DAFUSIONOUT
 70
     0
  0
ENDTAB
  0
TABLE
  2
DIMSTYLE
 70
     1
  0
DIMSTYLE
  2
STANDARD
 70
     0
  3

  4

  5

  6

  7

 40
1.0
 41
0.18
 42
0.0625
 43
0.38
 44
0.18
 45
0.0
 46
0.0
 47
0.0
 48
0.0
140
0.18
141
0.09
142
0.0
143
25.4
144
1.0
145
0.0
146
1.0
147
0.09
 71
     0
 72
     0
 73
     1
 74
     1
 75
     0
 76
     0
 77
     0
 78
     0
170
     0
171
     2
172
     0
173
     0
174
     0
175
     0
176
     0
177
     0
178
     0
  0
ENDTAB
  0
ENDSEC
  0
SECTION
  2
BLOCKS
  0
BLOCK
  8
0
  2
$MODEL_SPACE
 70
     0
 10
0.0
 20
0.0
 30
0.0
  3
$MODEL_SPACE
  1

  0
ENDBLK
  5
21
  8
0
  0
BLOCK
 67
     1
  8
0
  2
$PAPER_SPACE
 70
     0
 10
0.0
 20
0.0
 30
0.0
  3
$PAPER_SPACE
  1

  0
ENDBLK
  5
1D
 67
     1
  8
0
  0
BLOCK
  8
0
  2
DC_GROUP_1
 70
     0
 10
0.0
 20
0.0
 30
0.0
  3
DC_GROUP_1
  1

  0
LINE
  5
198
  8
0
  6
CONTINUOUS
 62
     3
 10
-150.94202111071
 20
119.4915380324347
 30
0.0
 11
-142.94202111071
 21
119.4915380324347
 31
0.0
  0
ENDBLK
  5
B6
  8
0
  0
BLOCK
  8
0
  2
DC_GROUP_2
 70
     0
 10
0.0
 20
0.0
 30
0.0
  3
DC_GROUP_2
  1

  0
LINE
  5
199
  8
0
  6
CONTINUOUS
 62
     3
 10
-150.94202111071
 20
-39.50846196756523
 30
0.0
 11
-142.94202111071
 21
-39.50846196756523
 31
0.0
  0
ENDBLK
  5
B9
  8
0
  0
BLOCK
  8
0
  2
DC_GROUP_3
 70
     0
 10
0.0
 20
0.0
 30
0.0
  3
DC_GROUP_3
  1

  0
LINE
  5
19A
  8
0
  6
CONTINUOUS
 62
     3
 10
-142.94202111071
 20
-42.50845807836227
 30
0.0
 11
-142.94202111071
 21
-39.50846196756523
 31
0.0
  0
LINE
  5
19B
  8
0
  6
CONTINUOUS
 62
     3
 10
-142.94202111071
 20
119.4915380324347
 30
0.0
 11
-142.94202111071
 21
122.4915527398804
 31
0.0
  0
ENDBLK
  5
BC
  8
0
  0
BLOCK
  8
0
  2
DC_GROUP_4
 70
     0
 10
0.0
 20
0.0
 30
0.0
  3
DC_GROUP_4
  1

  0
LINE
  5
19C
  8
0
  6
CONTINUOUS
 62
     3
 10
-150.94202111071
 20
109.9915380324347
 30
0.0
 11
-146.7420211107101
 21
109.9915380324347
 31
0.0
  0
ENDBLK
  5
BF
  8
0
  0
BLOCK
  8
0
  2
DC_GROUP_5
 70
     0
 10
0.0
 20
0.0
 30
0.0
  3
DC_GROUP_5
  1

  0
LINE
  5
19D
  8
0
  6
CONTINUOUS
 62
     3
 10
-150.94202111071
 20
119.4915380324347
 30
0.0
 11
-150.94202111071
 21
-7.393456474401168
 31
0.0
  0
LINE
  5
19E
  8
0
  6
CONTINUOUS
 62
     3
 10
-150.94202111071
 20
-17.39345647440117
 30
0.0
 11
-150.94202111071
 21
-27.01363874558658
 31
0.0
  0
LINE
  5
19F
  8
0
  6
CONTINUOUS
 62
     3
 10
-150.94202111071
 20
-27.01363874558658
 30
0.0
 11
-150.94202111071
 21
-39.50846196756523
 31
0.0
  0
ENDBLK
  5
C2
  8
0
  0
BLOCK
  8
0
  2
DC_GROUP_6
 70
     0
 10
0.0
 20
0.0
 30
0.0
  3
DC_GROUP_6
  1

  0
LINE
  5
1A0
  8
0
  6
CONTINUOUS
 62
     3
 10
-146.7420211107101
 20
109.9915380324347
 30
0.0
 11
-146.7420211107101
 21
-7.393456474401168
 31
0.0
  0
LINE
  5
1A1
  8
0
  6
CONTINUOUS
 62
     3
 10
-146.7420211107101
 20
-17.39345647440117
 30
0.0
 11
-146.7420211107101
 21
-30.00846196756523
 31
0.0
  0
ENDBLK
  5
C5
  8
0
  0
BLOCK
  8
0
  2
DC_GROUP_7
 70
     0
 10
0.0
 20
0.0
 30
0.0
  3
DC_GROUP_7
  1

  0
LINE
  5
1A2
  8
0
  6
CONTINUOUS
 62
     3
 10
-166.9419995350977
 20
-17.39345647440117
 30
0.0
 11
-166.9419995350977
 21
-7.393456474401168
 31
0.0
  0
ENDBLK
  5
C8
  8
0
  0
BLOCK
  8
0
  2
DC_GROUP_8
 70
     0
 10
0.0
 20
0.0
 30
0.0
  3
DC_GROUP_8
  1

  0
LINE
  5
1A3
  8
0
  6
CONTINUOUS
 62
     4
 10
-166.9419995350977
 20
-8.393456474401168
 30
0.0
 11
-134.9419995350977
 21
-8.393456474401168
 31
0.0
  0
ENDBLK
  5
CB
  8
0
  0
BLOCK
  8
0
  2
DC_GROUP_9
 70
     0
 10
0.0
 20
0.0
 30
0.0
  3
DC_GROUP_9
  1

  0
LINE
  5
1A4
  8
0
  6
CONTINUOUS
 62
     4
 10
-166.9419995350977
 20
-16.39345647440117
 30
0.0
 11
-134.9419995350977
 21
-16.39345647440117
 31
0.0
  0
ENDBLK
  5
CE
  8
0
  0
BLOCK
  8
0
  2
DC_GROUP_10
 70
     0
 10
0.0
 20
0.0
 30
0.0
  3
DC_GROUP_10
  1

  0
LINE
  5
1A5
  8
0
  6
CONTINUOUS
 62
     3
 10
-150.94202111071
 20
-30.00846196756523
 30
0.0
 11
-146.7420211107101
 21
-30.00846196756523
 31
0.0
  0
ENDBLK
  5
D1
  8
0
  0
BLOCK
  8
0
  2
DC_IMAGEDIMGROUP_1
 70
     0
 10
0.0
 20
0.0
 30
0.0
  3
DC_IMAGEDIMGROUP_1
  1

  0
LINE
  5
1A6
  8
0
  6
CONTINUOUS
 62
     7
 10
-72.46240336971016
 20
28.9915384794696
 30
0.0
 11
-72.46240336971016
 21
50.99153758539993
 31
0.0
  0
INSERT
  5
1AD
  8
0
 62
     7
  2
_OPEN30
 10
-72.46240336971016
 20
28.9915384794696
 30
0.0
 41
2.499995396844351
 42
2.500007167085477
 50
270.0
  0
INSERT
  5
1AE
  8
0
 62
     7
  2
_OPEN30
 10
-72.46240336971016
 20
50.99153758539993
 30
0.0
 41
2.499995396844351
 42
2.500007167085477
 50
90.0
  0
LINE
  5
1AF
  8
0
  6
CONTINUOUS
 62
     7
 10
-88.44202732449415
 20
28.9915384794696
 30
0.0
 11
-71.46240336971016
 21
28.9915384794696
 31
0.0
  0
LINE
  5
1B0
  8
0
  6
CONTINUOUS
 62
     7
 10
-88.44202732449415
 20
50.99153758539993
 30
0.0
 11
-71.46240336971016
 21
50.99153758539993
 31
0.0
  0
TEXT
  5
1B2
  8
0
 62
     7
 10
-72.96240336971016
 20
35.19153803243476
 30
0.0
 40
4.0
  1
φ22
 50
90.0
 41
0.9163636363636359
  7
DCSTYLE0
 72
     5
 11
-72.96240336971016
 21
44.79153803243476
 31
0.0
  0
ENDBLK
  5
D4
  8
0
  0
BLOCK
  8
0
  2
DC_IMAGEDIMGROUP_2
 70
     0
 10
0.0
 20
0.0
 30
0.0
  3
DC_IMAGEDIMGROUP_2
  1

  0
LINE
  5
1B3
  8
0
  6
CONTINUOUS
 62
     7
 10
-88.44202732449415
 20
35.99155341043266
 30
0.0
 11
-82.24435664966433
 21
35.99155341043266
 31
0.0
  0
LINE
  5
1B4
  8
0
  6
CONTINUOUS
 62
     7
 10
-88.44202732449415
 20
43.99156843080269
 30
0.0
 11
-82.24435664966433
 21
43.99156843080269
 31
0.0
  0
LINE
  5
1B5
  8
0
  6
CONTINUOUS
 62
     7
 10
-83.24435664966433
 20
35.99155341043266
 30
0.0
 11
-83.24435664966433
 21
43.99156843080269
 31
0.0
  0
INSERT
  5
1B6
  8
0
 62
     7
  2
_OPEN30
 10
-83.24435664966433
 20
35.99155341043266
 30
0.0
 41
2.499995396844351
 42
2.500007167085477
 50
270.0
  0
INSERT
  5
1B7
  8
0
 62
     7
  2
_OPEN30
 10
-83.24435664966433
 20
43.99156843080269
 30
0.0
 41
2.499995396844351
 42
2.500007167085477
 50
90.0
  0
TEXT
  5
1B8
  8
0
 62
     7
 10
-83.74435664966433
 20
38.39156092061768
 30
0.0
 40
4.0
  1
8
 50
90.0
 41
0.9882352941176435
  7
DCSTYLE0
 72
     5
 11
-83.74435664966433
 21
41.59156092061767
 31
0.0
  0
ENDBLK
  5
D7
  8
0
  0
BLOCK
  8
0
  2
DC_IMAGEDIMGROUP_3
 70
     0
 10
0.0
 20
0.0
 30
0.0
  3
DC_IMAGEDIMGROUP_3
  1

  0
LINE
  5
1B9
  8
0
  6
CONTINUOUS
 62
     7
 10
-34.94202111071004
 20
141.5133692832837
 30
0.0
 11
-32.94201735561753
 21
141.5133692832837
 31
0.0
  0
LINE
  5
1BA
  8
0
  6
CONTINUOUS
 62
     7
 10
-34.94202111071004
 20
120.5224060551487
 30
0.0
 11
-34.94202111071004
 21
142.5133692832837
 31
0.0
  0
LINE
  5
1BB
  8
0
  6
CONTINUOUS
 62
     7
 10
-32.94201735561753
 20
120.5688919993457
 30
0.0
 11
-32.94201735561753
 21
142.5133692832837
 31
0.0
  0
LINE
  5
1BC
  8
0
  6
CONTINUOUS
 62
     7
 10
-74.69014899317719
 20
141.5133692832837
 30
0.0
 11
-34.94202111071004
 21
141.5133692832837
 31
0.0
  0
INSERT
  5
1BD
  8
0
 62
     7
  2
_OPEN30
 10
-34.94202111071004
 20
141.5133692832837
 30
0.0
 41
2.499995396844351
 42
2.500007167085477
 50
360.0
  0
LINE
  5
1BE
  8
0
  6
CONTINUOUS
 62
     7
 10
-27.94201735561753
 20
141.5133692832837
 30
0.0
 11
-32.94201735561753
 21
141.5133692832837
 31
0.0
  0
INSERT
  5
1BF
  8
0
 62
     7
  2
_OPEN30
 10
-32.94201735561753
 20
141.5133692832837
 30
0.0
 41
2.499995396844351
 42
2.500007167085477
 50
180.0
  0
TEXT
  5
1C0
  8
0
 62
     7
 10
-73.69014899317719
 20
142.0133692832837
 30
0.0
 40
4.0
  1
2(チャック上面から）
 41
0.9575129533678761
  7
DCSTYLE0
 72
     5
 11
-38.49014899317718
 21
142.0133692832837
 31
0.0
  0
ENDBLK
  5
DA
  8
0
  0
BLOCK
  8
0
  2
DC_IMAGEDIMGROUP_4
 70
     0
 10
0.0
 20
0.0
 30
0.0
  3
DC_IMAGEDIMGROUP_4
  1

  0
LINE
  5
1C1
  8
0
  6
CONTINUOUS
 62
     7
 10
-166.9419995350977
 20
-26.04874886571273
 30
0.0
 11
-146.7420211107101
 21
-26.04874886571273
 31
0.0
  0
INSERT
  5
1C2
  8
0
 62
     7
  2
_OPEN30
 10
-166.9419995350977
 20
-26.04874886571273
 30
0.0
 41
2.499995396844351
 42
2.500007167085477
 50
180.0
  0
INSERT
  5
1C3
  8
0
 62
     7
  2
_OPEN30
 10
-146.7420211107101
 20
-26.04874886571273
 30
0.0
 41
2.499995396844351
 42
2.500007167085477
 50
360.0
  0
LINE
  5
1C4
  8
0
  6
CONTINUOUS
 62
     7
 10
-166.9419995350977
 20
-18.39345647440117
 30
0.0
 11
-166.9419995350977
 21
-27.04874886571273
 31
0.0
  0
TEXT
  5
1C5
  8
0
 62
     7
 10
-160.0420103229039
 20
-25.54874886571273
 30
0.0
 40
4.0
  1
20
 41
0.9081081081081049
  7
DCSTYLE0
 72
     5
 11
-153.6420103229039
 21
-25.54874886571273
 31
0.0
  0
ENDBLK
  5
DD
  8
0
  0
BLOCK
  8
0
  2
DC_IMAGEDIMGROUP_5
 70
     0
 10
0.0
 20
0.0
 30
0.0
  3
DC_IMAGEDIMGROUP_5
  1

  0
LINE
  5
1C6
  8
0
  6
CONTINUOUS
 62
     7
 10
-85.67604199653337
 20
-21.54345647440117
 30
0.0
 11
-85.67604199653337
 21
-3.243456474401169
 31
0.0
  0
INSERT
  5
1C7
  8
0
 62
     7
  2
_OPEN30
 10
-85.67604199653337
 20
-21.54345647440117
 30
0.0
 41
2.499995396844351
 42
2.500007167085477
 50
270.0
  0
INSERT
  5
1C8
  8
0
 62
     7
  2
_OPEN30
 10
-85.67604199653337
 20
-3.243456474401169
 30
0.0
 41
2.499995396844351
 42
2.500007167085477
 50
90.0
  0
TEXT
  5
1C9
  8
0
 62
     7
 10
-86.17604199653337
 20
-20.39345647440117
 30
0.0
 40
4.0
  1
φ18.3
 50
90.0
 41
0.9882352941176471
  7
DCSTYLE0
 72
     5
 11
-86.17604199653337
 21
-4.393456474401168
 31
0.0
  0
ENDBLK
  5
E0
  8
0
  0
BLOCK
  8
0
  2
DC_GROUP_11
 70
     0
 10
0.0
 20
0.0
 30
0.0
  3
DC_GROUP_11
  1

  0
LINE
  5
1CA
  8
LAYER0015
  6
CONTINUOUS
 62
     5
 10
203.3844519208025
 20
76.30326104497348
 30
0.0
 11
199.6344519208025
 21
82.79845145677959
 31
0.0
  0
LINE
  5
1CB
  8
LAYER0015
  6
CONTINUOUS
 62
     5
 10
197.264264812621
 20
71.90374391114153
 30
0.0
 11
199.514264812621
 21
68.00662966405787
 31
0.0
  0
LINE
  5
1CC
  8
LAYER0015
  6
CONTINUOUS
 62
     5
 10
199.5142377089774
 20
68.0066405360615
 30
0.0
 11
198.4897175801782
 21
68.28115986866865
 31
0.0
  0
LINE
  5
1CD
  8
LAYER0015
  6
CONTINUOUS
 62
     5
 10
199.5143071683635
 20
68.00660568935345
 30
0.0
 11
199.788828389242
 21
69.03113321072215
 31
0.0
  0
LINE
  5
1CE
  8
LAYER0015
  6
CONTINUOUS
 62
     5
 10
196.9897759932517
 20
70.87920620026199
 30
0.0
 11
197.26429721413
 21
71.90373372163069
 31
0.0
  0
LINE
  5
1CF
  8
LAYER0015
  6
CONTINUOUS
 62
     5
 10
198.2887554492003
 20
71.6292395876736
 30
0.0
 11
197.2642445321873
 21
71.90375645199012
 31
0.0
  0
LINE
  5
1D0
  8
LAYER0015
  6
CONTINUOUS
 62
     5
 10
190.3940510199059
 20
68.80325385818071
 30
0.0
 11
203.3844318435181
 21
76.30325385818068
 31
0.0
  0
LINE
  5
1D1
  8
LAYER0015
  6
CONTINUOUS
 62
     5
 10
190.3940611863162
 20
68.80325532292761
 30
0.0
 11
184.7690592789675
 21
78.54604424426142
 31
0.0
  0
LINE
  5
1D2
  8
LAYER0015
  6
CONTINUOUS
 62
     5
 10
184.769056801249
 20
78.54604281374995
 30
0.0
 11
186.7176135118377
 21
79.67104257533137
 31
0.0
  0
LINE
  5
1D3
  8
LAYER0015
  6
CONTINUOUS
 62
     5
 10
191.3146199844108
 20
80.70883028973634
 30
0.0
 11
191.5891412052893
 21
81.73335781110504
 31
0.0
  0
LINE
  5
1D4
  8
LAYER0015
  6
CONTINUOUS
 62
     5
 10
191.5891039939474
 20
81.73339881748348
 30
0.0
 11
190.5645838651482
 21
82.0079181500906
 31
0.0
  0
LINE
  5
1D5
  8
LAYER0015
  6
CONTINUOUS
 62
     5
 10
189.0260006549808
 20
80.25353296123566
 30
0.0
 11
191.5891116690382
 21
81.73334582172455
 31
0.0
  0
LINE
  5
1D6
  8
LAYER0015
  6
CONTINUOUS
 62
     5
 10
187.2801212005296
 20
78.69676404779588
 30
0.0
 11
186.7176231078782
 21
79.67103930594212
 31
0.0
  0
LINE
  5
1D7
  8
LAYER0015
  6
CONTINUOUS
 62
     5
 10
187.280108811937
 20
78.69675689523851
 30
0.0
 11
188.5791468942982
 21
79.44675689523851
 31
0.0
  0
LINE
  5
1D8
  8
LAYER0015
  6
CONTINUOUS
 62
     5
 10
189.1416592828908
 20
78.47248548602496
 30
0.0
 11
188.5791592828908
 21
79.44676404779588
 31
0.0
  0
LINE
  5
1D9
  8
LAYER0015
  6
CONTINUOUS
 62
     5
 10
191.1906944745805
 20
77.92344573473369
 30
0.0
 11
190.4406944745805
 21
79.22248381709491
 31
0.0
  0
LINE
  5
1DA
  8
LAYER0015
  6
CONTINUOUS
 62
     5
 10
189.1416416833249
 20
78.47247972974364
 30
0.0
 11
190.4406900895133
 21
79.22248569020812
 31
0.0
  0
LINE
  5
1DB
  8
LAYER0015
  6
CONTINUOUS
 62
     5
 10
186.6440587085976
 20
75.29844430422222
 30
0.0
 11
199.6344337508667
 21
82.79844096636211
 31
0.0
  0
LINE
  5
1DC
  8
LAYER0015
  6
CONTINUOUS
 62
     5
 10
195.7501891977985
 20
78.27772970328459
 30
0.0
 11
194.983478496367
 21
77.65685973026316
 31
0.0
  0
LINE
  5
1DD
  8
LAYER0015
  6
CONTINUOUS
 62
     5
 10
195.750212085414
 20
78.27773113124482
 30
0.0
 11
195.1293516004769
 21
79.04442990821548
 31
0.0
  0
ARC
  5
1DE
  8
LAYER0015
  6
CONTINUOUS
 62
     5
 10
195.070801435702
 20
75.74215657254726
 30
0.0
 40
2.625001907348633
 50
75.00010847607969
 51
9.999950483932738
  0
TEXT
  5
1DF
  8
LAYER0015
 62
     5
 10
197.2382274618034
 20
68.1890459171401
 30
0.0
 40
2.5
  1
F
 50
120.000000445292
 41
1.085973374983845
  7
DCSTYLE0
 72
     5
 11
196.1393258175629
 21
70.09239936332371
 31
0.0
  0
TEXT
  5
1E0
  8
LAYER0015
 62
     5
 10
190.5834436077116
 20
83.12034226155706
 30
0.0
 40
2.5
  1
ΣS
 50
120.0000004452921
 41
1.265934348106386
  7
DCSTYLE0
 72
     5
 11
187.946080346988
 21
87.68838934515756
 31
0.0
  0
TEXT
  5
1E1
  8
LAYER0015
 62
     5
 10
199.8529666763063
 20
78.69838480391769
 30
0.0
 40
2.5
  1
N min
 50
120.0000004452921
 41
1.0828125
  7
DCSTYLE0
 72
     5
 11
193.6654665930153
 21
89.41544912766203
 31
0.0
  0
TEXT
  5
1E2
  8
LAYER0015
 62
     5
 10
191.5155659971909
 20
89.58149367520183
 30
0.0
 40
1.25
  1
-1
 50
120.0000004452921
 41
1.021621743408411
  7
DCSTYLE0
 72
     5
 11
190.3905658479366
 21
91.53005105725964
 31
0.0
  0
ENDBLK
  5
E3
  8
0
  0
BLOCK
  8
0
  2
DC_GROUP_12
 70
     0
 10
0.0
 20
0.0
 30
0.0
  3
DC_GROUP_12
  1

  0
POINT
  5
1E3
  8
0
  6
CONTINUOUS
 62
     5
 10
133.1494894086313
 20
-12.39324579871876
 30
0.0
  0
CIRCLE
  5
1E4
  8
0
  6
CONTINUOUS
 62
     3
 10
133.1494894086313
 20
-12.39324579871876
 30
0.0
 40
5.773503
  0
CIRCLE
  5
1E5
  8
0
  6
CONTINUOUS
 62
     3
 10
133.1494894086313
 20
-12.39324579871876
 30
0.0
 40
10.4775
  0
LINE
  5
1E6
  8
0
  6
CONTINUOUS
 62
     3
 10
128.1494894086313
 20
-15.27999679871876
 30
0.0
 11
128.1494894086313
 21
-9.50649479871876
 31
0.0
  0
LINE
  5
1E7
  8
0
  6
CONTINUOUS
 62
     3
 10
138.1494894086312
 20
-9.50649479871876
 30
0.0
 11
138.1494894086312
 21
-15.27999679871876
 31
0.0
  0
LINE
  5
1E8
  8
0
  6
CONTINUOUS
 62
     3
 10
133.1494894086313
 20
-18.16674879871876
 30
0.0
 11
128.1494894086313
 21
-15.27999679871876
 31
0.0
  0
LINE
  5
1E9
  8
0
  6
CONTINUOUS
 62
     3
 10
138.1494894086312
 20
-15.27999679871876
 30
0.0
 11
133.1494894086313
 21
-18.16674879871876
 31
0.0
  0
LINE
  5
1EA
  8
0
  6
CONTINUOUS
 62
     3
 10
128.1494894086313
 20
-9.50649479871876
 30
0.0
 11
133.1494894086313
 21
-6.619742798718759
 31
0.0
  0
LINE
  5
1EB
  8
0
  6
CONTINUOUS
 62
     3
 10
133.1494894086313
 20
-6.619742798718759
 30
0.0
 11
138.1494894086312
 21
-9.50649479871876
 31
0.0
  0
CIRCLE
  5
1EC
  8
0
  6
CONTINUOUS
 62
     3
 10
133.1494894086313
 20
-12.39324579871876
 30
0.0
 40
10.026511
  0
ENDBLK
  5
E6
  8
0
  0
BLOCK
  8
0
  2
DC_GROUP_13
 70
     0
 10
0.0
 20
0.0
 30
0.0
  3
DC_GROUP_13
  1

  0
POINT
  5
1ED
  8
0
  6
CONTINUOUS
 62
     5
 10
178.5151986147187
 20
66.18492061870322
 30
0.0
  0
CIRCLE
  5
1EE
  8
0
  6
CONTINUOUS
 62
     3
 10
178.5151986147187
 20
66.18492061870322
 30
0.0
 40
5.773502999999999
  0
CIRCLE
  5
1EF
  8
0
  6
CONTINUOUS
 62
     3
 10
178.5151986147187
 20
66.18492061870322
 30
0.0
 40
10.4775
  0
LINE
  5
1F0
  8
0
  6
CONTINUOUS
 62
     3
 10
183.5151983151188
 20
63.29816909978101
 30
0.0
 11
178.5151989143185
 21
60.411418099781
 31
0.0
  0
LINE
  5
1F1
  8
0
  6
CONTINUOUS
 62
     3
 10
173.5151989143185
 20
69.0716721376254
 30
0.0
 11
178.5151983151188
 21
71.9584231376254
 31
0.0
  0
LINE
  5
1F2
  8
0
  6
CONTINUOUS
 62
     3
 10
183.5151988815444
 20
69.07167211870322
 30
0.0
 11
183.5151983151188
 21
63.29816909978101
 31
0.0
  0
LINE
  5
1F3
  8
0
  6
CONTINUOUS
 62
     3
 10
178.5151983151188
 20
71.9584231376254
 30
0.0
 11
183.5151988815444
 21
69.07167211870322
 31
0.0
  0
LINE
  5
1F4
  8
0
  6
CONTINUOUS
 62
     3
 10
178.5151989143185
 20
60.411418099781
 30
0.0
 11
173.515198347893
 21
63.29816911870321
 31
0.0
  0
LINE
  5
1F5
  8
0
  6
CONTINUOUS
 62
     3
 10
173.515198347893
 20
63.29816911870321
 30
0.0
 11
173.5151989143185
 21
69.0716721376254
 31
0.0
  0
CIRCLE
  5
1F6
  8
0
  6
CONTINUOUS
 62
     3
 10
178.5151986147187
 20
66.18492061870322
 30
0.0
 40
10.026511
  0
ENDBLK
  5
E9
  8
0
  0
BLOCK
  8
0
  2
DC_GROUP_14
 70
     0
 10
0.0
 20
0.0
 30
0.0
  3
DC_GROUP_14
  1

  0
POINT
  5
1F7
  8
0
  6
CONTINUOUS
 62
     5
 10
87.78165571138629
 20
66.18369404316152
 30
0.0
  0
CIRCLE
  5
1F8
  8
0
  6
CONTINUOUS
 62
     3
 10
87.78165571138629
 20
66.18369404316152
 30
0.0
 40
5.773502999999998
  0
CIRCLE
  5
1F9
  8
0
  6
CONTINUOUS
 62
     3
 10
87.78165571138629
 20
66.18369404316152
 30
0.0
 40
10.4775
  0
LINE
  5
1FA
  8
0
  6
CONTINUOUS
 62
     3
 10
87.78165601098618
 20
71.95719656208371
 30
0.0
 11
92.78165541178646
 21
69.0704455620837
 31
0.0
  0
LINE
  5
1FB
  8
0
  6
CONTINUOUS
 62
     3
 10
87.78165541178646
 20
60.41019152423931
 30
0.0
 11
82.78165601098618
 21
63.29694252423931
 31
0.0
  0
LINE
  5
1FC
  8
0
  6
CONTINUOUS
 62
     3
 10
82.78165544456061
 20
69.07044554316153
 30
0.0
 11
87.78165601098618
 21
71.95719656208371
 31
0.0
  0
LINE
  5
1FD
  8
0
  6
CONTINUOUS
 62
     3
 10
82.78165601098618
 20
63.29694252423931
 30
0.0
 11
82.78165544456061
 21
69.07044554316153
 31
0.0
  0
LINE
  5
1FE
  8
0
  6
CONTINUOUS
 62
     3
 10
92.78165541178646
 20
69.0704455620837
 30
0.0
 11
92.78165597821197
 21
63.29694254316152
 31
0.0
  0
LINE
  5
1FF
  8
0
  6
CONTINUOUS
 62
     3
 10
92.78165597821197
 20
63.29694254316152
 30
0.0
 11
87.78165541178646
 21
60.41019152423931
 31
0.0
  0
CIRCLE
  5
200
  8
0
  6
CONTINUOUS
 62
     3
 10
87.78165571138629
 20
66.18369404316152
 30
0.0
 40
10.026511
  0
ENDBLK
  5
EC
  8
0
  0
BLOCK
  8
0
  2
DC_IMAGEDIMGROUP_6
 70
     0
 10
0.0
 20
0.0
 30
0.0
  3
DC_IMAGEDIMGROUP_6
  1

  0
LINE
  5
201
  8
0
  6
CONTINUOUS
 62
     7
 10
-167.9419995350977
 20
-17.39345647440117
 30
0.0
 11
-177.9419989390513
 21
-17.39345647440117
 31
0.0
  0
LINE
  5
202
  8
0
  6
CONTINUOUS
 62
     7
 10
-167.9419995350977
 20
-7.393456474401168
 30
0.0
 11
-177.9419989390513
 21
-7.393456474401168
 31
0.0
  0
LINE
  5
203
  8
0
  6
CONTINUOUS
 62
     7
 10
-176.9419989390513
 20
-17.39345647440117
 30
0.0
 11
-176.9419989390513
 21
-7.393456474401168
 31
0.0
  0
LINE
  5
204
  8
0
  6
CONTINUOUS
 62
     7
 10
-176.9419989390513
 20
6.138393525598856
 30
0.0
 11
-176.9419989390513
 21
-7.393456474401168
 31
0.0
  0
INSERT
  5
205
  8
0
 62
     7
  2
_OPEN30
 10
-176.9419989390513
 20
-7.393456474401168
 30
0.0
 41
2.499995396844351
 42
2.500007167085477
 50
270.0
  0
LINE
  5
206
  8
0
  6
CONTINUOUS
 62
     7
 10
-176.9419989390513
 20
-22.39345647440117
 30
0.0
 11
-176.9419989390513
 21
-17.39345647440117
 31
0.0
  0
INSERT
  5
207
  8
0
 62
     7
  2
_OPEN30
 10
-176.9419989390513
 20
-17.39345647440117
 30
0.0
 41
2.499995396844351
 42
2.500007167085477
 50
90.0
  0
TEXT
  5
208
  8
0
 62
     7
 10
-177.4419989390513
 20
-4.461606474401168
 30
0.0
 40
4.0
  1
M10
 50
90.0
 41
0.826229508196721
  7
DCSTYLE0
 72
     5
 11
-177.4419989390513
 21
5.138393525598826
 31
0.0
  0
ENDBLK
  5
EF
  8
0
  0
BLOCK
  8
0
  2
DC_IMAGEDIMGROUP_7
 70
     0
 10
0.0
 20
0.0
 30
0.0
  3
DC_IMAGEDIMGROUP_7
  1

  0
LINE
  5
209
  8
0
  6
CONTINUOUS
 62
     7
 10
-177.4419989390513
 20
16.99155493035105
 30
0.0
 11
-177.4419989390513
 21
62.99155486617403
 31
0.0
  0
INSERT
  5
20A
  8
0
 62
     7
  2
_OPEN30
 10
-177.4419989390513
 20
16.99155493035105
 30
0.0
 41
2.499995396844351
 42
2.500007167085477
 50
270.0
  0
INSERT
  5
20B
  8
0
 62
     7
  2
_OPEN30
 10
-177.4419989390513
 20
62.99155486617403
 30
0.0
 41
2.499995396844351
 42
2.500007167085477
 50
90.0
  0
LINE
  5
20C
  8
0
  6
CONTINUOUS
 62
     7
 10
-120.4420264304245
 20
16.99155493035105
 30
0.0
 11
-178.4419989390513
 21
16.99155493035105
 31
0.0
  0
LINE
  5
20D
  8
0
  6
CONTINUOUS
 62
     7
 10
-120.442012689958
 20
62.99155486617403
 30
0.0
 11
-178.4419989390513
 21
62.99155486617403
 31
0.0
  0
TEXT
  5
20E
  8
0
 62
     7
 10
-177.9419989390513
 20
35.19155489826252
 30
0.0
 40
4.0
  1
φ46
 50
90.0
 41
0.9163636363636387
  7
DCSTYLE0
 72
     5
 11
-177.9419989390513
 21
44.79155489826255
 31
0.0
  0
ENDBLK
  5
F2
  8
0
  0
BLOCK
  8
0
  2
DC_IMAGEDIMGROUP_8
 70
     0
 10
0.0
 20
0.0
 30
0.0
  3
DC_IMAGEDIMGROUP_8
  1

  0
LINE
  5
20F
  8
0
  6
CONTINUOUS
 62
     7
 10
-121.442022585925
 20
20.99153955235315
 30
0.0
 11
-168.9419995350977
 21
20.99153955235315
 31
0.0
  0
LINE
  5
210
  8
0
  6
CONTINUOUS
 62
     7
 10
-121.442022585925
 20
58.99156226172212
 30
0.0
 11
-168.9419995350977
 21
58.99156226172212
 31
0.0
  0
LINE
  5
211
  8
0
  6
CONTINUOUS
 62
     7
 10
-167.9419995350977
 20
20.99153955235315
 30
0.0
 11
-167.9419995350977
 21
58.99156226172212
 31
0.0
  0
INSERT
  5
212
  8
0
 62
     7
  2
_OPEN30
 10
-167.9419995350977
 20
20.99153955235315
 30
0.0
 41
2.499995396844351
 42
2.500007167085477
 50
270.0
  0
INSERT
  5
213
  8
0
 62
     7
  2
_OPEN30
 10
-167.9419995350977
 20
58.99156226172212
 30
0.0
 41
2.499995396844351
 42
2.500007167085477
 50
90.0
  0
TEXT
  5
214
  8
0
 62
     7
 10
-168.4419995350977
 20
27.19155090703762
 30
0.0
 40
4.0
  1
M38×Ｐ1.5
 50
90.0
 41
0.9142857142857151
  7
DCSTYLE0
 72
     5
 11
-168.4419995350977
 21
52.79155090703765
 31
0.0
  0
ENDBLK
  5
F5
  8
0
  0
BLOCK
  8
0
  2
DC_IMAGEDIMGROUP_9
 70
     0
 10
0.0
 20
0.0
 30
0.0
  3
DC_IMAGEDIMGROUP_9
  1

  0
LINE
  5
215
  8
0
  6
CONTINUOUS
 62
     7
 10
-147.7420211107101
 20
9.491569458982783
 30
0.0
 11
-188.9419983430049
 21
9.491569458982783
 31
0.0
  0
LINE
  5
216
  8
0
  6
CONTINUOUS
 62
     7
 10
-147.7420211107101
 20
70.49155238225256
 30
0.0
 11
-188.9419983430049
 21
70.49155238225256
 31
0.0
  0
LINE
  5
217
  8
0
  6
CONTINUOUS
 62
     7
 10
-187.9419983430049
 20
9.491569458982783
 30
0.0
 11
-187.9419983430049
 21
70.49155238225256
 31
0.0
  0
INSERT
  5
218
  8
0
 62
     7
  2
_OPEN30
 10
-187.9419983430049
 20
9.491569458982783
 30
0.0
 41
2.499995396844351
 42
2.500007167085477
 50
270.0
  0
INSERT
  5
219
  8
0
 62
     7
  2
_OPEN30
 10
-187.9419983430049
 20
70.49155238225256
 30
0.0
 41
2.499995396844351
 42
2.500007167085477
 50
90.0
  0
TEXT
  5
21A
  8
0
 62
     7
 10
-188.4419983430049
 20
35.19156092061766
 30
0.0
 40
4.0
  1
φ61
 50
90.0
 41
1.028571428571431
  7
DCSTYLE0
 72
     5
 11
-188.4419983430049
 21
44.79156092061768
 31
0.0
  0
ENDBLK
  5
F8
  8
0
  0
BLOCK
  8
0
  2
DC_IMAGEDIMGROUP_10
 70
     0
 10
0.0
 20
0.0
 30
0.0
  3
DC_IMAGEDIMGROUP_10
  1

  0
LINE
  5
21B
  8
0
  6
CONTINUOUS
 62
     7
 10
-151.94202111071
 20
-30.00846196756523
 30
0.0
 11
-199.4419977469585
 21
-30.00846196756523
 31
0.0
  0
LINE
  5
21C
  8
0
  6
CONTINUOUS
 62
     7
 10
-151.94202111071
 20
109.9915380324347
 30
0.0
 11
-199.4419977469585
 21
109.9915380324347
 31
0.0
  0
LINE
  5
21D
  8
0
  6
CONTINUOUS
 62
     7
 10
-198.4419977469585
 20
-30.00846196756523
 30
0.0
 11
-198.4419977469585
 21
109.9915380324347
 31
0.0
  0
INSERT
  5
21E
  8
0
 62
     7
  2
_OPEN30
 10
-198.4419977469585
 20
-30.00846196756523
 30
0.0
 41
2.499995396844351
 42
2.500007167085477
 50
270.0
  0
INSERT
  5
21F
  8
0
 62
     7
  2
_OPEN30
 10
-198.4419977469585
 20
109.9915380324347
 30
0.0
 41
2.499995396844351
 42
2.500007167085477
 50
90.0
  0
TEXT
  5
220
  8
0
 62
     7
 10
-198.9419977469585
 20
30.39153803243475
 30
0.0
 40
4.0
  1
φ140Ｈ7
 50
90.0
 41
0.892035398230088
  7
DCSTYLE0
 72
     5
 11
-198.9419977469585
 21
49.59153803243474
 31
0.0
  0
ENDBLK
  5
FB
  8
0
  0
BLOCK
  8
0
  2
DC_IMAGEDIMGROUP_11
 70
     0
 10
0.0
 20
0.0
 30
0.0
  3
DC_IMAGEDIMGROUP_11
  1

  0
LINE
  5
221
  8
0
  6
CONTINUOUS
 62
     7
 10
-151.94202111071
 20
-39.50846196756523
 30
0.0
 11
-209.441997150912
 21
-39.50846196756523
 31
0.0
  0
LINE
  5
222
  8
0
  6
CONTINUOUS
 62
     7
 10
-151.94202111071
 20
119.4915380324347
 30
0.0
 11
-209.441997150912
 21
119.4915380324347
 31
0.0
  0
LINE
  5
223
  8
0
  6
CONTINUOUS
 62
     7
 10
-208.441997150912
 20
-39.50846196756523
 30
0.0
 11
-208.441997150912
 21
119.4915380324347
 31
0.0
  0
INSERT
  5
224
  8
0
 62
     7
  2
_OPEN30
 10
-208.441997150912
 20
-39.50846196756523
 30
0.0
 41
2.499995396844351
 42
2.500007167085477
 50
270.0
  0
INSERT
  5
225
  8
0
 62
     7
  2
_OPEN30
 10
-208.441997150912
 20
119.4915380324347
 30
0.0
 41
2.499995396844351
 42
2.500007167085477
 50
90.0
  0
TEXT
  5
226
  8
0
 62
     7
 10
-208.941997150912
 20
33.59153803243474
 30
0.0
 40
4.0
  1
φ159
 50
90.0
 41
0.9081081081081089
  7
DCSTYLE0
 72
     5
 11
-208.941997150912
 21
46.39153803243475
 31
0.0
  0
ENDBLK
  5
FE
  8
0
  0
BLOCK
  8
0
  2
DC_IMAGEDIMGROUP_12
 70
     0
 10
0.0
 20
0.0
 30
0.0
  3
DC_IMAGEDIMGROUP_12
  1

  0
LINE
  5
227
  8
0
  6
CONTINUOUS
 62
     7
 10
-143.94202111071
 20
-42.50845807836227
 30
0.0
 11
-219.4419965548656
 21
-42.50845807836227
 31
0.0
  0
LINE
  5
228
  8
0
  6
CONTINUOUS
 62
     7
 10
-143.94202111071
 20
122.4915527398804
 30
0.0
 11
-219.4419965548656
 21
122.4915527398804
 31
0.0
  0
LINE
  5
229
  8
0
  6
CONTINUOUS
 62
     7
 10
-218.4419965548656
 20
-42.50845807836227
 30
0.0
 11
-218.4419965548656
 21
122.4915527398804
 31
0.0
  0
INSERT
  5
22A
  8
0
 62
     7
  2
_OPEN30
 10
-218.4419965548656
 20
-42.50845807836227
 30
0.0
 41
2.499995396844351
 42
2.500007167085477
 50
270.0
  0
INSERT
  5
22B
  8
0
 62
     7
  2
_OPEN30
 10
-218.4419965548656
 20
122.4915527398804
 30
0.0
 41
2.499995396844351
 42
2.500007167085477
 50
90.0
  0
TEXT
  5
22C
  8
0
 62
     7
 10
-218.9419965548656
 20
33.59154733075907
 30
0.0
 40
4.0
  1
φ165
 50
90.0
 41
0.8960000000000009
  7
DCSTYLE0
 72
     5
 11
-218.9419965548656
 21
46.39154733075908
 31
0.0
  0
ENDBLK
  5
101
  8
0
  0
BLOCK
  8
0
  2
DC_IMAGEDIMGROUP_13
 70
     0
 10
0.0
 20
0.0
 30
0.0
  3
DC_IMAGEDIMGROUP_13
  1

  0
LINE
  5
22D
  8
0
  6
CONTINUOUS
 62
     7
 10
-25.41058219178534
 20
24.99153612508613
 30
0.0
 11
-25.41058219178534
 21
54.99153993978339
 31
0.0
  0
INSERT
  5
22E
  8
0
 62
     7
  2
_OPEN30
 10
-25.41058219178534
 20
24.99153612508613
 30
0.0
 41
2.499995396844351
 42
2.500007167085477
 50
270.0
  0
INSERT
  5
22F
  8
0
 62
     7
  2
_OPEN30
 10
-25.41058219178534
 20
54.99153993978339
 30
0.0
 41
2.499995396844351
 42
2.500007167085477
 50
90.0
  0
LINE
  5
230
  8
0
  6
CONTINUOUS
 62
     7
 10
-34.44202111071004
 20
24.99153612508613
 30
0.0
 11
-24.41058219178534
 21
24.99153612508613
 31
0.0
  0
LINE
  5
231
  8
0
  6
CONTINUOUS
 62
     7
 10
-34.44202111071004
 20
54.99153993978339
 30
0.0
 11
-24.41058219178534
 21
54.99153993978339
 31
0.0
  0
TEXT
  5
232
  8
0
 62
     7
 10
-25.91058219178534
 20
31.99153803243476
 30
0.0
 40
4.0
  1
φ30Ｈ7
 50
90.0
 41
0.9032258064516129
  7
DCSTYLE0
 72
     5
 11
-25.91058219178534
 21
47.99153803243476
 31
0.0
  0
ENDBLK
  5
104
  8
0
  0
BLOCK
  8
0
  2
DC_IMAGEDIMGROUP_14
 70
     0
 10
0.0
 20
0.0
 30
0.0
  3
DC_IMAGEDIMGROUP_14
  1

  0
LINE
  5
233
  8
0
  6
CONTINUOUS
 62
     7
 10
-32.94202495520951
 20
75.49153888180089
 30
0.0
 11
-4.138848306056225
 21
75.49153888180089
 31
0.0
  0
LINE
  5
234
  8
0
  6
CONTINUOUS
 62
     7
 10
-12.40347186006989
 20
85.49154621317197
 30
0.0
 11
-4.138848306056225
 21
85.49154621317197
 31
0.0
  0
LINE
  5
235
  8
0
  6
CONTINUOUS
 62
     7
 10
-5.138848306056225
 20
75.49153888180089
 30
0.0
 11
-5.138848306056225
 21
85.49154621317197
 31
0.0
  0
LINE
  5
236
  8
0
  6
CONTINUOUS
 62
     7
 10
-12.40347186006989
 20
110.4915530975082
 30
0.0
 11
-4.138848306056225
 21
110.4915530975082
 31
0.0
  0
LINE
  5
237
  8
0
  6
CONTINUOUS
 62
     7
 10
-5.138848306056225
 20
85.49154621317197
 30
0.0
 11
-5.138848306056225
 21
110.4915530975082
 31
0.0
  0
INSERT
  5
238
  8
0
 62
     7
  2
_OPEN30
 10
-5.138848306056225
 20
85.49154621317197
 30
0.0
 41
2.499995396844351
 42
2.500007167085477
 50
270.0
  0
INSERT
  5
239
  8
0
 62
     7
  2
_OPEN30
 10
-5.138848306056225
 20
110.4915530975082
 30
0.0
 41
2.499995396844351
 42
2.500007167085477
 50
90.0
  0
LINE
  5
23A
  8
0
  6
CONTINUOUS
 62
     7
 10
-5.138848306056229
 20
58.75968888180088
 30
0.0
 11
-5.138848306056225
 21
75.49153888180089
 31
0.0
  0
INSERT
  5
23B
  8
0
 62
     7
  2
_OPEN30
 10
-5.138848306056225
 20
75.49153888180089
 30
0.0
 41
2.499995396844351
 42
2.500007167085477
 50
89.99999999999999
  0
TEXT
  5
23C
  8
0
 62
     7
 10
-5.638848306056225
 20
59.7596888818009
 30
0.0
 40
4.0
  1
MIN8
 50
90.0
 41
0.9464788732394366
  7
DCSTYLE0
 72
     5
 11
-5.638848306056225
 21
72.5596888818009
 31
0.0
  0
TEXT
  5
23D
  8
0
 62
     7
 10
-5.638848306056225
 20
94.7915496553401
 30
0.0
 40
4.0
  1
25
 50
90.0
 41
0.9081081081081089
  7
DCSTYLE0
 72
     5
 11
-5.638848306056225
 21
101.1915496553401
 31
0.0
  0
ENDBLK
  5
107
  8
0
  0
BLOCK
  8
0
  2
DC_GROUP_15
 70
     0
 10
0.0
 20
0.0
 30
0.0
  3
DC_GROUP_15
  1

  0
LINE
  5
23E
  8
0
  6
CONTINUOUS
 62
     7
 10
-32.94202495520951
 20
75.49153888180089
 30
0.0
 11
5.36115109789735
 21
75.49153888180089
 31
0.0
  0
LINE
  5
23F
  8
0
  6
CONTINUOUS
 62
     7
 10
-32.94197834845888
 20
120.4915375406964
 30
0.0
 11
5.36115109789735
 21
120.4915375406964
 31
0.0
  0
LINE
  5
240
  8
0
  6
CONTINUOUS
 62
     7
 10
-24.58369229800513
 20
39.99153803243476
 30
0.0
 11
5.36115109789735
 21
39.99153803243476
 31
0.0
  0
LINE
  5
241
  8
0
  6
CONTINUOUS
 62
     7
 10
4.36115109789735
 20
39.99153803243476
 30
0.0
 11
4.36115109789735
 21
75.49153888180089
 31
0.0
  0
INSERT
  5
242
  8
0
 62
     7
  2
_OPEN30
 10
4.36115109789735
 20
39.99153803243476
 30
0.0
 41
2.499995396844351
 42
2.500007167085477
 50
270.0
  0
INSERT
  5
243
  8
0
 62
     7
  2
_OPEN30
 10
4.36115109789735
 20
75.49153888180089
 30
0.0
 41
2.499995396844351
 42
2.500007167085477
 50
90.0
  0
LINE
  5
244
  8
0
  6
CONTINUOUS
 62
     7
 10
4.36115109789735
 20
75.49153888180089
 30
0.0
 11
4.36115109789735
 21
120.4915375406964
 31
0.0
  0
INSERT
  5
245
  8
0
 62
     7
  2
_OPEN30
 10
4.36115109789735
 20
75.49153888180089
 30
0.0
 41
2.499995396844351
 42
2.500007167085477
 50
270.0
  0
INSERT
  5
246
  8
0
 62
     7
  2
_OPEN30
 10
4.36115109789735
 20
120.4915375406964
 30
0.0
 41
2.499995396844351
 42
2.500007167085477
 50
90.0
  0
TEXT
  5
247
  8
0
 62
     7
 10
3.861151097897351
 20
51.34153845711783
 30
0.0
 40
4.0
  1
35.5
 50
90.0
 41
1.002985074626866
  7
DCSTYLE0
 72
     5
 11
3.861151097897351
 21
64.14153845711783
 31
0.0
  0
TEXT
  5
248
  8
0
 62
     7
 10
3.86115109789735
 20
94.79153821124865
 30
0.0
 40
4.0
  1
45
 50
90.0
 41
0.9081081081081089
  7
DCSTYLE0
 72
     5
 11
3.86115109789735
 21
101.1915382112487
 31
0.0
  0
ENDBLK
  5
10A
  8
0
  0
BLOCK
  8
0
  2
DC_GROUP_16
 70
     0
 10
0.0
 20
0.0
 30
0.0
  3
DC_GROUP_16
  1

  0
LINE
  5
249
  8
0
  6
CONTINUOUS
 62
     7
 10
-20.45754163969361
 20
113.3588079645508
 30
0.0
 11
-6.069245349801626
 21
132.0635931414104
 31
0.0
  0
INSERT
  5
24A
  8
0
 62
     7
  2
_OPEN30
 10
-20.45754163969361
 20
113.3588079645508
 30
0.0
 41
2.499995396844351
 42
2.500007167085477
 50
232.4314079711725
  0
LINE
  5
24B
  8
0
  6
CONTINUOUS
 62
     7
 10
-6.069245349801626
 20
132.0635931414104
 30
0.0
 11
0.3307546501983722
 21
132.0635931414104
 31
0.0
  0
TEXT
  5
24C
  8
0
 62
     7
 10
-6.069245349801626
 20
132.5635931414104
 30
0.0
 40
4.0
  1
Ｍ8
 41
0.9600000000000002
  7
DCSTYLE0
 72
     5
 11
0.330754650198374
 21
132.5635931414104
 31
0.0
  0
ENDBLK
  5
10D
  8
0
  0
BLOCK
  8
0
  2
DC_GROUP_17
 70
     0
 10
0.0
 20
0.0
 30
0.0
  3
DC_GROUP_17
  1

  0
LINE
  5
24D
  8
0
  6
CONTINUOUS
 62
     7
 10
-32.94201735561753
 20
119.9142060149335
 30
0.0
 11
-10.82845104568898
 21
147.1159646446821
 31
0.0
  0
INSERT
  5
24E
  8
0
 62
     7
  2
_OPEN30
 10
-32.94201735561753
 20
119.9142060149335
 30
0.0
 41
2.499995396844351
 42
2.500007167085477
 50
230.8907450981653
  0
LINE
  5
24F
  8
0
  6
CONTINUOUS
 62
     7
 10
-10.82845104568898
 20
147.1159646446821
 30
0.0
 11
33.97154895431103
 21
147.1159646446821
 31
0.0
  0
TEXT
  5
250
  8
0
 62
     7
 10
-10.82845104568898
 20
147.6159646446821
 30
0.0
 40
4.0
  1
セレーションP1.5山60°
 41
0.9719008264462811
  7
DCSTYLE0
 72
     5
 11
33.97154895431103
 21
147.6159646446821
 31
0.0
  0
ENDBLK
  5
110
  8
0
  0
BLOCK
  8
0
  2
DC_GROUP_18
 70
     0
 10
0.0
 20
0.0
 30
0.0
  3
DC_GROUP_18
  1

  0
LINE
  5
251
  8
0
  6
CONTINUOUS
 62
     7
 10
135.4813207542461
 20
13.60414436692857
 30
0.0
 11
200.7155209899684
 21
-48.06758917244991
 31
0.0
  0
INSERT
  5
252
  8
0
 62
     7
  2
_OPEN30
 10
135.4813207542461
 20
13.60414436692857
 30
0.0
 41
2.499995396844351
 42
2.500007167085477
 50
136.6079682814787
  0
LINE
  5
253
  8
0
  6
CONTINUOUS
 62
     7
 10
200.7155209899684
 20
-48.06758917244991
 30
0.0
 11
232.7155209899685
 21
-48.06758917244991
 31
0.0
  0
TEXT
  5
254
  8
0
 62
     7
 10
200.7155209899684
 20
-48.06758917244991
 30
0.0
 40
4.0
  1
3-M6 PCD49
 41
0.8
  7
DCSTYLE0
 72
     5
 11
232.7155209899684
 21
-48.06758917244991
 31
0.0
  0
ENDBLK
  5
113
  8
0
  0
BLOCK
  8
0
  2
DC_IMAGEDIMGROUP_15
 70
     0
 10
0.0
 20
0.0
 30
0.0
  3
DC_IMAGEDIMGROUP_15
  1

  0
LINE
  5
255
  8
0
  6
CONTINUOUS
 62
     7
 10
127.6494933872412
 20
138.4683873311975
 30
0.0
 11
138.6494854300213
 21
138.4683873311975
 31
0.0
  0
LINE
  5
256
  8
0
  6
CONTINUOUS
 62
     7
 10
127.6494933872412
 20
121.4917504698815
 30
0.0
 11
127.6494933872412
 21
139.4683873311975
 31
0.0
  0
LINE
  5
257
  8
0
  6
CONTINUOUS
 62
     7
 10
138.6494854300213
 20
121.4917504698815
 30
0.0
 11
138.6494854300213
 21
139.4683873311975
 31
0.0
  0
LINE
  5
258
  8
0
  6
CONTINUOUS
 62
     7
 10
165.4177458745934
 20
138.4683873311975
 30
0.0
 11
138.6494854300213
 21
138.4683873311975
 31
0.0
  0
INSERT
  5
259
  8
0
 62
     7
  2
_OPEN30
 10
138.6494854300213
 20
138.4683873311975
 30
0.0
 41
2.499995396844351
 42
2.500007167085477
 50
180.0
  0
LINE
  5
25A
  8
0
  6
CONTINUOUS
 62
     7
 10
122.6494933872412
 20
138.4683873311975
 30
0.0
 11
127.6494933872412
 21
138.4683873311975
 31
0.0
  0
INSERT
  5
25B
  8
0
 62
     7
  2
_OPEN30
 10
127.6494933872412
 20
138.4683873311975
 30
0.0
 41
2.499995396844351
 42
2.500007167085477
 50
360.0
  0
TEXT
  5
25C
  8
0
 62
     7
 10
151.6177458745933
 20
138.9683873311975
 30
0.0
 40
4.0
  1
11H8
 41
0.8506329113924058
  7
DCSTYLE0
 72
     5
 11
164.4177458745934
 21
138.9683873311975
 31
0.0
  0
ENDBLK
  5
116
  8
0
  0
BLOCK
  8
0
  2
DC_IMAGEDIMGROUP_16
 70
     0
 10
0.0
 20
0.0
 30
0.0
  3
DC_IMAGEDIMGROUP_16
  1

  0
LINE
  5
25D
  8
0
  6
CONTINUOUS
 62
     7
 10
239.0904541290396
 20
39.99175096161989
 30
0.0
 11
228.9269335880494
 21
39.99175096161989
 31
0.0
  0
LINE
  5
25E
  8
0
  6
CONTINUOUS
 62
     7
 10
224.8970519195298
 20
92.96224831641727
 30
0.0
 11
190.2319189870065
 21
72.94832412711624
 31
0.0
  0
ARC
  5
25F
  8
0
  6
CONTINUOUS
 62
     7
 10
133.1494608455348
 20
39.99175096161989
 30
0.0
 40
104.9409932835047
 50
0.0
 51
30.00000044529202
  0
INSERT
  5
260
  8
0
 62
     7
  2
_OPEN30
 10
238.0904541290395
 20
39.99175096161989
 30
0.0
 41
2.499995396844351
 42
2.500007167085477
 50
270.6824751021253
  0
INSERT
  5
261
  8
0
 62
     7
  2
_OPEN30
 10
224.0310265196312
 20
92.46224830968669
 30
0.0
 41
2.499995396844351
 42
2.500007167085477
 50
119.317525343166
  0
TEXT
  5
262
  8
0
 62
     7
 10
235.2740449108229
 20
62.38662554347434
 30
0.0
 40
4.0
  1
30°
 50
105.000000222646
 41
1.120000000000003
  7
DCSTYLE0
 72
     5
 11
232.7893820418051
 21
71.65951346619426
 31
0.0
  0
ENDBLK
  5
119
  8
0
  0
BLOCK
  8
0
  2
DC_IMAGEDIMGROUP_17
 70
     0
 10
0.0
 20
0.0
 30
0.0
  3
DC_IMAGEDIMGROUP_17
  1

  0
LINE
  5
263
  8
0
  6
CONTINUOUS
 62
     7
 10
51.65558843781987
 20
87.0422778428481
 30
0.0
 11
74.43330473161444
 21
73.89155697306869
 31
0.0
  0
LINE
  5
264
  8
0
  6
CONTINUOUS
 62
     7
 10
39.04843756057513
 20
39.9917509616199
 30
0.0
 11
44.34755359859428
 21
39.99175096161989
 31
0.0
  0
ARC
  5
265
  8
0
  6
CONTINUOUS
 62
     7
 10
133.149490056321
 20
39.99175096161989
 30
0.0
 40
93.10105249574583
 50
149.999999554708
 51
180.0
  0
INSERT
  5
266
  8
0
 62
     7
  2
_OPEN30
 10
52.52161383771841
 20
86.5422778361175
 30
0.0
 41
2.499995396844351
 42
2.500007167085477
 50
60.76926706767802
  0
INSERT
  5
267
  8
0
 62
     7
  2
_OPEN30
 10
40.04843756057512
 20
39.9917509616199
 30
0.0
 41
2.499995396844351
 42
2.500007167085477
 50
269.2307324870297
  0
TEXT
  5
268
  8
0
 62
     7
 10
41.49548474247126
 20
59.58104237913108
 30
0.0
 40
4.0
  1
30°
 50
74.999999777354
 41
1.12
  7
DCSTYLE0
 72
     5
 11
43.98014761148903
 21
68.85393030185097
 31
0.0
  0
ENDBLK
  5
11C
  8
0
  0
BLOCK
  8
0
  2
DC_IMAGEDIMGROUP_18
 70
     0
 10
0.0
 20
0.0
 30
0.0
  3
DC_IMAGEDIMGROUP_18
  1

  0
LINE
  5
269
  8
0
  6
CONTINUOUS
 62
     7
 10
-120.442022585925
 20
62.99155645026943
 30
0.0
 11
-120.442022585925
 21
142.5133692832837
 31
0.0
  0
LINE
  5
26A
  8
0
  6
CONTINUOUS
 62
     7
 10
-146.7420211107101
 20
110.9915380324347
 30
0.0
 11
-146.7420211107101
 21
142.5133692832837
 31
0.0
  0
LINE
  5
26B
  8
0
  6
CONTINUOUS
 62
     7
 10
-115.4420303643309
 20
70.49154478266058
 30
0.0
 11
-115.4420303643309
 21
142.5133692832837
 31
0.0
  0
LINE
  5
26C
  8
0
  6
CONTINUOUS
 62
     7
 10
-120.442022585925
 20
141.5133692832837
 30
0.0
 11
-115.4420303643309
 21
141.5133692832837
 31
0.0
  0
LINE
  5
26D
  8
0
  6
CONTINUOUS
 62
     7
 10
-146.7420211107101
 20
141.5133692832837
 30
0.0
 11
-120.442022585925
 21
141.5133692832837
 31
0.0
  0
INSERT
  5
26E
  8
0
 62
     7
  2
_OPEN30
 10
-146.7420211107101
 20
141.5133692832837
 30
0.0
 41
2.499995396844351
 42
2.500007167085477
 50
180.0
  0
INSERT
  5
26F
  8
0
 62
     7
  2
_OPEN30
 10
-120.442022585925
 20
141.5133692832837
 30
0.0
 41
2.499995396844351
 42
2.500007167085477
 50
360.0
  0
LINE
  5
270
  8
0
  6
CONTINUOUS
 62
     7
 10
-108.310493877918
 20
141.5133692832837
 30
0.0
 11
-115.4420303643309
 21
141.5133692832837
 31
0.0
  0
INSERT
  5
271
  8
0
 62
     7
  2
_OPEN30
 10
-115.4420303643309
 20
141.5133692832837
 30
0.0
 41
2.499995396844351
 42
2.500007167085477
 50
180.0
  0
TEXT
  5
272
  8
0
 62
     7
 10
-144.7920218483175
 20
142.0133692832837
 30
0.0
 40
4.0
  1
MAX33.9
 41
0.9187499999999996
  7
DCSTYLE0
 72
     5
 11
-122.3920218483176
 21
142.0133692832837
 31
0.0
  0
TEXT
  5
273
  8
0
 62
     7
 10
-112.510493877918
 20
142.0133692832837
 30
0.0
 40
4.0
  1
5
 41
0.9882352941176479
  7
DCSTYLE0
 72
     5
 11
-109.3104938779179
 21
142.0133692832837
 31
0.0
  0
ENDBLK
  5
11F
  8
0
  0
BLOCK
  8
0
  2
DC_IMAGEDIMGROUP_19
 70
     0
 10
0.0
 20
0.0
 30
0.0
  3
DC_IMAGEDIMGROUP_19
  1

  0
LINE
  5
274
  8
0
  6
CONTINUOUS
 62
     7
 10
-120.442022585925
 20
32.85347847530493
 30
0.0
 11
-104.4420268774593
 21
32.85347847530493
 31
0.0
  0
INSERT
  5
275
  8
0
 62
     7
  2
_OPEN30
 10
-120.442022585925
 20
32.85347847530493
 30
0.0
 41
2.499995396844351
 42
2.500007167085477
 50
180.0
  0
INSERT
  5
276
  8
0
 62
     7
  2
_OPEN30
 10
-104.4420268774593
 20
32.85347847530493
 30
0.0
 41
2.499995396844351
 42
2.500007167085477
 50
360.0
  0
LINE
  5
277
  8
0
  6
CONTINUOUS
 62
     7
 10
-104.4420268774593
 20
32.85347847530493
 30
0.0
 11
-100.4420193672743
 21
32.85347847530493
 31
0.0
  0
LINE
  5
278
  8
0
  6
CONTINUOUS
 62
     7
 10
-93.31016936727431
 20
32.85347847530493
 30
0.0
 11
-100.4420193672743
 21
32.85347847530493
 31
0.0
  0
INSERT
  5
279
  8
0
 62
     7
  2
_OPEN30
 10
-100.4420193672743
 20
32.85347847530493
 30
0.0
 41
2.499995396844351
 42
2.500007167085477
 50
180.0
  0
TEXT
  5
27A
  8
0
 62
     7
 10
-115.6420247316922
 20
33.35347847530493
 30
0.0
 40
4.0
  1
16
 41
0.9081081081081089
  7
DCSTYLE0
 72
     5
 11
-109.2420247316922
 21
33.35347847530493
 31
0.0
  0
TEXT
  5
27B
  8
0
 62
     7
 10
-97.5101693672743
 20
33.35347847530493
 30
0.0
 40
4.0
  1
4
 41
0.9333333333333342
  7
DCSTYLE0
 72
     5
 11
-94.3101693672743
 21
33.35347847530493
 31
0.0
  0
ENDBLK
  5
122
  8
0
  0
BLOCK
  8
0
  2
DC_IMAGEDIMGROUP_20
 70
     0
 10
0.0
 20
0.0
 30
0.0
  3
DC_IMAGEDIMGROUP_20
  1

  0
LINE
  5
27C
  8
0
  6
CONTINUOUS
 62
     7
 10
-94.44201954608823
 20
44.99156843080269
 30
0.0
 11
-94.44201954608823
 21
53.78585545391493
 31
0.0
  0
LINE
  5
27D
  8
0
  6
CONTINUOUS
 62
     7
 10
-94.44201954608823
 20
52.78585545391493
 30
0.0
 11
-89.44202732449415
 21
52.78585545391493
 31
0.0
  0
LINE
  5
27E
  8
0
  6
CONTINUOUS
 62
     7
 10
-82.31017732449413
 20
52.78585545391493
 30
0.0
 11
-89.44202732449415
 21
52.78585545391493
 31
0.0
  0
INSERT
  5
27F
  8
0
 62
     7
  2
_OPEN30
 10
-89.44202732449415
 20
52.78585545391493
 30
0.0
 41
2.499995396844351
 42
2.500007167085477
 50
180.0
  0
LINE
  5
280
  8
0
  6
CONTINUOUS
 62
     7
 10
-99.44201954608823
 20
52.78585545391493
 30
0.0
 11
-94.44201954608823
 21
52.78585545391493
 31
0.0
  0
INSERT
  5
281
  8
0
 62
     7
  2
_OPEN30
 10
-94.44201954608823
 20
52.78585545391493
 30
0.0
 41
2.499995396844351
 42
2.500007167085477
 50
360.0
  0
TEXT
  5
282
  8
0
 62
     7
 10
-86.51017732449415
 20
53.28585545391493
 30
0.0
 40
4.0
  1
5
 41
0.9882352941176479
  7
DCSTYLE0
 72
     5
 11
-83.31017732449415
 21
53.28585545391493
 31
0.0
  0
ENDBLK
  5
125
  8
0
  0
BLOCK
  8
0
  2
DC_IMAGEDIMGROUP_21
 70
     0
 10
0.0
 20
0.0
 30
0.0
  3
DC_IMAGEDIMGROUP_21
  1

  0
LINE
  5
283
  8
0
  6
CONTINUOUS
 62
     7
 10
-150.94202111071
 20
-72.00638865665069
 30
0.0
 11
-142.94202111071
 21
-72.00638865665069
 31
0.0
  0
LINE
  5
284
  8
0
  6
CONTINUOUS
 62
     7
 10
-150.94202111071
 20
-40.50846196756523
 30
0.0
 11
-150.94202111071
 21
-73.0063886566507
 31
0.0
  0
LINE
  5
285
  8
0
  6
CONTINUOUS
 62
     7
 10
-142.94202111071
 20
-43.50845807836227
 30
0.0
 11
-142.94202111071
 21
-73.0063886566507
 31
0.0
  0
LINE
  5
286
  8
0
  6
CONTINUOUS
 62
     7
 10
-34.94202111071004
 20
-42.00845807836227
 30
0.0
 11
-34.94202111071004
 21
-73.0063886566507
 31
0.0
  0
LINE
  5
287
  8
0
  6
CONTINUOUS
 62
     7
 10
-142.94202111071
 20
-72.00638865665069
 30
0.0
 11
-34.94202111071004
 21
-72.00638865665069
 31
0.0
  0
INSERT
  5
288
  8
0
 62
     7
  2
_OPEN30
 10
-142.94202111071
 20
-72.00638865665069
 30
0.0
 41
2.499995396844351
 42
2.500007167085477
 50
180.0
  0
INSERT
  5
289
  8
0
 62
     7
  2
_OPEN30
 10
-34.94202111071004
 20
-72.00638865665069
 30
0.0
 41
2.499995396844351
 42
2.500007167085477
 50
360.0
  0
LINE
  5
28A
  8
0
  6
CONTINUOUS
 62
     7
 10
-158.07387111071
 20
-72.00638865665069
 30
0.0
 11
-150.94202111071
 21
-72.00638865665069
 31
0.0
  0
INSERT
  5
28B
  8
0
 62
     7
  2
_OPEN30
 10
-150.94202111071
 20
-72.00638865665069
 30
0.0
 41
2.499995396844351
 42
2.500007167085477
 50
360.0
  0
TEXT
  5
28C
  8
0
 62
     7
 10
-157.07387111071
 20
-71.50638865665069
 30
0.0
 40
4.0
  1
8
 41
0.9882352941176435
  7
DCSTYLE0
 72
     5
 11
-153.87387111071
 21
-71.50638865665069
 31
0.0
  0
TEXT
  5
28D
  8
0
 62
     7
 10
-93.74202111071004
 20
-71.50638865665069
 30
0.0
 40
4.0
  1
108
 41
0.8842105263157889
  7
DCSTYLE0
 72
     5
 11
-84.14202111071005
 21
-71.50638865665069
 31
0.0
  0
ENDBLK
  5
128
  8
0
  0
BLOCK
  8
0
  2
DC_IMAGEDIMGROUP_22
 70
     0
 10
0.0
 20
0.0
 30
0.0
  3
DC_IMAGEDIMGROUP_22
  1

  0
LINE
  5
28E
  8
0
  6
CONTINUOUS
 62
     7
 10
-150.94202111071
 20
-79.99729981320603
 30
0.0
 11
-146.7420211107101
 21
-79.99729981320603
 31
0.0
  0
LINE
  5
28F
  8
0
  6
CONTINUOUS
 62
     7
 10
-150.94202111071
 20
-40.50846196756523
 30
0.0
 11
-150.94202111071
 21
-80.99729981320603
 31
0.0
  0
LINE
  5
290
  8
0
  6
CONTINUOUS
 62
     7
 10
-146.7420211107101
 20
-31.00846196756523
 30
0.0
 11
-146.7420211107101
 21
-80.99729981320603
 31
0.0
  0
LINE
  5
291
  8
0
  6
CONTINUOUS
 62
     7
 10
-34.94202111071004
 20
-42.00845807836227
 30
0.0
 11
-34.94202111071004
 21
-80.99729981320603
 31
0.0
  0
LINE
  5
292
  8
0
  6
CONTINUOUS
 62
     7
 10
-164.4738711107101
 20
-79.99729981320603
 30
0.0
 11
-150.94202111071
 21
-79.99729981320603
 31
0.0
  0
INSERT
  5
293
  8
0
 62
     7
  2
_OPEN30
 10
-150.94202111071
 20
-79.99729981320603
 30
0.0
 41
2.499995396844351
 42
2.500007167085477
 50
360.0
  0
LINE
  5
294
  8
0
  6
CONTINUOUS
 62
     7
 10
-146.7420211107101
 20
-79.99729981320603
 30
0.0
 11
-34.94202111071004
 21
-79.99729981320603
 31
0.0
  0
INSERT
  5
295
  8
0
 62
     7
  2
_OPEN30
 10
-146.7420211107101
 20
-79.99729981320603
 30
0.0
 41
2.499995396844351
 42
2.500007167085477
 50
180.0
  0
INSERT
  5
296
  8
0
 62
     7
  2
_OPEN30
 10
-34.94202111071004
 20
-79.99729981320603
 30
0.0
 41
2.499995396844351
 42
2.500007167085477
 50
360.0
  0
TEXT
  5
297
  8
0
 62
     7
 10
-163.47387111071
 20
-79.49729981320603
 30
0.0
 40
4.0
  1
4.2
 41
1.072340425531914
  7
DCSTYLE0
 72
     5
 11
-153.87387111071
 21
-79.49729981320603
 31
0.0
  0
TEXT
  5
298
  8
0
 62
     7
 10
-98.84202111071008
 20
-79.49729981320603
 30
0.0
 40
4.0
  1
111.8
 41
0.9655172413793105
  7
DCSTYLE0
 72
     5
 11
-82.84202111071008
 21
-79.49729981320603
 31
0.0
  0
ENDBLK
  5
12B
  8
0
  0
BLOCK
  8
0
  2
DC_IMAGEDIMGROUP_23
 70
     0
 10
0.0
 20
0.0
 30
0.0
  3
DC_IMAGEDIMGROUP_23
  1

  0
LINE
  5
299
  8
0
  6
CONTINUOUS
 62
     7
 10
-150.94202111071
 20
-87.93731344647111
 30
0.0
 11
-34.94202111071004
 21
-87.93731344647111
 31
0.0
  0
INSERT
  5
29A
  8
0
 62
     7
  2
_OPEN30
 10
-150.94202111071
 20
-87.93731344647111
 30
0.0
 41
2.499995396844351
 42
2.500007167085477
 50
180.0
  0
INSERT
  5
29B
  8
0
 62
     7
  2
_OPEN30
 10
-34.94202111071004
 20
-87.93731344647111
 30
0.0
 41
2.499995396844351
 42
2.500007167085477
 50
360.0
  0
LINE
  5
29C
  8
0
  6
CONTINUOUS
 62
     7
 10
-150.94202111071
 20
-40.50846196756523
 30
0.0
 11
-150.94202111071
 21
-88.93731344647111
 31
0.0
  0
LINE
  5
29D
  8
0
  6
CONTINUOUS
 62
     7
 10
-34.94202111071004
 20
-42.00845807836227
 30
0.0
 11
-34.94202111071004
 21
-88.93731344647111
 31
0.0
  0
TEXT
  5
29E
  8
0
 62
     7
 10
-97.74202111071004
 20
-87.43731344647111
 30
0.0
 40
4.0
  1
116
 41
0.8842105263157889
  7
DCSTYLE0
 72
     5
 11
-88.14202111071005
 21
-87.43731344647111
 31
0.0
  0
ENDBLK
  5
12E
  8
0
  0
BLOCK
  8
0
  2
DC_IMAGEDIMGROUP_24
 70
     0
 10
0.0
 20
0.0
 30
0.0
  3
DC_IMAGEDIMGROUP_24
  1

  0
LINE
  5
29F
  8
0
  6
CONTINUOUS
 62
     7
 10
-44.94202111071004
 20
31.46782818832861
 30
0.0
 11
-34.94202111071004
 21
31.46782818832861
 31
0.0
  0
INSERT
  5
2A0
  8
0
 62
     7
  2
_OPEN30
 10
-44.94202111071004
 20
31.46782818832861
 30
0.0
 41
2.499995396844351
 42
2.500007167085477
 50
180.0
  0
INSERT
  5
2A1
  8
0
 62
     7
  2
_OPEN30
 10
-34.94202111071004
 20
31.46782818832861
 30
0.0
 41
2.499995396844351
 42
2.500007167085477
 50
360.0
  0
TEXT
  5
2A2
  8
0
 62
     7
 10
-43.14202111071004
 20
31.96782818832861
 30
0.0
 40
4.0
  1
10
 41
0.9081081081081089
  7
DCSTYLE0
 72
     5
 11
-36.74202111071003
 21
31.96782818832861
 31
0.0
  0
ENDBLK
  5
131
  8
0
  0
BLOCK
  8
0
  2
DC_IMAGEDIMGROUP_25
 70
     0
 10
0.0
 20
0.0
 30
0.0
  3
DC_IMAGEDIMGROUP_25
  1

  0
LINE
  5
2A3
  8
0
  6
CONTINUOUS
 62
     7
 10
-30.94202504461648
 20
119.4915452296954
 30
0.0
 11
-30.94202504461648
 21
132.5133698793301
 31
0.0
  0
LINE
  5
2A4
  8
0
  6
CONTINUOUS
 62
     7
 10
-32.94201735561753
 20
120.5688919993457
 30
0.0
 11
-32.94201735561753
 21
132.5133698793301
 31
0.0
  0
LINE
  5
2A5
  8
0
  6
CONTINUOUS
 62
     7
 10
-32.94201735561753
 20
131.5133698793301
 30
0.0
 11
-30.94202504461648
 21
131.5133698793301
 31
0.0
  0
LINE
  5
2A6
  8
0
  6
CONTINUOUS
 62
     7
 10
-41.58519461823015
 20
131.5133698793301
 30
0.0
 11
-32.94201735561753
 21
131.5133698793301
 31
0.0
  0
INSERT
  5
2A7
  8
0
 62
     7
  2
_OPEN30
 10
-32.94201735561753
 20
131.5133698793301
 30
0.0
 41
2.499995396844351
 42
2.500007167085477
 50
360.0
  0
LINE
  5
2A8
  8
0
  6
CONTINUOUS
 62
     7
 10
-25.94202504461648
 20
131.5133698793301
 30
0.0
 11
-30.94202504461648
 21
131.5133698793301
 31
0.0
  0
INSERT
  5
2A9
  8
0
 62
     7
  2
_OPEN30
 10
-30.94202504461648
 20
131.5133698793301
 30
0.0
 41
2.499995396844351
 42
2.500007167085477
 50
180.0
  0
TEXT
  5
2AA
  8
0
 62
     7
 10
-40.58519461823015
 20
132.0133698793301
 30
0.0
 40
4.0
  1
2
 41
0.9882352941176479
  7
DCSTYLE0
 72
     5
 11
-37.38519461823015
 21
132.0133698793301
 31
0.0
  0
ENDBLK
  5
134
  8
0
  0
BLOCK
  8
0
  2
DC_IMAGEDIMGROUP_26
 70
     0
 10
0.0
 20
0.0
 30
0.0
  3
DC_IMAGEDIMGROUP_26
  1

  0
LINE
  5
2AB
  8
0
  6
CONTINUOUS
 62
     7
 10
133.1494894086313
 20
-54.44344905337179
 30
0.0
 11
133.1494894086313
 21
-47.75020304429563
 31
0.0
  0
LINE
  5
2AC
  8
0
  6
CONTINUOUS
 62
     7
 10
103.9823440185271
 20
-49.82382705489576
 30
0.0
 11
106.7647740092387
 21
-41.26038807913989
 31
0.0
  0
ARC
  5
2AD
  8
0
  6
CONTINUOUS
 62
     7
 10
133.1494894086313
 20
39.94341613862468
 30
0.0
 40
93.38686519199648
 50
251.9999999999999
 51
270.0
  0
INSERT
  5
2AE
  8
0
 62
     7
  2
_OPEN30
 10
104.291361012902
 20
-48.87277053860059
 30
0.0
 41
2.499995396844351
 42
2.500007167085477
 50
162.7669131516629
  0
INSERT
  5
2AF
  8
0
 62
     7
  2
_OPEN30
 10
133.1494894086312
 20
-53.44344905337179
 30
0.0
 41
2.499995396844351
 42
2.500007167085477
 50
359.2330868483368
  0
TEXT
  5
2B0
  8
0
 62
     7
 10
113.8778783082006
 20
-51.04897217374946
 30
0.0
 40
4.0
  1
18°
 50
351.0
 41
1.119999999999999
  7
DCSTYLE0
 72
     5
 11
123.3596863779139
 21
-52.55074303813568
 31
0.0
  0
ENDBLK
  5
137
  8
0
  0
BLOCK
  8
0
  2
DC_IMAGEDIMGROUP_27
 70
     0
 10
0.0
 20
0.0
 30
0.0
  3
DC_IMAGEDIMGROUP_27
  1

  0
LINE
  5
2B1
  8
0
  6
CONTINUOUS
 62
     7
 10
227.9269335880494
 20
39.99175096161989
 30
0.0
 11
220.2884254041994
 21
39.99175096161989
 31
0.0
  0
LINE
  5
2B2
  8
0
  6
CONTINUOUS
 62
     7
 10
225.8543035771821
 20
59.71150826377125
 30
0.0
 11
216.7077560474237
 21
57.76734956969436
 31
0.0
  0
ARC
  5
2B3
  8
0
  6
CONTINUOUS
 62
     7
 10
133.0801396218729
 20
39.99175096161989
 30
0.0
 40
93.84679396617653
 50
0.0
 51
11.99999999999997
  0
INSERT
  5
2B4
  8
0
 62
     7
  2
_OPEN30
 10
226.9269335880495
 20
39.99175096161989
 30
0.0
 41
2.499995396844351
 42
2.500007167085477
 50
270.763154627681
  0
INSERT
  5
2B5
  8
0
 62
     7
  2
_OPEN30
 10
224.8761559764483
 20
59.5035965729535
 30
0.0
 41
2.499995396844351
 42
2.500007167085477
 50
101.2368453723193
  0
TEXT
  5
2B6
  8
0
 62
     7
 10
226.4173067073512
 20
44.97544278809884
 30
0.0
 40
4.0
  1
12°
 50
95.99999999999997
 41
1.120000000000003
  7
DCSTYLE0
 72
     5
 11
225.4138334599818
 21
54.52285298363429
 31
0.0
  0
ENDBLK
  5
13A
  8
0
  0
BLOCK
  8
0
  2
DC_IMAGEDIMGROUP_28
 70
     0
 10
0.0
 20
0.0
 30
0.0
  3
DC_IMAGEDIMGROUP_28
  1

  0
LINE
  5
2B7
  8
0
  6
CONTINUOUS
 62
     7
 10
133.1494894086313
 20
132.3091177172776
 30
0.0
 11
133.1494894086313
 21
127.0405843894815
 31
0.0
  0
LINE
  5
2B8
  8
0
  6
CONTINUOUS
 62
     7
 10
71.36189166925803
 20
108.5910811338967
 30
0.0
 11
75.97572854514007
 21
103.4668961581616
 31
0.0
  0
ARC
  5
2B9
  8
0
  6
CONTINUOUS
 62
     7
 10
133.1494894086313
 20
39.96900182331672
 30
0.0
 40
91.34011589396088
 50
90.0
 51
131.9999999999999
  0
INSERT
  5
2BA
  8
0
 62
     7
  2
_OPEN30
 10
133.1494894086313
 20
131.3091177172776
 30
0.0
 41
2.499995396844351
 42
2.500007167085477
 50
0.78409814140695
  0
INSERT
  5
2BB
  8
0
 62
     7
  2
_OPEN30
 10
72.03102227561689
 20
107.8479363084193
 30
0.0
 41
2.499995396844351
 42
2.500007167085477
 50
221.2159018585932
  0
TEXT
  5
2BC
  8
0
 62
     7
 10
95.75574934252323
 20
123.9889702313357
 30
0.0
 40
4.0
  1
42°
 50
20.99999999999996
 41
1.12
  7
DCSTYLE0
 72
     5
 11
104.7181214368964
 21
127.4293025469706
 31
0.0
  0
ENDBLK
  5
13D
  8
0
  0
BLOCK
  8
0
  2
DC_IMAGEDIMGROUP_29
 70
     0
 10
0.0
 20
0.0
 30
0.0
  3
DC_IMAGEDIMGROUP_29
  1

  0
LINE
  5
2BD
  8
0
  6
CONTINUOUS
 62
     7
 10
-110.4420547636784
 20
-43.50845807836227
 30
0.0
 11
-110.4420547636784
 21
-63.50845688626942
 31
0.0
  0
LINE
  5
2BE
  8
0
  6
CONTINUOUS
 62
     7
 10
-94.44205476367839
 20
-43.50845807836227
 30
0.0
 11
-94.44205476367839
 21
-63.50845688626942
 31
0.0
  0
LINE
  5
2BF
  8
0
  6
CONTINUOUS
 62
     7
 10
-45.71020476367838
 20
-62.50845688626942
 30
0.0
 11
-94.44205476367839
 21
-62.50845688626942
 31
0.0
  0
LINE
  5
2C0
  8
0
  6
CONTINUOUS
 62
     7
 10
-110.4420547636784
 20
-62.50845688626942
 30
0.0
 11
-94.44205476367839
 21
-62.50845688626942
 31
0.0
  0
INSERT
  5
2C1
  8
0
 62
     7
  2
_OPEN30
 10
-110.4420547636784
 20
-62.50845688626942
 30
0.0
 41
2.499995396844351
 42
2.500007167085477
 50
180.0
  0
INSERT
  5
2C2
  8
0
 62
     7
  2
_OPEN30
 10
-94.44205476367839
 20
-62.50845688626942
 30
0.0
 41
2.499995396844351
 42
2.500007167085477
 50
360.0
  0
TEXT
  5
2C3
  8
0
 62
     7
 10
-91.51020476367839
 20
-62.00845688626942
 30
0.0
 40
4.0
  1
3-φ16（円周3個所等配）
 41
0.8875471698113209
  7
DCSTYLE0
 72
     5
 11
-46.71020476367838
 21
-62.00845688626942
 31
0.0
  0
ENDBLK
  5
140
  8
0
  0
BLOCK
  8
0
  2
DC_IMAGEDIMGROUP_30
 70
     0
 10
0.0
 20
0.0
 30
0.0
  3
DC_IMAGEDIMGROUP_30
  1

  0
LINE
  5
2C4
  8
0
  6
CONTINUOUS
 62
     7
 10
-56.67509703802966
 20
20.49155390217095
 30
0.0
 11
-56.67509703802966
 21
59.49154505088146
 31
0.0
  0
INSERT
  5
2C5
  8
0
 62
     7
  2
_OPEN30
 10
-56.67509703802966
 20
20.49155390217095
 30
0.0
 41
2.499995396844351
 42
2.500007167085477
 50
270.0
  0
INSERT
  5
2C6
  8
0
 62
     7
  2
_OPEN30
 10
-56.67509703802966
 20
59.49154505088146
 30
0.0
 41
2.499995396844351
 42
2.500007167085477
 50
90.0
  0
TEXT
  5
2C7
  8
0
 62
     7
 10
-57.17509703802966
 20
31.9915494765262
 30
0.0
 40
4.0
  1
φ39H7
 50
90.0
 41
0.865979381443299
  7
DCSTYLE0
 72
     5
 11
-57.17509703802966
 21
47.9915494765262
 31
0.0
  0
ENDBLK
  5
143
  8
0
  0
BLOCK
  8
0
  2
DC_IMAGEDIMGROUP_31
 70
     0
 10
0.0
 20
0.0
 30
0.0
  3
DC_IMAGEDIMGROUP_31
  1

  0
LINE
  5
2C8
  8
0
  6
CONTINUOUS
 62
     7
 10
-77.94202003782655
 20
19.49155390217095
 30
0.0
 11
-77.94202003782655
 21
-32.5717786283324
 31
0.0
  0
LINE
  5
2C9
  8
0
  6
CONTINUOUS
 62
     7
 10
-77.94202003782655
 20
-31.5717786283324
 30
0.0
 11
-34.94202111071004
 21
-31.5717786283324
 31
0.0
  0
INSERT
  5
2CA
  8
0
 62
     7
  2
_OPEN30
 10
-77.94202003782655
 20
-31.5717786283324
 30
0.0
 41
2.499995396844351
 42
2.500007167085477
 50
180.0
  0
INSERT
  5
2CB
  8
0
 62
     7
  2
_OPEN30
 10
-34.94202111071004
 20
-31.5717786283324
 30
0.0
 41
2.499995396844351
 42
2.500007167085477
 50
360.0
  0
TEXT
  5
2CC
  8
0
 62
     7
 10
-59.6420205742683
 20
-31.0717786283324
 30
0.0
 40
4.0
  1
43
 41
0.9081081081081089
  7
DCSTYLE0
 72
     5
 11
-53.2420205742683
 21
-31.0717786283324
 31
0.0
  0
ENDBLK
  5
146
  8
0
  0
BLOCK
  8
0
  2
DC_IMAGEDIMGROUP_32
 70
     0
 10
0.0
 20
0.0
 30
0.0
  3
DC_IMAGEDIMGROUP_32
  1

  0
TEXT
  5
2CD
  8
0
 62
     7
 10
-51.46335220249588
 20
29.21308093055979
 30
0.0
 40
4.0
  1
φ39
 50
90.0
 41
0.9333333333333342
  7
DCSTYLE0
 72
     5
 11
-51.46335220249588
 21
38.8130809305598
 31
0.0
  0
TEXT
  5
2CE
  8
0
 62
     7
 10
-53.96335220249588
 20
39.3130809305598
 30
0.0
 40
2.6
  1
-0.03
 50
90.0
 41
0.9032258064516128
  7
DCSTYLE0
 72
     5
 11
-53.96335220249588
 21
49.7130809305598
 31
0.0
  0
TEXT
  5
2CF
  8
0
 62
     7
 10
-51.26335220249588
 20
39.3130809305598
 30
0.0
 40
2.6
  1
-0.05
 50
90.0
 41
0.9032258064516128
  7
DCSTYLE0
 72
     5
 11
-51.26335220249588
 21
49.7130809305598
 31
0.0
  0
ENDBLK
  5
149
  8
0
  0
BLOCK
  8
0
  2
DC_IMAGEDIMGROUP_33
 70
     0
 10
0.0
 20
0.0
 30
0.0
  3
DC_IMAGEDIMGROUP_33
  1

  0
LINE
  5
2D0
  8
0
  6
CONTINUOUS
 62
     7
 10
-33.94202111071004
 20
-1.00846196756523
 30
0.0
 11
23.01684295259088
 21
-1.00846196756523
 31
0.0
  0
LINE
  5
2D1
  8
0
  6
CONTINUOUS
 62
     7
 10
22.01684295259088
 20
-1.00846196756523
 30
0.0
 11
22.01684295259088
 21
71.3899374858949
 31
0.0
  0
INSERT
  5
2D2
  8
0
 62
     7
  2
_OPEN30
 10
22.01684295259088
 20
-1.00846196756523
 30
0.0
 41
2.499995396844351
 42
2.500007167085477
 50
270.0
  0
TEXT
  5
2D3
  8
0
 62
     7
 10
21.51684295259088
 20
19.19153803243476
 30
0.0
 40
4.0
  1
φ82H7（チャック本体）
 50
90.0
 41
0.9062240663900414
  7
DCSTYLE0
 72
     5
 11
21.51684295259088
 21
60.79153803243476
 31
0.0
  0
ENDBLK
  5
14C
  8
0
  0
BLOCK
  8
0
  2
DC_IMAGEDIMGROUP_34
 70
     0
 10
0.0
 20
0.0
 30
0.0
  3
DC_IMAGEDIMGROUP_34
  1

  0
TEXT
  5
2D4
  8
0
 62
     7
 10
27.48514139196669
 20
19.05298001437705
 30
0.0
 40
4.0
  1
φ82
 50
90.0
 41
0.9163636363636369
  7
DCSTYLE0
 72
     5
 11
27.48514139196669
 21
28.65298001437706
 31
0.0
  0
TEXT
  5
2D5
  8
0
 62
     7
 10
24.98514139196669
 20
29.15298001437706
 30
0.0
 40
2.6
  1
-0.1
 50
90.0
 41
1.002985074626866
  7
DCSTYLE0
 72
     5
 11
24.98514139196669
 21
37.47298001437706
 31
0.0
  0
TEXT
  5
2D6
  8
0
 62
     7
 10
27.68514139196669
 20
29.15298001437706
 30
0.0
 40
2.6
  1
-0.2
 50
90.0
 41
0.9205479452054794
  7
DCSTYLE0
 72
     5
 11
27.68514139196669
 21
37.47298001437706
 31
0.0
  0
ENDBLK
  5
14F
  8
0
  0
BLOCK
  8
0
  2
DC_GROUP_19
 70
     0
 10
0.0
 20
0.0
 30
0.0
  3
DC_GROUP_19
  1

  0
LINE
  5
2D7
  8
0
  6
CONTINUOUS
 62
     7
 10
140.6857238624455
 20
-19.67220015406014
 30
0.0
 11
198.4108816597266
 21
-77.30839512350056
 31
0.0
  0
INSERT
  5
2D8
  8
0
 62
     7
  2
_OPEN30
 10
140.6857238624455
 20
-19.67220015406014
 30
0.0
 41
2.499995396844351
 42
2.500007167085477
 50
135.0441845855318
  0
LINE
  5
2D9
  8
0
  6
CONTINUOUS
 62
     7
 10
198.4108816597266
 20
-77.30839512350056
 30
0.0
 11
227.2108816597267
 21
-77.30839512350056
 31
0.0
  0
TEXT
  5
2DA
  8
0
 62
     7
 10
198.4108816597266
 20
-76.80839512350056
 30
0.0
 40
4.0
  1
PCD104.77
 41
0.8894117647058826
  7
DCSTYLE0
 72
     5
 11
227.2108816597267
 21
-76.80839512350056
 31
0.0
  0
ENDBLK
  5
152
  8
0
  0
BLOCK
  8
0
  2
DC_GROUP_20
 70
     0
 10
0.0
 20
0.0
 30
0.0
  3
DC_GROUP_20
  1

  0
LINE
  5
2DB
  8
0
  6
CONTINUOUS
 62
     7
 10
136.7270126111224
 20
1.314189777691443
 30
0.0
 11
199.8775178006931
 21
-62.03103440103997
 31
0.0
  0
INSERT
  5
2DC
  8
0
 62
     7
  2
_OPEN30
 10
136.7270126111224
 20
1.314189777691443
 30
0.0
 41
2.499995396844351
 42
2.500007167085477
 50
134.9118028133148
  0
LINE
  5
2DD
  8
0
  6
CONTINUOUS
 62
     7
 10
199.8775178006931
 20
-62.03103440103997
 30
0.0
 11
231.8775178006931
 21
-62.03103440103997
 31
0.0
  0
TEXT
  5
2DE
  8
0
 62
     7
 10
199.8775178006931
 20
-61.53103440103997
 30
0.0
 40
4.0
  1
3-M6 PCD69
 41
0.8
  7
DCSTYLE0
 72
     5
 11
231.8775178006931
 21
-61.53103440103997
 31
0.0
  0
ENDBLK
  5
155
  8
0
  0
BLOCK
  8
0
  2
DC_GROUP_21
 70
     0
 10
0.0
 20
0.0
 30
0.0
  3
DC_GROUP_21
  1

  0
CIRCLE
  5
2DF
  8
0
  6
CONTINUOUS
 62
     3
 10
102.6501276976533
 20
98.49109524435761
 30
0.0
 40
6.5
  0
LINE
  5
2E0
  8
0
  6
CONTINUOUS
 62
     3
 10
99.18602608251558
 20
98.49109524435761
 30
0.0
 11
100.9180768900845
 21
95.49109524435761
 31
0.0
  0
LINE
  5
2E1
  8
0
  6
CONTINUOUS
 62
     3
 10
100.9180768900845
 20
95.49109524435761
 30
0.0
 11
104.3821785052222
 21
95.49109524435761
 31
0.0
  0
LINE
  5
2E2
  8
0
  6
CONTINUOUS
 62
     3
 10
104.3821785052222
 20
95.49109524435761
 30
0.0
 11
106.1142293127911
 21
98.49109524435761
 31
0.0
  0
LINE
  5
2E3
  8
0
  6
CONTINUOUS
 62
     3
 10
106.1142293127911
 20
98.49109524435761
 30
0.0
 11
104.3821785052222
 21
101.4910952443576
 31
0.0
  0
LINE
  5
2E4
  8
0
  6
CONTINUOUS
 62
     3
 10
104.3821785052222
 20
101.4910952443576
 30
0.0
 11
100.9180768900845
 21
101.4910952443576
 31
0.0
  0
LINE
  5
2E5
  8
0
  6
CONTINUOUS
 62
     3
 10
100.9180768900845
 20
101.4910952443576
 30
0.0
 11
99.18602608251558
 21
98.49109524435761
 31
0.0
  0
ENDBLK
  5
158
  8
0
  0
BLOCK
  8
0
  2
DC_GROUP_22
 70
     0
 10
0.0
 20
0.0
 30
0.0
  3
DC_GROUP_22
  1

  0
CIRCLE
  5
2E6
  8
0
  6
CONTINUOUS
 62
     3
 10
163.6501276976533
 20
98.4910946303844
 30
0.0
 40
6.5
  0
LINE
  5
2E7
  8
0
  6
CONTINUOUS
 62
     3
 10
160.1860260825156
 20
98.4910946303844
 30
0.0
 11
161.9180768900845
 21
95.4910946303844
 31
0.0
  0
LINE
  5
2E8
  8
0
  6
CONTINUOUS
 62
     3
 10
161.9180768900845
 20
95.4910946303844
 30
0.0
 11
165.3821785052222
 21
95.4910946303844
 31
0.0
  0
LINE
  5
2E9
  8
0
  6
CONTINUOUS
 62
     3
 10
165.3821785052222
 20
95.4910946303844
 30
0.0
 11
167.1142293127911
 21
98.4910946303844
 31
0.0
  0
LINE
  5
2EA
  8
0
  6
CONTINUOUS
 62
     3
 10
167.1142293127911
 20
98.4910946303844
 30
0.0
 11
165.3821785052222
 21
101.4910946303844
 31
0.0
  0
LINE
  5
2EB
  8
0
  6
CONTINUOUS
 62
     3
 10
165.3821785052222
 20
101.4910946303844
 30
0.0
 11
161.9180768900845
 21
101.4910946303844
 31
0.0
  0
LINE
  5
2EC
  8
0
  6
CONTINUOUS
 62
     3
 10
161.9180768900845
 20
101.4910946303844
 30
0.0
 11
160.1860260825156
 21
98.4910946303844
 31
0.0
  0
ENDBLK
  5
15B
  8
0
  0
BLOCK
  8
0
  2
DC_GROUP_23
 70
     0
 10
0.0
 20
0.0
 30
0.0
  3
DC_GROUP_23
  1

  0
CIRCLE
  5
2ED
  8
0
  6
CONTINUOUS
 62
     3
 10
199.0613864756389
 20
37.15454272983371
 30
0.0
 40
6.499999999999998
  0
LINE
  5
2EE
  8
0
  6
CONTINUOUS
 62
     3
 10
200.7934372832078
 20
40.15454272983371
 30
0.0
 11
197.32933566807
 21
40.15454272983371
 31
0.0
  0
LINE
  5
2EF
  8
0
  6
CONTINUOUS
 62
     3
 10
197.32933566807
 20
40.15454272983371
 30
0.0
 11
195.5972848605011
 21
37.15454272983371
 31
0.0
  0
LINE
  5
2F0
  8
0
  6
CONTINUOUS
 62
     3
 10
195.5972848605011
 20
37.15454272983371
 30
0.0
 11
197.32933566807
 21
34.15454272983371
 31
0.0
  0
LINE
  5
2F1
  8
0
  6
CONTINUOUS
 62
     3
 10
197.32933566807
 20
34.15454272983371
 30
0.0
 11
200.7934372832078
 21
34.15454272983371
 31
0.0
  0
LINE
  5
2F2
  8
0
  6
CONTINUOUS
 62
     3
 10
200.7934372832078
 20
34.15454272983371
 30
0.0
 11
202.5254880907766
 21
37.15454272983369
 31
0.0
  0
LINE
  5
2F3
  8
0
  6
CONTINUOUS
 62
     3
 10
202.5254880907766
 20
37.15454272983369
 30
0.0
 11
200.7934372832078
 21
40.15454272983371
 31
0.0
  0
ENDBLK
  5
15E
  8
0
  0
BLOCK
  8
0
  2
DC_GROUP_24
 70
     0
 10
0.0
 20
0.0
 30
0.0
  3
DC_GROUP_24
  1

  0
CIRCLE
  5
2F4
  8
0
  6
CONTINUOUS
 62
     3
 10
168.5613859439225
 20
-15.67300659403042
 30
0.0
 40
6.499999999999998
  0
LINE
  5
2F5
  8
0
  6
CONTINUOUS
 62
     3
 10
170.2934367514914
 20
-12.67300659403042
 30
0.0
 11
166.8293351363536
 21
-12.6730065940304
 31
0.0
  0
LINE
  5
2F6
  8
0
  6
CONTINUOUS
 62
     3
 10
166.8293351363536
 20
-12.6730065940304
 30
0.0
 11
165.0972843287847
 21
-15.67300659403042
 31
0.0
  0
LINE
  5
2F7
  8
0
  6
CONTINUOUS
 62
     3
 10
165.0972843287847
 20
-15.67300659403042
 30
0.0
 11
166.8293351363536
 21
-18.6730065940304
 31
0.0
  0
LINE
  5
2F8
  8
0
  6
CONTINUOUS
 62
     3
 10
166.8293351363536
 20
-18.6730065940304
 30
0.0
 11
170.2934367514913
 21
-18.67300659403042
 31
0.0
  0
LINE
  5
2F9
  8
0
  6
CONTINUOUS
 62
     3
 10
170.2934367514913
 20
-18.67300659403042
 30
0.0
 11
172.0254875590602
 21
-15.6730065940304
 31
0.0
  0
LINE
  5
2FA
  8
0
  6
CONTINUOUS
 62
     3
 10
172.0254875590602
 20
-15.6730065940304
 30
0.0
 11
170.2934367514914
 21
-12.67300659403042
 31
0.0
  0
ENDBLK
  5
161
  8
0
  0
BLOCK
  8
0
  2
DC_GROUP_25
 70
     0
 10
0.0
 20
0.0
 30
0.0
  3
DC_GROUP_25
  1

  0
CIRCLE
  5
2FB
  8
0
  6
CONTINUOUS
 62
     3
 10
97.73674442851012
 20
-15.67178032547525
 30
0.0
 40
6.499999999999999
  0
LINE
  5
2FC
  8
0
  6
CONTINUOUS
 62
     3
 10
99.46879523607902
 20
-18.67178032547525
 30
0.0
 11
101.2008460436479
 21
-15.67178032547525
 31
0.0
  0
LINE
  5
2FD
  8
0
  6
CONTINUOUS
 62
     3
 10
101.2008460436479
 20
-15.67178032547525
 30
0.0
 11
99.46879523607902
 21
-12.67178032547525
 31
0.0
  0
LINE
  5
2FE
  8
0
  6
CONTINUOUS
 62
     3
 10
99.46879523607902
 20
-12.67178032547525
 30
0.0
 11
96.00469362094125
 21
-12.67178032547525
 31
0.0
  0
LINE
  5
2FF
  8
0
  6
CONTINUOUS
 62
     3
 10
96.00469362094125
 20
-12.67178032547525
 30
0.0
 11
94.27264281337239
 21
-15.67178032547525
 31
0.0
  0
LINE
  5
300
  8
0
  6
CONTINUOUS
 62
     3
 10
94.27264281337239
 20
-15.67178032547525
 30
0.0
 11
96.00469362094125
 21
-18.67178032547525
 31
0.0
  0
LINE
  5
301
  8
0
  6
CONTINUOUS
 62
     3
 10
96.00469362094125
 20
-18.67178032547525
 30
0.0
 11
99.46879523607902
 21
-18.67178032547525
 31
0.0
  0
ENDBLK
  5
164
  8
0
  0
BLOCK
  8
0
  2
DC_GROUP_26
 70
     0
 10
0.0
 20
0.0
 30
0.0
  3
DC_GROUP_26
  1

  0
CIRCLE
  5
302
  8
0
  6
CONTINUOUS
 62
     3
 10
67.23674496022656
 20
37.15576961236212
 30
0.0
 40
6.499999999999999
  0
LINE
  5
303
  8
0
  6
CONTINUOUS
 62
     3
 10
68.96879576779543
 20
34.15576961236212
 30
0.0
 11
70.70084657536432
 21
37.15576961236212
 31
0.0
  0
LINE
  5
304
  8
0
  6
CONTINUOUS
 62
     3
 10
70.70084657536432
 20
37.15576961236212
 30
0.0
 11
68.96879576779543
 21
40.15576961236212
 31
0.0
  0
LINE
  5
305
  8
0
  6
CONTINUOUS
 62
     3
 10
68.96879576779543
 20
40.15576961236212
 30
0.0
 11
65.50469415265769
 21
40.15576961236212
 31
0.0
  0
LINE
  5
306
  8
0
  6
CONTINUOUS
 62
     3
 10
65.50469415265769
 20
40.15576961236212
 30
0.0
 11
63.7726433450888
 21
37.15576961236212
 31
0.0
  0
LINE
  5
307
  8
0
  6
CONTINUOUS
 62
     3
 10
63.7726433450888
 20
37.15576961236212
 30
0.0
 11
65.50469415265769
 21
34.15576961236212
 31
0.0
  0
LINE
  5
308
  8
0
  6
CONTINUOUS
 62
     3
 10
65.50469415265769
 20
34.15576961236212
 30
0.0
 11
68.96879576779543
 21
34.15576961236212
 31
0.0
  0
ENDBLK
  5
167
  8
0
  0
BLOCK
  8
0
  2
DC_IMAGEDIMGROUP_35
 70
     0
 10
0.0
 20
0.0
 30
0.0
  3
DC_IMAGEDIMGROUP_35
  1

  0
LINE
  5
309
  8
0
  6
CONTINUOUS
 62
     7
 10
150.6494927613925
 20
121.6143252009063
 30
0.0
 11
150.6494927613925
 21
149.4683867351511
 31
0.0
  0
LINE
  5
30A
  8
0
  6
CONTINUOUS
 62
     7
 10
115.6494974999616
 20
121.6143276849695
 30
0.0
 11
115.6494974999616
 21
149.4683867351511
 31
0.0
  0
LINE
  5
30B
  8
0
  6
CONTINUOUS
 62
     7
 10
115.6494974999616
 20
148.4683867351511
 30
0.0
 11
150.6494927613925
 21
148.4683867351511
 31
0.0
  0
INSERT
  5
30C
  8
0
 62
     7
  2
_OPEN30
 10
115.6494974999616
 20
148.4683867351511
 30
0.0
 41
2.499995396844351
 42
2.500007167085477
 50
180.0
  0
INSERT
  5
30D
  8
0
 62
     7
  2
_OPEN30
 10
150.6494927613925
 20
148.4683867351511
 30
0.0
 41
2.499995396844351
 42
2.500007167085477
 50
360.0
  0
TEXT
  5
30E
  8
0
 62
     7
 10
129.949495130677
 20
148.9683867351511
 30
0.0
 40
4.0
  1
35
 41
0.9081081081081049
  7
DCSTYLE0
 72
     5
 11
136.349495130677
 21
148.9683867351511
 31
0.0
  0
ENDBLK
  5
16A
  8
0
  0
BLOCK
  8
0
  2
DC_IMAGEDIMGROUP_36
 70
     0
 10
0.0
 20
0.0
 30
0.0
  3
DC_IMAGEDIMGROUP_36
  1

  0
LINE
  5
30F
  8
0
  6
CONTINUOUS
 62
     7
 10
151.149481317301
 20
77.82892824827044
 30
0.0
 11
151.149481317301
 21
159.4683861391047
 31
0.0
  0
LINE
  5
310
  8
0
  6
CONTINUOUS
 62
     7
 10
115.1494974999616
 20
77.82962031187539
 30
0.0
 11
115.1494974999616
 21
159.4683861391047
 31
0.0
  0
LINE
  5
311
  8
0
  6
CONTINUOUS
 62
     7
 10
115.1494974999616
 20
158.4683861391047
 30
0.0
 11
151.149481317301
 21
158.4683861391047
 31
0.0
  0
INSERT
  5
312
  8
0
 62
     7
  2
_OPEN30
 10
115.1494974999616
 20
158.4683861391047
 30
0.0
 41
2.499995396844351
 42
2.500007167085477
 50
180.0
  0
INSERT
  5
313
  8
0
 62
     7
  2
_OPEN30
 10
151.149481317301
 20
158.4683861391047
 30
0.0
 41
2.499995396844351
 42
2.500007167085477
 50
360.0
  0
TEXT
  5
314
  8
0
 62
     7
 10
126.9269589689421
 20
158.9683861391047
 30
0.0
 40
4.0
  1
35
 41
0.9081081081081069
  7
DCSTYLE0
 72
     5
 11
133.3269589689421
 21
158.9683861391047
 31
0.0
  0
TEXT
  5
315
  8
0
 62
     7
 10
133.8269589689421
 20
161.4683861391047
 30
0.0
 40
2.6
  1
+0.3
 41
0.9205479452054787
  7
DCSTYLE0
 72
     5
 11
142.146958968942
 21
161.4683861391047
 31
0.0
  0
TEXT
  5
316
  8
0
 62
     7
 10
133.8269589689421
 20
158.7683861391047
 30
0.0
 40
2.6
  1
+0.2
 41
0.9205479452054787
  7
DCSTYLE0
 72
     5
 11
142.146958968942
 21
158.7683861391047
 31
0.0
  0
ENDBLK
  5
16D
  8
0
  0
BLOCK
  8
0
  2
DC_IMAGEDIMGROUP_37
 70
     0
 10
0.0
 20
0.0
 30
0.0
  3
DC_IMAGEDIMGROUP_37
  1

  0
LINE
  5
317
  8
0
  6
CONTINUOUS
 62
     7
 10
-102.4420547636784
 20
-46.37178184504262
 30
0.0
 11
-102.4420547636784
 21
-53.50845748231585
 31
0.0
  0
LINE
  5
318
  8
0
  6
CONTINUOUS
 62
     7
 10
-34.94202111071004
 20
-42.00845807836227
 30
0.0
 11
-34.94202111071004
 21
-53.50845748231585
 31
0.0
  0
LINE
  5
319
  8
0
  6
CONTINUOUS
 62
     7
 10
-102.4420547636784
 20
-52.50845748231585
 30
0.0
 11
-34.94202111071004
 21
-52.50845748231585
 31
0.0
  0
INSERT
  5
31A
  8
0
 62
     7
  2
_OPEN30
 10
-102.4420547636784
 20
-52.50845748231585
 30
0.0
 41
2.499995396844351
 42
2.500007167085477
 50
180.0
  0
INSERT
  5
31B
  8
0
 62
     7
  2
_OPEN30
 10
-34.94202111071004
 20
-52.50845748231585
 30
0.0
 41
2.499995396844351
 42
2.500007167085477
 50
360.0
  0
TEXT
  5
31C
  8
0
 62
     7
 10
-75.09203793719422
 20
-52.00845748231585
 30
0.0
 40
4.0
  1
67.5
 41
1.002985074626866
  7
DCSTYLE0
 72
     5
 11
-62.29203793719422
 21
-52.00845748231585
 31
0.0
  0
ENDBLK
  5
170
  8
0
  0
BLOCK
  8
0
  2
DC_GROUP_27
 70
     0
 10
0.0
 20
0.0
 30
0.0
  3
DC_GROUP_27
  1

  0
LINE
  5
31D
  8
0
  6
CONTINUOUS
 62
     7
 10
-37.15809818756108
 20
21.74985483097281
 30
0.0
 11
-20.75024475357721
 21
6.789753170575751
 31
0.0
  0
INSERT
  5
31E
  8
0
 62
     7
  2
_OPEN30
 10
-37.15809818756108
 20
21.74985483097281
 30
0.0
 41
2.499995396844351
 42
2.500007167085477
 50
137.6425452940647
  0
LINE
  5
31F
  8
0
  6
CONTINUOUS
 62
     7
 10
-20.75024475357721
 20
6.789753170575751
 30
0.0
 11
-4.750244753577213
 21
6.789753170575751
 31
0.0
  0
TEXT
  5
320
  8
0
 62
     7
 10
-20.75024475357721
 20
7.289753170575751
 30
0.0
 40
4.0
  1
防塵カバー
 41
0.9655172413793105
  7
DCSTYLE0
 72
     5
 11
-4.750244753577213
 21
7.289753170575751
 31
0.0
  0
ENDBLK
  5
173
  8
0
  0
BLOCK
  8
0
  2
DC_GROUP_28
 70
     0
 10
0.0
 20
0.0
 30
0.0
  3
DC_GROUP_28
  1

  0
LINE
  5
321
  8
0
  6
CONTINUOUS
 62
     7
 10
-65.6305497347682
 20
14.5110959630388
 30
0.0
 11
-22.3588578353401
 21
-27.47370547097879
 31
0.0
  0
INSERT
  5
322
  8
0
 62
     7
  2
_OPEN30
 10
-65.6305497347682
 20
14.5110959630388
 30
0.0
 41
2.499995396844351
 42
2.500007167085477
 50
135.864776282291
  0
LINE
  5
323
  8
0
  6
CONTINUOUS
 62
     7
 10
-22.3588578353401
 20
-27.47370547097879
 30
0.0
 11
-9.558857835340103
 21
-27.47370547097879
 31
0.0
  0
TEXT
  5
324
  8
0
 62
     7
 10
-22.3588578353401
 20
-26.97370547097879
 30
0.0
 40
4.0
  1
ピストン
 41
0.9739130434782609
  7
DCSTYLE0
 72
     5
 11
-9.558857835340103
 21
-26.97370547097879
 31
0.0
  0
ENDBLK
  5
176
  8
0
  0
BLOCK
  8
0
  2
DC_IMAGEDIMGROUP_38
 70
     0
 10
0.0
 20
0.0
 30
0.0
  3
DC_IMAGEDIMGROUP_38
  1

  0
LINE
  5
325
  8
0
  6
CONTINUOUS
 62
     7
 10
-16.07089297886844
 20
39.99153803243476
 30
0.0
 11
-16.07089297886844
 21
71.19155238225257
 31
0.0
  0
INSERT
  5
326
  8
0
 62
     7
  2
_OPEN30
 10
-16.07089297886844
 20
39.99153803243476
 30
0.0
 41
2.499995396844351
 42
2.500007167085477
 50
270.0
  0
INSERT
  5
327
  8
0
 62
     7
  2
_OPEN30
 10
-16.07089297886844
 20
71.19155238225257
 30
0.0
 41
2.499995396844351
 42
2.500007167085477
 50
90.0
  0
LINE
  5
328
  8
0
  6
CONTINUOUS
 62
     7
 10
-24.58369229800513
 20
39.99153803243476
 30
0.0
 11
-15.07089297886844
 21
39.99153803243476
 31
0.0
  0
LINE
  5
329
  8
0
  6
CONTINUOUS
 62
     7
 10
-38.94202857619157
 20
71.19155238225257
 30
0.0
 11
-15.07089297886844
 21
71.19155238225257
 31
0.0
  0
TEXT
  5
32A
  8
0
 62
     7
 10
-16.57089297886844
 20
49.19154520734367
 30
0.0
 40
4.0
  1
31.2
 50
90.0
 41
1.002985074626865
  7
DCSTYLE0
 72
     5
 11
-16.57089297886844
 21
61.99154520734366
 31
0.0
  0
ENDBLK
  5
179
  8
0
  0
BLOCK
  8
0
  2
DC_GROUP_29
 70
     0
 10
0.0
 20
0.0
 30
0.0
  3
DC_GROUP_29
  1

  0
LINE
  5
32B
  8
0
  6
CONTINUOUS
 62
     2
 10
-64.05444313571512
 20
107.0597216769184
 30
0.0
 11
-63.72696978831112
 21
107.2674891799997
 31
0.0
  0
LINE
  5
32C
  8
0
  6
CONTINUOUS
 62
     2
 10
-63.72696978831112
 20
107.2674891799997
 30
0.0
 11
-63.39938365260772
 21
107.4678097773702
 31
0.0
  0
LINE
  5
32D
  8
0
  6
CONTINUOUS
 62
     2
 10
-63.39938365260772
 20
107.4678097773702
 30
0.0
 11
-63.07157194030548
 21
107.6532365633192
 31
0.0
  0
LINE
  5
32E
  8
0
  6
CONTINUOUS
 62
     2
 10
-63.07157194030548
 20
107.6532365633192
 30
0.0
 11
-62.74342186310501
 21
107.8163226321361
 31
0.0
  0
LINE
  5
32F
  8
0
  6
CONTINUOUS
 62
     2
 10
-62.74342186310501
 20
107.8163226321361
 30
0.0
 11
-62.41482063270691
 21
107.94962107811
 31
0.0
  0
LINE
  5
330
  8
0
  6
CONTINUOUS
 62
     2
 10
-62.41482063270691
 20
107.94962107811
 30
0.0
 11
-62.08565546081176
 21
108.0456849955304
 31
0.0
  0
LINE
  5
331
  8
0
  6
CONTINUOUS
 62
     2
 10
-62.08565546081176
 20
108.0456849955304
 30
0.0
 11
-61.75581355912012
 21
108.0970674786863
 31
0.0
  0
LINE
  5
332
  8
0
  6
CONTINUOUS
 62
     2
 10
-61.75581355912012
 20
108.0970674786863
 30
0.0
 11
-61.42518252625066
 21
108.0963814620191
 31
0.0
  0
LINE
  5
333
  8
0
  6
CONTINUOUS
 62
     2
 10
-61.42518252625066
 20
108.0963814620191
 30
0.0
 11
-61.09368951563279
 21
108.0423573669307
 31
0.0
  0
LINE
  5
334
  8
0
  6
CONTINUOUS
 62
     2
 10
-61.09368951563279
 20
108.0423573669307
 30
0.0
 11
-60.76133487631509
 21
107.9450459380719
 31
0.0
  0
LINE
  5
335
  8
0
  6
CONTINUOUS
 62
     2
 10
-60.76133487631509
 20
107.9450459380719
 30
0.0
 11
-60.4281268822045
 21
107.8157235666536
 31
0.0
  0
LINE
  5
336
  8
0
  6
CONTINUOUS
 62
     2
 10
-60.4281268822045
 20
107.8157235666536
 30
0.0
 11
-60.09407380720796
 21
107.6656666438867
 31
0.0
  0
LINE
  5
337
  8
0
  6
CONTINUOUS
 62
     2
 10
-60.09407380720796
 20
107.6656666438867
 30
0.0
 11
-59.75918392523239
 21
107.506151560982
 31
0.0
  0
LINE
  5
338
  8
0
  6
CONTINUOUS
 62
     2
 10
-59.75918392523239
 20
107.506151560982
 30
0.0
 11
-59.42346551018475
 21
107.3484547091504
 31
0.0
  0
LINE
  5
339
  8
0
  6
CONTINUOUS
 62
     2
 10
-59.42346551018475
 20
107.3484547091504
 30
0.0
 11
-59.08692683597198
 21
107.2038524796029
 31
0.0
  0
LINE
  5
33A
  8
0
  6
CONTINUOUS
 62
     2
 10
-59.08692683597198
 20
107.2038524796029
 30
0.0
 11
-58.74957617650099
 21
107.0836212635502
 31
0.0
  0
LINE
  5
33B
  8
0
  6
CONTINUOUS
 62
     2
 10
-58.74957617650099
 20
107.0836212635502
 30
0.0
 11
-58.41142180567875
 21
106.9990374522034
 31
0.0
  0
LINE
  5
33C
  8
0
  6
CONTINUOUS
 62
     2
 10
-58.41142180567875
 20
106.9990374522034
 30
0.0
 11
-58.07248153521706
 21
106.9592403893822
 31
0.0
  0
LINE
  5
33D
  8
0
  6
CONTINUOUS
 62
     2
 10
-58.07248153521706
 20
106.9592403893822
 30
0.0
 11
-57.73282067184831
 21
106.9627276506114
 31
0.0
  0
LINE
  5
33E
  8
0
  6
CONTINUOUS
 62
     2
 10
-57.73282067184831
 20
106.9627276506114
 30
0.0
 11
-57.39251927734745
 21
107.0046907860048
 31
0.0
  0
LINE
  5
33F
  8
0
  6
CONTINUOUS
 62
     2
 10
-57.39251927734745
 20
107.0046907860048
 30
0.0
 11
-57.05165741810601
 21
107.080320311292
 31
0.0
  0
LINE
  5
340
  8
0
  6
CONTINUOUS
 62
     2
 10
-57.05165741810601
 20
107.080320311292
 30
0.0
 11
-56.71031516051549
 21
107.1848067422025
 31
0.0
  0
LINE
  5
341
  8
0
  6
CONTINUOUS
 62
     2
 10
-56.71031516051549
 20
107.1848067422025
 30
0.0
 11
-56.36857257096742
 21
107.3133405944657
 31
0.0
  0
LINE
  5
342
  8
0
  6
CONTINUOUS
 62
     2
 10
-56.36857257096742
 20
107.3133405944657
 30
0.0
 11
-56.02650971585329
 21
107.4611123838112
 31
0.0
  0
LINE
  5
343
  8
0
  6
CONTINUOUS
 62
     2
 10
-56.02650971585329
 20
107.4611123838112
 30
0.0
 11
-55.68420666156462
 21
107.6233126259681
 31
0.0
  0
LINE
  5
344
  8
0
  6
CONTINUOUS
 62
     2
 10
-55.68420666156462
 20
107.6233126259681
 30
0.0
 11
-55.34174347449293
 21
107.7951318366663
 31
0.0
  0
LINE
  5
345
  8
0
  6
CONTINUOUS
 62
     2
 10
-55.34174347449293
 20
107.7951318366663
 30
0.0
 11
-54.99920022102972
 21
107.9717605316349
 31
0.0
  0
ENDBLK
  5
17C
  8
0
  0
BLOCK
  8
0
  2
DC_GROUP_30
 70
     0
 10
0.0
 20
0.0
 30
0.0
  3
DC_GROUP_30
  1

  0
LINE
  5
346
  8
0
  6
CONTINUOUS
 62
     7
 10
-52.06702111071003
 20
12.49153803243477
 30
0.0
 11
-45.31702111071003
 21
19.24153803243476
 31
0.0
  0
LINE
  5
347
  8
0
  6
CONTINUOUS
 62
     7
 10
-53.48123467308312
 20
12.49153803243477
 30
0.0
 11
-46.73123467308313
 21
19.24153803243476
 31
0.0
  0
LINE
  5
348
  8
0
  6
CONTINUOUS
 62
     7
 10
-54.14202111071003
 20
13.24496515718095
 30
0.0
 11
-48.14544823545622
 21
19.24153803243476
 31
0.0
  0
LINE
  5
349
  8
0
  6
CONTINUOUS
 62
     7
 10
-54.14202111071003
 20
14.65917871955404
 30
0.0
 11
-49.55966179782931
 21
19.24153803243476
 31
0.0
  0
LINE
  5
34A
  8
0
  6
CONTINUOUS
 62
     7
 10
-54.14202111071003
 20
16.07339228192713
 30
0.0
 11
-50.9738753602024
 21
19.24153803243476
 31
0.0
  0
LINE
  5
34B
  8
0
  6
CONTINUOUS
 62
     7
 10
-54.14202111071003
 20
17.48760584430023
 30
0.0
 11
-52.3880889225755
 21
19.24153803243476
 31
0.0
  0
LINE
  5
34C
  8
0
  6
CONTINUOUS
 62
     7
 10
-54.14202111071003
 20
18.90181940667332
 30
0.0
 11
-53.80230248494859
 21
19.24153803243476
 31
0.0
  0
LINE
  5
34D
  8
0
  6
CONTINUOUS
 62
     7
 10
-50.65280754833693
 20
12.49153803243477
 30
0.0
 11
-43.90280754833694
 21
19.24153803243476
 31
0.0
  0
LINE
  5
34E
  8
0
  6
CONTINUOUS
 62
     7
 10
-49.23859398596384
 20
12.49153803243477
 30
0.0
 11
-43.24202111071003
 21
18.48811090768859
 31
0.0
  0
LINE
  5
34F
  8
0
  6
CONTINUOUS
 62
     7
 10
-47.82438042359075
 20
12.49153803243477
 30
0.0
 11
-43.24202111071003
 21
17.07389734531549
 31
0.0
  0
LINE
  5
350
  8
0
  6
CONTINUOUS
 62
     7
 10
-46.41016686121765
 20
12.49153803243477
 30
0.0
 11
-43.24202111071003
 21
15.65968378294239
 31
0.0
  0
LINE
  5
351
  8
0
  6
CONTINUOUS
 62
     7
 10
-44.99595329884456
 20
12.49153803243477
 30
0.0
 11
-43.24202111071003
 21
14.2454702205693
 31
0.0
  0
LINE
  5
352
  8
0
  6
CONTINUOUS
 62
     7
 10
-43.58173973647146
 20
12.49153803243477
 30
0.0
 11
-43.24202111071003
 21
12.83125665819621
 31
0.0
  0
ENDBLK
  5
17F
  8
0
  0
BLOCK
  8
0
  2
DC_GROUP_31
 70
     0
 10
0.0
 20
0.0
 30
0.0
  3
DC_GROUP_31
  1

  0
LINE
  5
353
  8
0
  6
CONTINUOUS
 62
     7
 10
-43.24202111071003
 20
11.84155374570878
 30
0.0
 11
-41.94202111071004
 21
13.14155374570877
 31
0.0
  0
LINE
  5
354
  8
0
  6
CONTINUOUS
 62
     7
 10
-43.24202111071003
 20
12.54866052689533
 30
0.0
 11
-41.94202111071004
 21
13.84866052689532
 31
0.0
  0
LINE
  5
355
  8
0
  6
CONTINUOUS
 62
     7
 10
-43.24202111071003
 20
13.25576730808188
 30
0.0
 11
-41.94202111071004
 21
14.55576730808187
 31
0.0
  0
LINE
  5
356
  8
0
  6
CONTINUOUS
 62
     7
 10
-43.24202111071003
 20
13.96287408926844
 30
0.0
 11
-41.94202111071004
 21
15.26287408926843
 31
0.0
  0
LINE
  5
357
  8
0
  6
CONTINUOUS
 62
     7
 10
-43.24202111071003
 20
14.66998087045498
 30
0.0
 11
-42.42046394873024
 21
15.49153803243477
 31
0.0
  0
LINE
  5
358
  8
0
  6
CONTINUOUS
 62
     7
 10
-43.24202111071003
 20
15.37708765164153
 30
0.0
 11
-43.12757072991679
 21
15.49153803243477
 31
0.0
  0
LINE
  5
359
  8
0
  6
CONTINUOUS
 62
     7
 10
-43.24202111071003
 20
11.13444696452224
 30
0.0
 11
-41.94202111071004
 21
12.43444696452223
 31
0.0
  0
LINE
  5
35A
  8
0
  6
CONTINUOUS
 62
     7
 10
-43.24202111071003
 20
10.42734018333568
 30
0.0
 11
-41.94202111071004
 21
11.72734018333567
 31
0.0
  0
LINE
  5
35B
  8
0
  6
CONTINUOUS
 62
     7
 10
-43.24202111071003
 20
9.720233402149134
 30
0.0
 11
-41.94202111071004
 21
11.02023340214912
 31
0.0
  0
LINE
  5
35C
  8
0
  6
CONTINUOUS
 62
     7
 10
-42.76357827268983
 20
9.491569458982783
 30
0.0
 11
-41.94202111071004
 21
10.31312662096257
 31
0.0
  0
LINE
  5
35D
  8
0
  6
CONTINUOUS
 62
     7
 10
-42.05647149150328
 20
9.491569458982783
 30
0.0
 11
-41.94202111071004
 21
9.606019839776023
 31
0.0
  0
LINE
  5
35E
  8
0
  6
CONTINUOUS
 62
     7
 10
-43.24202111071003
 20
13.14155374570877
 30
0.0
 11
-41.94202111071004
 21
11.84155374570878
 31
0.0
  0
LINE
  5
35F
  8
0
  6
CONTINUOUS
 62
     7
 10
-43.24202111071003
 20
13.84866052689532
 30
0.0
 11
-41.94202111071004
 21
12.54866052689533
 31
0.0
  0
LINE
  5
360
  8
0
  6
CONTINUOUS
 62
     7
 10
-43.24202111071003
 20
14.55576730808187
 30
0.0
 11
-41.94202111071004
 21
13.25576730808188
 31
0.0
  0
LINE
  5
361
  8
0
  6
CONTINUOUS
 62
     7
 10
-43.24202111071003
 20
15.26287408926841
 30
0.0
 11
-41.94202111071004
 21
13.96287408926842
 31
0.0
  0
LINE
  5
362
  8
0
  6
CONTINUOUS
 62
     7
 10
-42.76357827268983
 20
15.49153803243477
 30
0.0
 11
-41.94202111071004
 21
14.66998087045498
 31
0.0
  0
LINE
  5
363
  8
0
  6
CONTINUOUS
 62
     7
 10
-42.05647149150327
 20
15.49153803243477
 30
0.0
 11
-41.94202111071004
 21
15.37708765164153
 31
0.0
  0
LINE
  5
364
  8
0
  6
CONTINUOUS
 62
     7
 10
-43.24202111071003
 20
12.43444696452222
 30
0.0
 11
-41.94202111071004
 21
11.13444696452223
 31
0.0
  0
LINE
  5
365
  8
0
  6
CONTINUOUS
 62
     7
 10
-43.24202111071003
 20
11.72734018333567
 30
0.0
 11
-41.94202111071004
 21
10.42734018333568
 31
0.0
  0
LINE
  5
366
  8
0
  6
CONTINUOUS
 62
     7
 10
-43.24202111071003
 20
11.02023340214912
 30
0.0
 11
-41.94202111071004
 21
9.720233402149127
 31
0.0
  0
LINE
  5
367
  8
0
  6
CONTINUOUS
 62
     7
 10
-43.24202111071003
 20
10.31312662096257
 30
0.0
 11
-42.42046394873024
 21
9.491569458982783
 31
0.0
  0
LINE
  5
368
  8
0
  6
CONTINUOUS
 62
     7
 10
-43.24202111071003
 20
9.60601983977601
 30
0.0
 11
-43.1275707299168
 21
9.491569458982783
 31
0.0
  0
ENDBLK
  5
182
  8
0
  0
BLOCK
  8
0
  2
DC_GROUP_32
 70
     0
 10
0.0
 20
0.0
 30
0.0
  3
DC_GROUP_32
  1

  0
LINE
  5
369
  8
0
  6
CONTINUOUS
 62
     7
 10
-43.24202111071003
 20
16.71600963588023
 30
0.0
 11
-41.94202111071004
 21
18.01600963588022
 31
0.0
  0
LINE
  5
36A
  8
0
  6
CONTINUOUS
 62
     7
 10
-43.24202111071003
 20
17.42311641706678
 30
0.0
 11
-41.94202111071004
 21
18.72311641706677
 31
0.0
  0
LINE
  5
36B
  8
0
  6
CONTINUOUS
 62
     7
 10
-43.24202111071003
 20
18.13022319825333
 30
0.0
 11
-42.13176306963769
 21
19.24048123932567
 31
0.0
  0
LINE
  5
36C
  8
0
  6
CONTINUOUS
 62
     7
 10
-43.24202111071003
 20
18.83732997943988
 30
0.0
 11
-42.83886985082423
 21
19.24048123932567
 31
0.0
  0
LINE
  5
36D
  8
0
  6
CONTINUOUS
 62
     7
 10
-43.24202111071003
 20
16.00890285469368
 30
0.0
 11
-41.94202111071004
 21
17.30890285469367
 31
0.0
  0
LINE
  5
36E
  8
0
  6
CONTINUOUS
 62
     7
 10
-43.05227915178239
 20
15.49153803243477
 30
0.0
 11
-41.94202111071004
 21
16.60179607350712
 31
0.0
  0
LINE
  5
36F
  8
0
  6
CONTINUOUS
 62
     7
 10
-42.34517237059584
 20
15.49153803243477
 30
0.0
 11
-41.94202111071004
 21
15.89468929232057
 31
0.0
  0
LINE
  5
370
  8
0
  6
CONTINUOUS
 62
     7
 10
-43.24202111071003
 20
18.01600963588021
 30
0.0
 11
-41.94202111071004
 21
16.71600963588022
 31
0.0
  0
LINE
  5
371
  8
0
  6
CONTINUOUS
 62
     7
 10
-43.24202111071003
 20
18.72311641706676
 30
0.0
 11
-41.94202111071004
 21
17.42311641706677
 31
0.0
  0
LINE
  5
372
  8
0
  6
CONTINUOUS
 62
     7
 10
-43.05227915178239
 20
19.24048123932567
 30
0.0
 11
-41.94202111071004
 21
18.13022319825332
 31
0.0
  0
LINE
  5
373
  8
0
  6
CONTINUOUS
 62
     7
 10
-42.34517237059584
 20
19.24048123932567
 30
0.0
 11
-41.94202111071004
 21
18.83732997943987
 31
0.0
  0
LINE
  5
374
  8
0
  6
CONTINUOUS
 62
     7
 10
-43.24202111071003
 20
17.30890285469366
 30
0.0
 11
-41.94202111071004
 21
16.00890285469367
 31
0.0
  0
LINE
  5
375
  8
0
  6
CONTINUOUS
 62
     7
 10
-43.24202111071003
 20
16.60179607350711
 30
0.0
 11
-42.13176306963769
 21
15.49153803243477
 31
0.0
  0
LINE
  5
376
  8
0
  6
CONTINUOUS
 62
     7
 10
-43.24202111071003
 20
15.89468929232056
 30
0.0
 11
-42.83886985082423
 21
15.49153803243477
 31
0.0
  0
ENDBLK
  5
185
  8
0
  0
BLOCK
  8
0
  2
DC_GROUP_33
 70
     0
 10
0.0
 20
0.0
 30
0.0
  3
DC_GROUP_33
  1

  0
LINE
  5
377
  8
0
  6
CONTINUOUS
 62
     7
 10
-43.09202111071004
 20
-1.00846196756523
 30
0.0
 11
-42.09202111071004
 21
-0.008461967565232
 31
0.0
  0
LINE
  5
378
  8
0
  6
CONTINUOUS
 62
     7
 10
-43.24202111071003
 20
-0.4513551863786711
 30
0.0
 11
-42.79912789189659
 21
-0.008461967565232
 31
0.0
  0
LINE
  5
379
  8
0
  6
CONTINUOUS
 62
     7
 10
-42.38491432952348
 20
-1.00846196756523
 30
0.0
 11
-41.94202111071004
 21
-0.5655687487517822
 31
0.0
  0
LINE
  5
37A
  8
0
  6
CONTINUOUS
 62
     7
 10
-43.07237964334889
 20
-0.008461967565232
 30
0.0
 11
-42.0723796433489
 21
-1.00846196756523
 31
0.0
  0
LINE
  5
37B
  8
0
  6
CONTINUOUS
 62
     7
 10
-42.36527286216234
 20
-0.008461967565232
 30
0.0
 11
-41.94202111071004
 21
-0.4317137190175355
 31
0.0
  0
LINE
  5
37C
  8
0
  6
CONTINUOUS
 62
     7
 10
-43.24202111071003
 20
-0.5459272813906466
 30
0.0
 11
-42.77948642453544
 21
-1.00846196756523
 31
0.0
  0
ENDBLK
  5
188
  8
0
  0
BLOCK
  8
0
  2
DC_GROUP_34
 70
     0
 10
0.0
 20
0.0
 30
0.0
  3
DC_GROUP_34
  1

  0
LINE
  5
37D
  8
0
  6
CONTINUOUS
 62
     7
 10
-45.09203233128406
 20
65.29154487206755
 30
0.0
 11
-42.59203233128406
 21
67.79154487206755
 31
0.0
  0
LINE
  5
37E
  8
0
  6
CONTINUOUS
 62
     7
 10
-45.74203233128405
 20
66.05575843444065
 30
0.0
 11
-44.00624589365715
 21
67.79154487206755
 31
0.0
  0
LINE
  5
37F
  8
0
  6
CONTINUOUS
 62
     7
 10
-45.74203233128405
 20
67.46997199681374
 30
0.0
 11
-45.42045945603025
 21
67.79154487206755
 31
0.0
  0
LINE
  5
380
  8
0
  6
CONTINUOUS
 62
     7
 10
-43.67781876891096
 20
65.29154487206755
 30
0.0
 11
-41.94203233128408
 21
67.02733130969443
 31
0.0
  0
LINE
  5
381
  8
0
  6
CONTINUOUS
 62
     7
 10
-42.26360520653787
 20
65.29154487206755
 30
0.0
 11
-41.94203233128408
 21
65.61311774732134
 31
0.0
  0
ENDBLK
  5
18B
  8
0
  0
BLOCK
  8
0
  2
DC_GROUP_35
 70
     0
 10
0.0
 20
0.0
 30
0.0
  3
DC_GROUP_35
  1

  0
LINE
  5
382
  8
0
  6
CONTINUOUS
 62
     7
 10
-42.74203233128407
 20
71.2415418769342
 30
0.0
 11
-41.94203233128408
 21
72.04154187693422
 31
0.0
  0
LINE
  5
383
  8
0
  6
CONTINUOUS
 62
     7
 10
-42.74203233128407
 20
72.65575543930731
 30
0.0
 11
-41.94203233128408
 21
73.45575543930731
 31
0.0
  0
LINE
  5
384
  8
0
  6
CONTINUOUS
 62
     7
 10
-42.74203233128407
 20
74.06996900168042
 30
0.0
 11
-41.94203233128408
 21
74.8699690016804
 31
0.0
  0
LINE
  5
385
  8
0
  6
CONTINUOUS
 62
     7
 10
-42.74203233128407
 20
75.48418256405351
 30
0.0
 11
-42.73467601353669
 21
75.49153888180089
 31
0.0
  0
LINE
  5
386
  8
0
  6
CONTINUOUS
 62
     7
 10
-42.74203233128407
 20
69.82732831456111
 30
0.0
 11
-41.94203233128408
 21
70.62732831456111
 31
0.0
  0
LINE
  5
387
  8
0
  6
CONTINUOUS
 62
     7
 10
-42.74203233128407
 20
68.41311475218802
 30
0.0
 11
-41.94203233128408
 21
69.21311475218802
 31
0.0
  0
LINE
  5
388
  8
0
  6
CONTINUOUS
 62
     7
 10
-41.94938864903146
 20
67.79154487206755
 30
0.0
 11
-41.94203233128408
 21
67.79890118981493
 31
0.0
  0
LINE
  5
389
  8
0
  6
CONTINUOUS
 62
     7
 10
-42.74203233128407
 20
72.04154187693422
 30
0.0
 11
-41.94203233128408
 21
71.2415418769342
 31
0.0
  0
LINE
  5
38A
  8
0
  6
CONTINUOUS
 62
     7
 10
-42.74203233128407
 20
73.45575543930731
 30
0.0
 11
-41.94203233128408
 21
72.65575543930731
 31
0.0
  0
LINE
  5
38B
  8
0
  6
CONTINUOUS
 62
     7
 10
-42.74203233128407
 20
74.8699690016804
 30
0.0
 11
-41.94203233128408
 21
74.06996900168042
 31
0.0
  0
LINE
  5
38C
  8
0
  6
CONTINUOUS
 62
     7
 10
-41.94938864903146
 20
75.49153888180089
 30
0.0
 11
-41.94203233128408
 21
75.48418256405351
 31
0.0
  0
LINE
  5
38D
  8
0
  6
CONTINUOUS
 62
     7
 10
-42.74203233128407
 20
70.62732831456111
 30
0.0
 11
-41.94203233128408
 21
69.82732831456113
 31
0.0
  0
LINE
  5
38E
  8
0
  6
CONTINUOUS
 62
     7
 10
-42.74203233128407
 20
69.21311475218802
 30
0.0
 11
-41.94203233128408
 21
68.41311475218802
 31
0.0
  0
LINE
  5
38F
  8
0
  6
CONTINUOUS
 62
     7
 10
-42.74203233128407
 20
67.79890118981493
 30
0.0
 11
-42.73467601353669
 21
67.79154487206755
 31
0.0
  0
ENDBLK
  5
18E
  8
0
  0
BLOCK
  8
0
  2
DC_GROUP_36
 70
     0
 10
0.0
 20
0.0
 30
0.0
  3
DC_GROUP_36
  1

  0
LINE
  5
390
  8
0
  6
CONTINUOUS
 62
     7
 10
-43.24202111071003
 20
61.74155057176152
 30
0.0
 11
-41.94203233128408
 21
63.04153935118747
 31
0.0
  0
LINE
  5
391
  8
0
  6
CONTINUOUS
 62
     7
 10
-43.24202111071003
 20
63.15576413413462
 30
0.0
 11
-41.94203233128408
 21
64.45575291356057
 31
0.0
  0
LINE
  5
392
  8
0
  6
CONTINUOUS
 62
     7
 10
-42.74203233128407
 20
65.06996647593367
 30
0.0
 11
-42.52045393515019
 21
65.29154487206755
 31
0.0
  0
LINE
  5
393
  8
0
  6
CONTINUOUS
 62
     7
 10
-43.24202111071003
 20
60.32733700938843
 30
0.0
 11
-41.94203233128408
 21
61.62732578881438
 31
0.0
  0
LINE
  5
394
  8
0
  6
CONTINUOUS
 62
     7
 10
-42.6635995068439
 20
59.49154505088146
 30
0.0
 11
-41.94203233128408
 21
60.21311222644128
 31
0.0
  0
LINE
  5
395
  8
0
  6
CONTINUOUS
 62
     7
 10
-43.24202111071003
 20
63.04153935118747
 30
0.0
 11
-41.94203233128408
 21
61.74155057176152
 31
0.0
  0
LINE
  5
396
  8
0
  6
CONTINUOUS
 62
     7
 10
-42.74203233128407
 20
63.95576413413461
 30
0.0
 11
-41.94203233128408
 21
63.15576413413461
 31
0.0
  0
LINE
  5
397
  8
0
  6
CONTINUOUS
 62
     7
 10
-42.66359950684391
 20
65.29154487206755
 30
0.0
 11
-41.94203233128408
 21
64.56997769650772
 31
0.0
  0
LINE
  5
398
  8
0
  6
CONTINUOUS
 62
     7
 10
-43.24202111071003
 20
61.62732578881437
 30
0.0
 11
-41.94203233128408
 21
60.32733700938842
 31
0.0
  0
LINE
  5
399
  8
0
  6
CONTINUOUS
 62
     7
 10
-43.24202111071003
 20
60.21311222644128
 30
0.0
 11
-42.5204539351502
 21
59.49154505088146
 31
0.0
  0
ENDBLK
  5
191
  8
0
  0
BLOCK
  8
0
  2
DC_IMAGEDIMGROUP_39
 70
     0
 10
0.0
 20
0.0
 30
0.0
  3
DC_IMAGEDIMGROUP_39
  1

  0
LINE
  5
39A
  8
0
  6
CONTINUOUS
 62
     7
 10
-137.0667026786141
 20
39.99153803243476
 30
0.0
 11
-137.0667026786141
 21
62.99153803243476
 31
0.0
  0
INSERT
  5
39B
  8
0
 62
     7
  2
_OPEN30
 10
-137.0667026786141
 20
39.99153803243476
 30
0.0
 41
2.499995396844351
 42
2.500007167085477
 50
270.0
  0
INSERT
  5
39C
  8
0
 62
     7
  2
_OPEN30
 10
-137.0667026786141
 20
62.99153803243476
 30
0.0
 41
2.499995396844351
 42
2.500007167085477
 50
90.0
  0
LINE
  5
39D
  8
0
  6
CONTINUOUS
 62
     7
 10
-66.44200948780477
 20
62.99153803243476
 30
0.0
 11
-138.0667026786141
 21
62.99153803243476
 31
0.0
  0
TEXT
  5
39E
  8
0
 62
     7
 10
-137.5667026786141
 20
48.29153803243477
 30
0.0
 40
4.0
  1
23
 50
90.0
 41
0.9081081081081049
  7
DCSTYLE0
 72
     5
 11
-137.5667026786141
 21
54.69153803243475
 31
0.0
  0
ENDBLK
  5
194
  8
0
  0
BLOCK
  8
0
  2
DC_IMAGEDIMGROUP_40
 70
     0
 10
0.0
 20
0.0
 30
0.0
  3
DC_IMAGEDIMGROUP_40
  1

  0
LINE
  5
39F
  8
0
  6
CONTINUOUS
 62
     7
 10
-64.44203188424936
 20
122.0224060551488
 30
0.0
 11
-64.44203188424936
 21
130.6250894464181
 31
0.0
  0
LINE
  5
3A0
  8
0
  6
CONTINUOUS
 62
     7
 10
-74.94202012723352
 20
123.4915527398804
 30
0.0
 11
-74.94202012723352
 21
130.6250894464181
 31
0.0
  0
LINE
  5
3A1
  8
0
  6
CONTINUOUS
 62
     7
 10
-74.94202012723352
 20
129.6250894464181
 30
0.0
 11
-64.44203188424936
 21
129.6250894464181
 31
0.0
  0
LINE
  5
3A2
  8
0
  6
CONTINUOUS
 62
     7
 10
-54.4420131087867
 20
122.0224060551488
 30
0.0
 11
-54.4420131087867
 21
130.6250894464181
 31
0.0
  0
LINE
  5
3A3
  8
0
  6
CONTINUOUS
 62
     7
 10
-94.15683012723352
 20
129.6250894464181
 30
0.0
 11
-74.94202012723352
 21
129.6250894464181
 31
0.0
  0
INSERT
  5
3A4
  8
0
 62
     7
  2
_OPEN30
 10
-74.94202012723352
 20
129.6250894464181
 30
0.0
 41
2.499995396844351
 42
2.500007167085477
 50
360.0
  0
LINE
  5
3A5
  8
0
  6
CONTINUOUS
 62
     7
 10
-64.44203188424936
 20
129.6250894464181
 30
0.0
 11
-54.4420131087867
 21
129.6250894464181
 31
0.0
  0
INSERT
  5
3A6
  8
0
 62
     7
  2
_OPEN30
 10
-64.44203188424936
 20
129.6250894464181
 30
0.0
 41
2.499995396844351
 42
2.500007167085477
 50
180.0
  0
INSERT
  5
3A7
  8
0
 62
     7
  2
_OPEN30
 10
-54.4420131087867
 20
129.6250894464181
 30
0.0
 41
2.499995396844351
 42
2.500007167085477
 50
360.0
  0
TEXT
  5
3A8
  8
0
 62
     7
 10
-91.15683012723352
 20
130.1250894464181
 30
0.0
 40
4.0
  1
10.5
 41
1.002985074626865
  7
DCSTYLE0
 72
     5
 11
-78.35683012723352
 21
130.1250894464181
 31
0.0
  0
TEXT
  5
3A9
  8
0
 62
     7
 10
-62.64202249651804
 20
130.1250894464181
 30
0.0
 40
4.0
  1
10
 41
0.9081081081081089
  7
DCSTYLE0
 72
     5
 11
-56.24202249651803
 21
130.1250894464181
 31
0.0
  0
ENDBLK
  5
197
  8
0
  0
BLOCK
  8
0
  2
_OPEN30
 70
     0
 10
0.0
 20
0.0
 30
0.0
  3
_OPEN30
  1

  0
LINE
  5
1AA
  8
0
  6
BYBLOCK
 62
     0
 10
-1.0
 20
0.267949
 30
0.0
 11
0.0
 21
0.0
 31
0.0
  0
LINE
  5
1AB
  8
0
  6
BYBLOCK
 62
     0
 10
0.0
 20
0.0
 30
0.0
 11
-1.0
 21
-0.267949
 31
0.0
  0
LINE
  5
1AC
  8
0
  6
BYBLOCK
 62
     0
 10
0.0
 20
0.0
 30
0.0
 11
-1.0
 21
0.0
 31
0.0
  0
ENDBLK
  5
1A9
  8
0
  0
ENDSEC
  0
SECTION
  2
ENTITIES
  0
LINE
  5
3AA
  8
0
  6
CONTINUOUS
 62
     3
 10
-269.000292508917
 20
194.0
 30
0.0
 11
268.999707491083
 21
194.0
 31
0.0
  0
LINE
  5
3AB
  8
0
  6
CONTINUOUS
 62
     3
 10
-269.000292508917
 20
-194.0
 30
0.0
 11
268.999707491083
 21
-194.0
 31
0.0
  0
LINE
  5
3AC
  8
0
  6
CONTINUOUS
 62
     3
 10
88.99972274987203
 20
-180.0
 30
0.0
 11
268.999707491083
 21
-180.0
 31
0.0
  0
LINE
  5
3AD
  8
0
  6
CONTINUOUS
 62
     3
 10
137.999722749872
 20
-166.0
 30
0.0
 11
268.6717655965517
 21
-166.0
 31
0.0
  0
LINE
  5
3AE
  8
0
  6
CONTINUOUS
 62
     3
 10
137.999722749872
 20
-152.0
 30
0.0
 11
246.999722749872
 21
-152.0
 31
0.0
  0
LINE
  5
3AF
  8
0
  6
CONTINUOUS
 62
     3
 10
137.999722749872
 20
-142.0
 30
0.0
 11
268.999707491083
 21
-142.0
 31
0.0
  0
LINE
  5
3B0
  8
0
  6
CONTINUOUS
 62
     3
 10
88.99972274987203
 20
-134.0
 30
0.0
 11
268.999707491083
 21
-134.0
 31
0.0
  0
LINE
  5
3B1
  8
0
  6
CONTINUOUS
 62
     3
 10
137.999722749872
 20
-134.0
 30
0.0
 11
137.999722749872
 21
-180.0
 31
0.0
  0
LINE
  5
3B2
  8
0
  6
CONTINUOUS
 62
     3
 10
219.999722749872
 20
-152.0
 30
0.0
 11
219.999722749872
 21
-180.0
 31
0.0
  0
LINE
  5
3B3
  8
0
  6
CONTINUOUS
 62
     3
 10
246.999722749872
 20
-134.0
 30
0.0
 11
246.999722749872
 21
-180.0
 31
0.0
  0
LINE
  5
3B4
  8
0
  6
CONTINUOUS
 62
     3
 10
162.999722749872
 20
-180.0
 30
0.0
 11
162.999722749872
 21
-194.0
 31
0.0
  0
LINE
  5
3B5
  8
0
  6
CONTINUOUS
 62
     3
 10
268.999707491083
 20
194.0
 30
0.0
 11
268.999707491083
 21
-194.0
 31
0.0
  0
LINE
  5
3B6
  8
0
  6
CONTINUOUS
 62
     3
 10
-269.000292508917
 20
194.0
 30
0.0
 11
-269.000292508917
 21
-194.0
 31
0.0
  0
LINE
  5
3B7
  8
0
  6
CONTINUOUS
 62
     3
 10
88.99972274987203
 20
-134.0
 30
0.0
 11
88.99972274987203
 21
-194.0
 31
0.0
  0
ARC
  5
3B8
  8
0
  6
CONTINUOUS
 62
     3
 10
133.1494894086313
 20
39.99175096161989
 30
0.0
 40
82.49999754130847
 50
90.00000250447816
 51
0.0000100179126691
  0
LINE
  5
3B9
  8
0
  6
CONTINUOUS
 62
     3
 10
-142.94202111071
 20
122.4915527398804
 30
0.0
 11
-74.94202012723352
 21
122.4915527398804
 31
0.0
  0
LINE
  5
3BA
  8
0
  6
CONTINUOUS
 62
     3
 10
-142.94202111071
 20
-42.50845807836227
 30
0.0
 11
-36.44202111071004
 21
-42.50845807836227
 31
0.0
  0
LINE
  5
3BB
  8
0
  6
CONTINUOUS
 62
     3
 10
-74.94202012723352
 20
122.4915527398804
 30
0.0
 11
-74.94202012723352
 21
79.49155848186061
 31
0.0
  0
LINE
  5
3BC
  8
0
  6
CONTINUOUS
 62
     3
 10
-74.94202012723352
 20
79.49155848186061
 30
0.0
 11
-59.24200651744043
 21
63.79154487206755
 31
0.0
  0
LINE
  5
3BD
  8
0
  6
CONTINUOUS
 62
     3
 10
-64.44203188424936
 20
121.0224060551488
 30
0.0
 11
-64.44203188424936
 21
120.4915375406964
 31
0.0
  0
LINE
  5
3BE
  8
0
  6
CONTINUOUS
 62
     3
 10
-54.44202455287816
 20
121.0224060551488
 30
0.0
 11
-54.44202455287816
 21
120.4915375406964
 31
0.0
  0
LINE
  5
3BF
  8
0
  6
CONTINUOUS
 62
     3
 10
-95.44202714568021
 20
66.49154487206755
 30
0.0
 11
-95.44202714568021
 21
59.49154505088146
 31
0.0
  0
LINE
  5
3C0
  8
0
  6
CONTINUOUS
 62
     3
 10
-119.4420264304245
 20
62.9915411616785
 30
0.0
 11
-103.4420307219588
 21
62.9915411616785
 31
0.0
  0
LINE
  5
3C1
  8
0
  6
CONTINUOUS
 62
     3
 10
-41.94203233128408
 20
75.49153888180089
 30
0.0
 11
-41.94203233128408
 21
59.49154505088146
 31
0.0
  0
LINE
  5
3C2
  8
0
  6
CONTINUOUS
 62
     3
 10
-115.4420303643309
 20
68.49154862716006
 30
0.0
 11
-103.4420307219588
 21
68.49154862716006
 31
0.0
  0
LINE
  5
3C3
  8
0
  6
CONTINUOUS
 62
     3
 10
-115.4420303643309
 20
69.49154478266058
 30
0.0
 11
-115.4420303643309
 21
62.9915411616785
 31
0.0
  0
LINE
  5
3C4
  8
0
  6
CONTINUOUS
 62
     3
 10
-115.4420247471984
 20
69.49154538840142
 30
0.0
 11
-114.4420237154114
 21
70.49154642018857
 31
0.0
  0
LINE
  5
3C5
  8
0
  6
CONTINUOUS
 62
     3
 10
-89.44202732449415
 20
59.49154505088146
 30
0.0
 11
-89.44202732449415
 21
43.99156843080269
 31
0.0
  0
LINE
  5
3C6
  8
0
  6
CONTINUOUS
 62
     3
 10
-94.44201954608823
 20
43.99156843080269
 30
0.0
 11
-94.44201954608823
 21
35.99155341043266
 31
0.0
  0
LINE
  5
3C7
  8
0
  6
CONTINUOUS
 62
     3
 10
-89.44202732449415
 20
35.99155341043266
 30
0.0
 11
-89.44202732449415
 21
20.49155390217095
 31
0.0
  0
LINE
  5
3C8
  8
0
  6
CONTINUOUS
 62
     3
 10
-120.442022585925
 20
61.99155645026943
 30
0.0
 11
-120.442022585925
 21
17.99151389255434
 31
0.0
  0
LINE
  5
3C9
  8
0
  6
CONTINUOUS
 62
     3
 10
-100.4420193672743
 20
58.99156226172212
 30
0.0
 11
-100.4420193672743
 21
20.99153955235315
 31
0.0
  0
LINE
  5
3CA
  8
0
  6
CONTINUOUS
 62
     3
 10
-120.442022585925
 20
58.14156381293296
 30
0.0
 11
-104.4420268774593
 21
58.14156381293296
 31
0.0
  0
LINE
  5
3CB
  8
0
  6
CONTINUOUS
 62
     3
 10
-103.9420345217548
 20
59.49155461742666
 30
0.0
 11
-100.9420346111617
 21
59.49155461742666
 31
0.0
  0
LINE
  5
3CC
  8
0
  6
CONTINUOUS
 62
     3
 10
-104.4420268774593
 20
58.9943260098087
 30
0.0
 11
-104.4420268774593
 21
20.9887729432437
 31
0.0
  0
LINE
  5
3CD
  8
0
  6
CONTINUOUS
 62
     3
 10
-42.74203233128407
 20
75.49153888180089
 30
0.0
 11
-33.94202495520951
 21
75.49153888180089
 31
0.0
  0
LINE
  5
3CE
  8
0
  6
CONTINUOUS
 62
     3
 10
-39.94202477639558
 20
120.4915375406964
 30
0.0
 11
-39.94202477639558
 21
118.4915452296954
 31
0.0
  0
LINE
  5
3CF
  8
0
  6
CONTINUOUS
 62
     3
 10
-46.94202075308217
 20
120.4915375406964
 30
0.0
 11
-46.94202075308217
 21
69.99156002654803
 31
0.0
  0
LINE
  5
3D0
  8
0
  6
CONTINUOUS
 62
     3
 10
-46.94202075308217
 20
69.99156002654803
 30
0.0
 11
-42.74203233128407
 21
69.99156002654803
 31
0.0
  0
LINE
  5
3D1
  8
0
  6
CONTINUOUS
 62
     3
 10
-59.24200651744043
 20
63.79154487206755
 30
0.0
 11
-42.74203233128407
 21
63.79154487206755
 31
0.0
  0
LINE
  5
3D2
  8
0
  6
CONTINUOUS
 62
     3
 10
-119.4420264304245
 20
16.99155493035105
 30
0.0
 11
-103.4420307219588
 21
16.99155493035105
 31
0.0
  0
LINE
  5
3D3
  8
0
  6
CONTINUOUS
 62
     3
 10
-103.9420345217548
 20
20.49157008483152
 30
0.0
 11
-100.9420346111617
 21
20.49157008483152
 31
0.0
  0
LINE
  5
3D4
  8
0
  6
CONTINUOUS
 62
     3
 10
-120.442022585925
 20
21.84156088932522
 30
0.0
 11
-104.4420268774593
 21
21.84156088932522
 31
0.0
  0
LINE
  5
3D5
  8
0
  6
CONTINUOUS
 62
     3
 10
-115.4420303643309
 20
11.49157035305243
 30
0.0
 11
-111.4420228541459
 21
11.49157035305243
 31
0.0
  0
LINE
  5
3D6
  8
0
  6
CONTINUOUS
 62
     3
 10
-115.4420287932957
 20
10.49154520441873
 30
0.0
 11
-114.4420277615086
 21
9.49154417263158
 31
0.0
  0
LINE
  5
3D7
  8
0
  6
CONTINUOUS
 62
     3
 10
-115.4420303643309
 20
10.49155417039185
 30
0.0
 11
-115.4420303643309
 21
16.99155493035105
 31
0.0
  0
LINE
  5
3D8
  8
0
  6
CONTINUOUS
 62
     3
 10
-119.442012689958
 20
62.99155486617403
 30
0.0
 11
-120.4420137217451
 21
61.99155383438688
 31
0.0
  0
LINE
  5
3D9
  8
0
  6
CONTINUOUS
 62
     3
 10
-120.4420501366206
 20
17.99153675843326
 30
0.0
 11
-119.4420491048334
 21
16.99153572664611
 31
0.0
  0
LINE
  5
3DA
  8
0
  6
CONTINUOUS
 62
     3
 10
-146.7420211107101
 20
9.491569458982783
 30
0.0
 11
-41.94202111071004
 21
9.491569458982783
 31
0.0
  0
LINE
  5
3DB
  8
0
  6
CONTINUOUS
 62
     3
 10
-34.94202111071004
 20
4.523094265258012
 30
0.0
 11
-34.94202111071004
 21
-41.00845807836227
 31
0.0
  0
LINE
  5
3DC
  8
0
  6
CONTINUOUS
 62
     3
 10
-74.94202012723352
 20
121.0224060551488
 30
0.0
 11
-64.44203188424936
 21
121.0224060551488
 31
0.0
  0
LINE
  5
3DD
  8
0
  6
CONTINUOUS
 62
     3
 10
-54.44202455287816
 20
121.0224060551488
 30
0.0
 11
-36.4420174450245
 21
121.0224060551488
 31
0.0
  0
LINE
  5
3DE
  8
0
  6
CONTINUOUS
 62
     3
 10
-146.7420211107101
 20
70.49155238225256
 30
0.0
 11
-78.44202383762254
 21
70.49155238225256
 31
0.0
  0
LINE
  5
3DF
  8
0
  6
CONTINUOUS
 62
     3
 10
-46.44201695328618
 20
118.4915452296954
 30
0.0
 11
-30.94202504461648
 21
118.4915452296954
 31
0.0
  0
LINE
  5
3E0
  8
0
  6
CONTINUOUS
 62
     3
 10
-46.44201695328618
 20
77.49155408098486
 30
0.0
 11
-30.94202504461648
 21
77.49155408098486
 31
0.0
  0
LINE
  5
3E1
  8
0
  6
CONTINUOUS
 62
     3
 10
-46.44201695328618
 20
118.4915452296954
 30
0.0
 11
-46.44201695328618
 21
77.49155408098486
 31
0.0
  0
LINE
  5
3E2
  8
0
  6
CONTINUOUS
 62
     3
 10
-30.94202504461648
 20
118.4915452296954
 30
0.0
 11
-30.94202504461648
 21
114.4915377195103
 31
0.0
  0
LINE
  5
3E3
  8
0
  6
CONTINUOUS
 62
     3
 10
-39.94202477639558
 20
77.49155408098486
 30
0.0
 11
-39.94202477639558
 21
75.49153888180089
 31
0.0
  0
LINE
  5
3E4
  8
0
  6
CONTINUOUS
 62
     3
 10
-30.94202504461648
 20
106.4915455873232
 30
0.0
 11
-30.94202504461648
 21
89.49155372335701
 31
0.0
  0
LINE
  5
3E5
  8
0
  6
CONTINUOUS
 62
     3
 10
-30.94202504461648
 20
81.49153870298696
 30
0.0
 11
-30.94202504461648
 21
77.49155408098486
 31
0.0
  0
LINE
  5
3E6
  8
0
  6
CONTINUOUS
 62
     3
 10
-46.44201695328618
 20
114.4915377195103
 30
0.0
 11
-24.94202522343041
 21
114.4915377195103
 31
0.0
  0
LINE
  5
3E7
  8
0
  6
CONTINUOUS
 62
     3
 10
-46.44201695328618
 20
106.4915455873232
 30
0.0
 11
-24.94202522343041
 21
106.4915455873232
 31
0.0
  0
LINE
  5
3E8
  8
0
  6
CONTINUOUS
 62
     3
 10
-46.44201695328618
 20
89.49155372335701
 30
0.0
 11
-24.94202522343041
 21
89.49155372335701
 31
0.0
  0
LINE
  5
3E9
  8
0
  6
CONTINUOUS
 62
     3
 10
-46.44201695328618
 20
81.49153870298696
 30
0.0
 11
-24.94202522343041
 21
81.49153870298696
 31
0.0
  0
LINE
  5
3EA
  8
0
  6
CONTINUOUS
 62
     3
 10
-44.94201699798966
 20
114.4915377195103
 30
0.0
 11
-44.94201699798966
 21
106.4915455873232
 31
0.0
  0
LINE
  5
3EB
  8
0
  6
CONTINUOUS
 62
     3
 10
-44.94201699798966
 20
89.49155372335701
 30
0.0
 11
-44.94201699798966
 21
81.49153870298696
 31
0.0
  0
LINE
  5
3EC
  8
0
  6
CONTINUOUS
 62
     3
 10
-100.2691084524353
 20
28.9915384794696
 30
0.0
 11
-89.44202732449415
 21
28.9915384794696
 31
0.0
  0
LINE
  5
3ED
  8
0
  6
CONTINUOUS
 62
     3
 10
-100.4420193672743
 20
50.99153758539993
 30
0.0
 11
-89.44202732449415
 21
50.99153758539993
 31
0.0
  0
LINE
  5
3EE
  8
0
  6
CONTINUOUS
 62
     3
 10
-89.72691424614314
 20
114.9915529633978
 30
0.0
 11
-74.94202012723352
 21
114.9915529633978
 31
0.0
  0
LINE
  5
3EF
  8
0
  6
CONTINUOUS
 62
     3
 10
-103.4420307219588
 20
66.49154487206755
 30
0.0
 11
-95.44202714568021
 21
66.49154487206755
 31
0.0
  0
LINE
  5
3F0
  8
0
  6
CONTINUOUS
 62
     3
 10
-103.4420307219588
 20
13.49155408098489
 30
0.0
 11
-95.44202714568021
 21
13.49155408098489
 31
0.0
  0
LINE
  5
3F1
  8
0
  6
CONTINUOUS
 62
     3
 10
-95.44202714568021
 20
59.49154505088146
 30
0.0
 11
-41.94203233128408
 21
59.49154505088146
 31
0.0
  0
LINE
  5
3F2
  8
0
  6
CONTINUOUS
 62
     3
 10
-95.44202714568021
 20
20.49155390217095
 30
0.0
 11
-41.94202111071004
 21
20.49155390217095
 31
0.0
  0
LINE
  5
3F3
  8
0
  6
CONTINUOUS
 62
     3
 10
-95.44202714568021
 20
13.49155408098489
 30
0.0
 11
-95.44202714568021
 21
20.49155390217095
 31
0.0
  0
LINE
  5
3F4
  8
0
  6
CONTINUOUS
 62
     3
 10
-62.04202052956487
 20
10.49156945898273
 30
0.0
 11
-62.04202052956487
 21
20.49155390217095
 31
0.0
  0
LINE
  5
3F5
  8
0
  6
CONTINUOUS
 62
     3
 10
-77.94202003782655
 20
59.49154505088146
 30
0.0
 11
-77.94202003782655
 21
20.49155390217095
 31
0.0
  0
LINE
  5
3F6
  8
0
  6
CONTINUOUS
 62
     3
 10
-111.4420228541459
 20
16.99155493035105
 30
0.0
 11
-111.4420228541459
 21
9.491569458982783
 31
0.0
  0
LINE
  5
3F7
  8
0
  6
CONTINUOUS
 62
     3
 10
-107.4420267880523
 20
16.99155493035105
 30
0.0
 11
-107.4420267880523
 21
9.491569458982783
 31
0.0
  0
LINE
  5
3F8
  8
0
  6
CONTINUOUS
 62
     3
 10
-107.4420267880523
 20
11.49157035305243
 30
0.0
 11
-103.4420307219588
 21
11.49157035305243
 31
0.0
  0
LINE
  5
3F9
  8
0
  6
CONTINUOUS
 62
     3
 10
-105.4420230329598
 20
82.13464778569006
 30
0.0
 11
-105.4420230329598
 21
70.49155238225256
 31
0.0
  0
LINE
  5
3FA
  8
0
  6
CONTINUOUS
 62
     3
 10
-103.4420307219588
 20
68.49154862716006
 30
0.0
 11
-103.4420307219588
 21
62.9915411616785
 31
0.0
  0
LINE
  5
3FB
  8
0
  6
CONTINUOUS
 62
     3
 10
-111.4420228541459
 20
15.49154066994022
 30
0.0
 11
-107.4420267880523
 21
15.49154066994022
 31
0.0
  0
LINE
  5
3FC
  8
0
  6
CONTINUOUS
 62
     3
 10
-103.4420307219588
 20
11.49157035305243
 30
0.0
 11
-103.4420307219588
 21
16.99155493035105
 31
0.0
  0
LINE
  5
3FD
  8
0
  6
CONTINUOUS
 62
     3
 10
-94.44201954608823
 20
43.99156843080269
 30
0.0
 11
-89.44202732449415
 21
43.99156843080269
 31
0.0
  0
LINE
  5
3FE
  8
0
  6
CONTINUOUS
 62
     3
 10
-94.44201954608823
 20
35.99155341043266
 30
0.0
 11
-89.44202732449415
 21
35.99155341043266
 31
0.0
  0
ARC
  5
3FF
  8
0
  6
CONTINUOUS
 62
     3
 10
-103.9420345217548
 20
58.99156226172212
 30
0.0
 40
0.5
 50
90.00000250447816
 51
180.0000050089563
  0
ARC
  5
400
  8
0
  6
CONTINUOUS
 62
     3
 10
-100.9420346111617
 20
58.99156226172212
 30
0.0
 40
0.5
 50
0.0
 51
90.00000250447816
  0
ARC
  5
401
  8
0
  6
CONTINUOUS
 62
     3
 10
-103.9420345217548
 20
20.99153955235315
 30
0.0
 40
0.5
 50
179.999991348578
 51
270.0000006832453
  0
ARC
  5
402
  8
0
  6
CONTINUOUS
 62
     3
 10
-100.9420346111617
 20
20.99153955235315
 30
0.0
 40
0.5
 50
269.9999974955218
 51
0.0
  0
LINE
  5
403
  8
0
  6
CONTINUOUS
 62
     3
 10
-34.94202111071004
 20
7.741568475506179
 30
0.0
 11
-34.94202111071004
 21
2.741553365729184
 31
0.0
  0
LINE
  5
404
  8
0
  6
CONTINUOUS
 62
     3
 10
-36.44202111071004
 20
-42.50845807836227
 30
0.0
 11
-34.94202111071004
 21
-41.00845807836227
 31
0.0
  0
ARC
  5
405
  8
0
  6
CONTINUOUS
 62
     3
 10
-62.44248882763659
 20
113.5561737711652
 30
0.0
 40
1.0
 50
359.9999710095899
 51
69.28452369526056
  0
ARC
  5
406
  8
0
  6
CONTINUOUS
 62
     3
 10
-53.64652935498034
 20
116.28697058513
 30
0.0
 40
3.0
 50
152.1068511557016
 51
216.7619682541759
  0
ARC
  5
407
  8
0
  6
CONTINUOUS
 62
     3
 10
-56.44248882763659
 20
113.5561737711652
 30
0.0
 40
1.0
 50
18.19486409036881
 51
69.28452369526056
  0
LINE
  5
408
  8
0
  6
CONTINUOUS
 62
     3
 10
-55.49247662060534
 20
113.8684296305402
 30
0.0
 11
-55.49247662060534
 21
112.1822113688214
 31
0.0
  0
ARC
  5
409
  8
0
  6
CONTINUOUS
 62
     3
 10
-59.44248882763659
 20
118.691511600755
 30
0.0
 40
3.299999952316284
 50
342.3602834400861
 51
359.9999710095899
  0
LINE
  5
40A
  8
0
  6
CONTINUOUS
 62
     3
 10
-57.44248882763659
 20
113.7275910074933
 30
0.0
 11
-57.44248882763659
 21
112.2554535563214
 31
0.0
  0
ARC
  5
40B
  8
0
  6
CONTINUOUS
 62
     3
 10
-59.44248882763659
 20
114.4915070231183
 30
0.0
 40
3.0
 50
228.1896706800166
 51
269.9999701747652
  0
ARC
  5
40C
  8
0
  6
CONTINUOUS
 62
     3
 10
-59.44248882763659
 20
114.4915070231183
 30
0.0
 40
3.0
 50
269.9999906653327
 51
311.8103038204596
  0
LINE
  5
40D
  8
0
  6
CONTINUOUS
 62
     3
 10
-51.4424888276366
 20
111.4915375406964
 30
0.0
 11
-67.42848882763658
 21
111.4915375406964
 31
0.0
  0
LINE
  5
40E
  8
0
  6
CONTINUOUS
 62
     3
 10
-67.44248882763657
 20
111.4915375406964
 30
0.0
 11
-67.44248882763657
 21
120.4912857706769
 31
0.0
  0
LINE
  5
40F
  8
0
  6
CONTINUOUS
 62
     3
 10
-61.44248882763659
 20
113.7275910074933
 30
0.0
 11
-61.44248882763659
 21
112.2554535563214
 31
0.0
  0
LINE
  5
410
  8
0
  6
CONTINUOUS
 62
     3
 10
-56.04991070263659
 20
114.4915070231183
 30
0.0
 11
-62.83512798779284
 21
114.4915070231183
 31
0.0
  0
LINE
  5
411
  8
0
  6
CONTINUOUS
 62
     3
 10
-56.82945171826159
 20
117.691511600755
 30
0.0
 11
-62.12144390576159
 21
117.691511600755
 31
0.0
  0
ARC
  5
412
  8
0
  6
CONTINUOUS
 62
     3
 10
-65.2385093354491
 20
116.2870011027081
 30
0.0
 40
3.0
 50
323.2379957736454
 51
27.88981901339249
  0
ARC
  5
413
  8
0
  6
CONTINUOUS
 62
     3
 10
-59.44248882763659
 20
111.4915070231183
 30
0.0
 40
3.0
 50
48.18968934935128
 51
131.81027467847
  0
LINE
  5
414
  8
0
  6
CONTINUOUS
 62
     3
 10
-57.04252544873034
 20
120.9914993937238
 30
0.0
 11
-61.84251324169909
 21
120.9914993937238
 31
0.0
  0
ARC
  5
415
  8
0
  6
CONTINUOUS
 62
     3
 10
-59.44248882763659
 20
120.5136246378644
 30
0.0
 40
1.200000047683716
 50
23.46796137491541
 51
156.5320077755478
  0
LINE
  5
416
  8
0
  6
CONTINUOUS
 62
     3
 10
-62.74243977585447
 20
118.6915149825192
 30
0.0
 11
-61.84243996995828
 21
120.9915153779303
 31
0.0
  0
LINE
  5
417
  8
0
  6
CONTINUOUS
 62
     3
 10
-56.14250103466784
 20
118.691511600755
 30
0.0
 11
-62.74247662060534
 21
118.691511600755
 31
0.0
  0
ARC
  5
418
  8
0
  6
CONTINUOUS
 62
     3
 10
-59.44248882763659
 20
118.691511600755
 30
0.0
 40
3.299999952316284
 50
179.9999776881997
 51
197.6396788801879
  0
LINE
  5
419
  8
0
  6
CONTINUOUS
 62
     3
 10
-56.44248882763659
 20
111.491445987962
 30
0.0
 11
-62.44248882763659
 21
111.491445987962
 31
0.0
  0
ARC
  5
41A
  8
0
  6
CONTINUOUS
 62
     3
 10
-56.44248882763659
 20
113.5561737711652
 30
0.0
 40
1.0
 50
110.7154403325607
 51
179.9999776881997
  0
ARC
  5
41B
  8
0
  6
CONTINUOUS
 62
     3
 10
-56.44248882763659
 20
112.4944061930402
 30
0.0
 40
1.0
 50
179.9999776881997
 51
341.8082382956906
  0
LINE
  5
41C
  8
0
  6
CONTINUOUS
 62
     3
 10
-57.04240595339197
 20
120.9915851135084
 30
0.0
 11
-56.14240585307052
 21
118.6915848653099
 31
0.0
  0
ARC
  5
41D
  8
0
  6
CONTINUOUS
 62
     3
 10
-62.44248882763659
 20
112.4944061930402
 30
0.0
 40
1.0
 50
198.1988974307592
 51
359.9999710095899
  0
ARC
  5
41E
  8
0
  6
CONTINUOUS
 62
     3
 10
-62.44248882763659
 20
113.5561737711652
 30
0.0
 40
1.0
 50
110.7154403325607
 51
161.805091399716
  0
LINE
  5
41F
  8
0
  6
CONTINUOUS
 62
     3
 10
-63.39250103466784
 20
113.8684296305402
 30
0.0
 11
-63.39250103466784
 21
112.1821808512433
 31
0.0
  0
LINE
  5
420
  8
0
  6
CONTINUOUS
 62
     3
 10
-74.94202012723352
 20
120.4915375406964
 30
0.0
 11
-62.03808339565538
 21
120.4915375406964
 31
0.0
  0
LINE
  5
421
  8
0
  6
CONTINUOUS
 62
     3
 10
-56.84673516333496
 20
120.4915375406964
 30
0.0
 11
-33.94197834845888
 21
120.4915375406964
 31
0.0
  0
LINE
  5
422
  8
0
  6
CONTINUOUS
 62
     3
 10
-44.94202111071004
 20
54.99153993978339
 30
0.0
 11
-35.44202111071004
 21
54.99153993978339
 31
0.0
  0
LINE
  5
423
  8
0
  6
CONTINUOUS
 62
     3
 10
-35.44202111071004
 20
54.99153993978339
 30
0.0
 11
-34.94202111071004
 21
55.49153993978339
 31
0.0
  0
LINE
  5
424
  8
0
  6
CONTINUOUS
 62
     3
 10
-44.94202111071004
 20
24.99153612508613
 30
0.0
 11
-35.44202111071004
 21
24.99153612508613
 31
0.0
  0
LINE
  5
425
  8
0
  6
CONTINUOUS
 62
     3
 10
-35.44202111071004
 20
24.99153612508613
 30
0.0
 11
-34.94202111071004
 21
24.49153612508613
 31
0.0
  0
LINE
  5
426
  8
0
  6
CONTINUOUS
 62
     3
 10
-34.94202111071004
 20
75.49153888180089
 30
0.0
 11
-34.94202111071004
 21
4.523094265258012
 31
0.0
  0
LINE
  5
427
  8
0
  6
CONTINUOUS
 62
     3
 10
-36.4420174450245
 20
121.0224060551488
 30
0.0
 11
-35.91114893057217
 21
120.4915375406964
 31
0.0
  0
LINE
  5
428
  8
0
  6
CONTINUOUS
 62
     3
 10
-62.04202052956487
 20
10.49156945898273
 30
0.0
 11
-63.04202052956475
 21
9.491569458982783
 31
0.0
  0
LINE
  5
429
  8
0
  6
CONTINUOUS
 62
     3
 10
-78.44202383762254
 20
70.49155238225256
 30
0.0
 11
-72.94202383762254
 21
70.49155238225256
 31
0.0
  0
LINE
  5
42A
  8
0
  6
CONTINUOUS
 62
     3
 10
-62.04202052956487
 20
62.99153803243476
 30
0.0
 11
-62.04202052956487
 21
59.49154505088146
 31
0.0
  0
LINE
  5
42B
  8
0
  6
CONTINUOUS
 62
     3
 10
-24.94202522343041
 20
91.9915383900626
 30
0.0
 11
-24.94202522343041
 21
78.99155403628137
 31
0.0
  0
LINE
  5
42C
  8
0
  6
CONTINUOUS
 62
     3
 10
-16.94202736919751
 20
91.9915383900626
 30
0.0
 11
-16.94202736919751
 21
78.99155403628137
 31
0.0
  0
LINE
  5
42D
  8
0
  6
CONTINUOUS
 62
     3
 10
-24.94202522343041
 20
78.99155403628137
 30
0.0
 11
-16.94202736919751
 21
78.99155403628137
 31
0.0
  0
LINE
  5
42E
  8
0
  6
CONTINUOUS
 62
     3
 10
-24.94202522343041
 20
116.9915452743988
 30
0.0
 11
-24.94202522343041
 21
103.9915380324347
 31
0.0
  0
LINE
  5
42F
  8
0
  6
CONTINUOUS
 62
     3
 10
-16.94202736919751
 20
116.9915452743988
 30
0.0
 11
-16.94202736919751
 21
103.9915380324347
 31
0.0
  0
LINE
  5
430
  8
0
  6
CONTINUOUS
 62
     3
 10
-24.94202522343041
 20
103.9915380324347
 30
0.0
 11
-16.94202736919751
 21
103.9915380324347
 31
0.0
  0
LINE
  5
431
  8
0
  6
CONTINUOUS
 62
     3
 10
-24.94202522343041
 20
116.9915452743988
 30
0.0
 11
-16.94202736919751
 21
116.9915452743988
 31
0.0
  0
LINE
  5
432
  8
0
  6
CONTINUOUS
 62
     3
 10
-24.94202522343041
 20
91.9915383900626
 30
0.0
 11
-16.94202736919751
 21
91.9915383900626
 31
0.0
  0
LINE
  5
433
  8
0
  6
CONTINUOUS
 62
     3
 10
-116.9420241624679
 20
-3.243456474401169
 30
0.0
 11
-116.9420241624679
 21
-21.54345647440117
 31
0.0
  0
LINE
  5
434
  8
0
  6
CONTINUOUS
 62
     3
 10
67.91649301763078
 20
-4.021356345321058
 30
0.0
 11
62.41650844033216
 21
5.504896212426006
 31
0.0
  0
LINE
  5
435
  8
0
  6
CONTINUOUS
 62
     3
 10
60.68445441184502
 20
4.504894334879753
 30
0.0
 11
66.34471298221428
 21
7.772846202819226
 31
0.0
  0
LINE
  5
436
  8
0
  6
CONTINUOUS
 62
     3
 10
103.4235361809364
 20
16.47864495107991
 30
0.0
 11
97.9235516036378
 21
26.004897508827
 31
0.0
  0
LINE
  5
437
  8
0
  6
CONTINUOUS
 62
     3
 10
66.37363756895644
 20
-4.912124369921562
 30
0.0
 11
71.8446975595129
 21
-1.753406354927838
 31
0.0
  0
LINE
  5
438
  8
0
  6
CONTINUOUS
 62
     3
 10
72.34471630459922
 20
11.23694979831136
 30
0.0
 11
87.99534373937075
 21
20.27284392294163
 31
0.0
  0
LINE
  5
439
  8
0
  6
CONTINUOUS
 62
     3
 10
77.84470088189784
 20
1.710697240564302
 30
0.0
 11
93.49532831666937
 21
10.74659136519457
 31
0.0
  0
LINE
  5
43A
  8
0
  6
CONTINUOUS
 62
     3
 10
99.49533163905443
 20
14.2106949606867
 30
0.0
 11
105.1555802985499
 21
17.47864110658045
 31
0.0
  0
LINE
  5
43B
  8
0
  6
CONTINUOUS
 62
     3
 10
93.99534706175581
 20
23.73694751843377
 30
0.0
 11
99.65559572125125
 21
27.00489366432753
 31
0.0
  0
LINE
  5
43C
  8
0
  6
CONTINUOUS
 62
     3
 10
168.3754437184593
 20
26.00489829178518
 30
0.0
 11
162.8754476970691
 21
16.47862591229061
 31
0.0
  0
LINE
  5
43D
  8
0
  6
CONTINUOUS
 62
     3
 10
203.8824769708912
 20
5.504902717429923
 30
0.0
 11
198.3824809495011
 21
-4.021369662064634
 31
0.0
  0
LINE
  5
43E
  8
0
  6
CONTINUOUS
 62
     3
 10
205.4253225086917
 20
4.614140414875147
 30
0.0
 11
199.9542426963879
 21
7.772869873960326
 31
0.0
  0
LINE
  5
43F
  8
0
  6
CONTINUOUS
 62
     3
 10
200.114505245367
 20
-5.021354373473704
 30
0.0
 11
194.4542466749978
 21
-1.753402505534231
 31
0.0
  0
LINE
  5
440
  8
0
  6
CONTINUOUS
 62
     3
 10
188.4542433526128
 20
1.71070108995791
 30
0.0
 11
172.8036456504624
 21
10.74657804845099
 31
0.0
  0
LINE
  5
441
  8
0
  6
CONTINUOUS
 62
     3
 10
193.954239374003
 20
11.23697346945246
 30
0.0
 11
178.3036416718525
 21
20.27285042794554
 31
0.0
  0
LINE
  5
442
  8
0
  6
CONTINUOUS
 62
     3
 10
172.3036383494675
 20
23.73695402343769
 30
0.0
 11
166.6433996008458
 21
27.00489444728571
 31
0.0
  0
LINE
  5
443
  8
0
  6
CONTINUOUS
 62
     3
 10
166.8036423280775
 20
14.21068164394313
 30
0.0
 11
161.1434035794558
 21
17.47862206779114
 31
0.0
  0
LINE
  5
444
  8
0
  6
CONTINUOUS
 62
     3
 10
138.6494854300213
 20
82.02765554686496
 30
0.0
 11
138.6494854300213
 21
75.49177469916893
 31
0.0
  0
LINE
  5
445
  8
0
  6
CONTINUOUS
 62
     3
 10
127.6494933872412
 20
82.02765554686496
 30
0.0
 11
127.6494933872412
 21
75.49177469916893
 31
0.0
  0
LINE
  5
446
  8
0
  6
CONTINUOUS
 62
     3
 10
127.6494933872412
 20
107.0276624312012
 30
0.0
 11
127.6494933872412
 21
88.95586273784926
 31
0.0
  0
LINE
  5
447
  8
0
  6
CONTINUOUS
 62
     3
 10
138.6494854300213
 20
107.0276624312012
 30
0.0
 11
138.6494854300213
 21
88.95586273784926
 31
0.0
  0
LINE
  5
448
  8
0
  6
CONTINUOUS
 62
     3
 10
138.6494854300213
 20
120.4917733580644
 30
0.0
 11
138.6494854300213
 21
113.9558696221855
 31
0.0
  0
LINE
  5
449
  8
0
  6
CONTINUOUS
 62
     3
 10
127.6494933872412
 20
120.4917504698815
 30
0.0
 11
127.6494933872412
 21
113.9558696221855
 31
0.0
  0
LINE
  5
44A
  8
0
  6
CONTINUOUS
 62
     3
 10
127.6494933872412
 20
77.49176701016998
 30
0.0
 11
138.6494854300213
 21
77.49176701016998
 31
0.0
  0
LINE
  5
44B
  8
0
  6
CONTINUOUS
 62
     3
 10
118.6927131636271
 20
43.99178135998781
 30
0.0
 11
122.9026226463719
 21
43.99178135998781
 31
0.0
  0
LINE
  5
44C
  8
0
  6
CONTINUOUS
 62
     3
 10
118.692607165761
 20
35.99176633961778
 30
0.0
 11
122.9026640274857
 21
35.99176633961778
 31
0.0
  0
LINE
  5
44D
  8
0
  6
CONTINUOUS
 62
     3
 10
143.3965596957305
 20
43.99178135998781
 30
0.0
 11
147.6062675967035
 21
43.99178135998781
 31
0.0
  0
LINE
  5
44E
  8
0
  6
CONTINUOUS
 62
     3
 10
147.6063294929205
 20
35.99176633961778
 30
0.0
 11
143.3965183146167
 21
35.99176633961778
 31
0.0
  0
ARC
  5
44F
  8
0
  6
CONTINUOUS
 62
     3
 10
133.1494894086313
 20
39.99175096161989
 30
0.0
 40
82.49999754130847
 50
0.0
 51
90.00000250447816
  0
LINE
  5
450
  8
0
  6
CONTINUOUS
 62
     3
 10
131.1494987480364
 20
6.646373748766594
 30
0.0
 11
131.1494987300882
 21
4.336979012253325
 31
0.0
  0
LINE
  5
451
  8
0
  6
CONTINUOUS
 62
     3
 10
131.1494845908374
 20
4.336952718944859
 30
0.0
 11
133.149479108998
 21
3.182255366231802
 31
0.0
  0
LINE
  5
452
  8
0
  6
CONTINUOUS
 62
     3
 10
135.149483316194
 20
6.646373717679468
 30
0.0
 11
135.1494832982459
 21
4.336978981166185
 31
0.0
  0
LINE
  5
453
  8
0
  6
CONTINUOUS
 62
     3
 10
133.1494844809819
 20
3.182259937945135
 30
0.0
 11
135.1494988388386
 21
4.336968765836817
 31
0.0
  0
LINE
  5
454
  8
0
  6
CONTINUOUS
 62
     3
 10
133.149476847994
 20
7.801040985258654
 30
0.0
 11
135.1494713661547
 21
6.646343632545582
 31
0.0
  0
LINE
  5
455
  8
0
  6
CONTINUOUS
 62
     3
 10
131.1494807258894
 20
6.646368057093911
 30
0.0
 11
133.1494950837461
 21
7.801076884985592
 31
0.0
  0
LINE
  5
456
  8
0
  6
CONTINUOUS
 62
     3
 10
61.8046920023774
 20
1.563630238771383
 30
0.0
 11
64.20468589886178
 21
-2.59328112779478
 31
0.0
  0
ARC
  5
457
  8
0
  6
CONTINUOUS
 62
     3
 10
63.41852537023203
 20
-0.2758616375840983
 30
0.0
 40
1.200000047683716
 50
143.4679613749154
 51
276.5320077755478
  0
LINE
  5
458
  8
0
  6
CONTINUOUS
 62
     3
 10
66.85879748197735
 20
-2.190428910651219
 30
0.0
 11
64.20463542026243
 21
-2.59322566470915
 31
0.0
  0
LINE
  5
459
  8
0
  6
CONTINUOUS
 62
     3
 10
61.80455801919708
 20
1.563690864877673
 30
0.0
 11
63.48051782917684
 21
3.660923090175389
 31
0.0
  0
LINE
  5
45A
  8
0
  6
CONTINUOUS
 62
     3
 10
202.1012509878753
 20
-2.580554755535173
 30
0.0
 11
204.5012448843597
 21
1.57635661103099
 31
0.0
  0
ARC
  5
45B
  8
0
  6
CONTINUOUS
 62
     3
 10
202.887380998927
 20
-0.263188123320317
 30
0.0
 40
1.200000047683715
 50
263.4679613749154
 51
36.53200777554777
  0
LINE
  5
45C
  8
0
  6
CONTINUOUS
 62
     3
 10
202.1012654757174
 20
-2.580701101426156
 30
0.0
 11
199.4470291859843
 21
-2.177893442910785
 31
0.0
  0
LINE
  5
45D
  8
0
  6
CONTINUOUS
 62
     3
 10
202.8253088387847
 20
3.673458557915824
 30
0.0
 11
204.5012220912183
 21
1.576285163738776
 31
0.0
  0
LINE
  5
45E
  8
0
  6
CONTINUOUS
 62
     3
 10
127.6494933872412
 20
118.4917581588805
 30
0.0
 11
138.6494854300213
 21
118.4917581588805
 31
0.0
  0
LINE
  5
45F
  8
0
  6
CONTINUOUS
 62
     3
 10
135.5422817560167
 20
120.9917980426936
 30
0.0
 11
136.52055823577
 21
118.4917581588805
 31
0.0
  0
LINE
  5
460
  8
0
  6
CONTINUOUS
 62
     3
 10
129.763998930169
 20
118.4917581588805
 30
0.0
 11
130.7422477394504
 21
120.9917283071155
 31
0.0
  0
LINE
  5
461
  8
0
  6
CONTINUOUS
 62
     3
 10
165.0270161266975
 20
56.08683958803451
 30
0.0
 11
165.0270161087493
 21
58.39623432454775
 31
0.0
  0
LINE
  5
462
  8
0
  6
CONTINUOUS
 62
     3
 10
163.0269917682384
 20
54.93214133361758
 30
0.0
 11
165.026986286399
 21
56.08683868633059
 31
0.0
  0
LINE
  5
463
  8
0
  6
CONTINUOUS
 62
     3
 10
163.027005708445
 20
54.93212857181683
 30
0.0
 11
161.0269913505883
 21
56.08683739970851
 31
0.0
  0
LINE
  5
464
  8
0
  6
CONTINUOUS
 62
     3
 10
161.0270315585398
 20
56.08683955694738
 30
0.0
 11
161.0270315405917
 21
58.39623429346074
 31
0.0
  0
LINE
  5
465
  8
0
  6
CONTINUOUS
 62
     3
 10
161.0269995110818
 20
58.39622959993136
 30
0.0
 11
163.0269940292424
 21
59.55092695264452
 31
0.0
  0
LINE
  5
466
  8
0
  6
CONTINUOUS
 62
     3
 10
165.0270094635375
 20
58.39623669096559
 30
0.0
 11
163.0269951056808
 21
59.55094551885728
 31
0.0
  0
LINE
  5
467
  8
0
  6
CONTINUOUS
 62
     3
 10
103.2715336871651
 20
59.55069908105298
 30
0.0
 11
101.2715391869526
 21
58.39600169725281
 31
0.0
  0
LINE
  5
468
  8
0
  6
CONTINUOUS
 62
     3
 10
105.2715438884252
 20
58.39597630564816
 30
0.0
 11
103.2715493882128
 21
59.55067368944842
 31
0.0
  0
LINE
  5
469
  8
0
  6
CONTINUOUS
 62
     3
 10
105.2715479703656
 20
58.39599475912161
 30
0.0
 11
105.2715479703656
 21
56.08657710333824
 31
0.0
  0
LINE
  5
46A
  8
0
  6
CONTINUOUS
 62
     3
 10
105.2715259981661
 20
56.08661084582633
 30
0.0
 11
103.2715314979536
 21
54.93191346202605
 31
0.0
  0
LINE
  5
46B
  8
0
  6
CONTINUOUS
 62
     3
 10
103.2715515774242
 20
54.93188807042151
 30
0.0
 11
101.2715570772116
 21
56.08658545422165
 31
0.0
  0
LINE
  5
46C
  8
0
  6
CONTINUOUS
 62
     3
 10
101.2715404601806
 20
58.39599475912161
 30
0.0
 11
101.2715404601806
 21
56.08657710333827
 31
0.0
  0
LINE
  5
46D
  8
0
  6
CONTINUOUS
 62
     3
 10
135.5421622606783
 20
120.9917123229089
 30
0.0
 11
130.7421744677096
 21
120.9917123229089
 31
0.0
  0
ARC
  5
46E
  8
0
  6
CONTINUOUS
 62
     3
 10
133.1421988817721
 20
120.5138375670495
 30
0.0
 40
1.200000047683716
 50
23.46796137491541
 51
156.5320077755478
  0
LINE
  5
46F
  8
0
  6
CONTINUOUS
 62
     3
 10
-41.94203233128408
 20
71.19155238225257
 30
0.0
 11
-39.94202857619157
 21
71.19155238225257
 31
0.0
  0
LINE
  5
470
  8
0
  6
CONTINUOUS
 62
     3
 10
-39.94203136392334
 20
71.19155784614857
 30
0.0
 11
-34.94202111071004
 21
68.30480052869281
 31
0.0
  0
LINE
  5
471
  8
0
  6
CONTINUOUS
 62
     3
 10
-51.4424888276366
 20
111.4915375406964
 30
0.0
 11
-51.4424888276366
 21
120.4912857706769
 31
0.0
  0
LINE
  5
472
  8
0
  6
CONTINUOUS
 62
     3
 10
-67.94202111071004
 20
55.49153993978339
 30
0.0
 11
-54.74099115300353
 21
55.49153993978339
 31
0.0
  0
LINE
  5
473
  8
0
  6
CONTINUOUS
 62
     3
 10
-54.74099115300353
 20
55.49153993978339
 30
0.0
 11
-44.94202111071004
 21
55.49153993978339
 31
0.0
  0
LINE
  5
474
  8
0
  6
CONTINUOUS
 62
     3
 10
-67.94202111071004
 20
24.49153612508613
 30
0.0
 11
-52.90388024098954
 21
24.49153612508613
 31
0.0
  0
LINE
  5
475
  8
0
  6
CONTINUOUS
 62
     3
 10
-52.90388024098954
 20
24.49153612508613
 30
0.0
 11
-44.94202111071004
 21
24.49153612508613
 31
0.0
  0
LINE
  5
476
  8
0
  6
CONTINUOUS
 62
     3
 10
-62.94202111071004
 20
24.49153803243476
 30
0.0
 11
-60.38593195537297
 21
24.49153803243476
 31
0.0
  0
LINE
  5
477
  8
0
  6
CONTINUOUS
 62
     3
 10
-52.90388024098954
 20
24.49153803243476
 30
0.0
 11
-44.94202111071004
 21
24.49153803243476
 31
0.0
  0
LINE
  5
478
  8
0
  6
CONTINUOUS
 62
     3
 10
119.1494894086313
 20
120.4917504698815
 30
0.0
 11
130.5466043137533
 21
120.4917504698815
 31
0.0
  0
LINE
  5
479
  8
0
  6
CONTINUOUS
 62
     3
 10
135.7379525460737
 20
120.4917504698815
 30
0.0
 11
147.1494894086313
 21
120.4917504698815
 31
0.0
  0
LINE
  5
47A
  8
0
  6
CONTINUOUS
 62
     3
 10
115.6494974999616
 20
120.6143276849695
 30
0.0
 11
115.6494974999616
 21
71.19176531143769
 31
0.0
  0
LINE
  5
47B
  8
0
  6
CONTINUOUS
 62
     3
 10
115.6494974999616
 20
75.49175181098602
 30
0.0
 11
127.6494933872412
 21
75.49175181098602
 31
0.0
  0
LINE
  5
47C
  8
0
  6
CONTINUOUS
 62
     3
 10
138.6494854300214
 20
75.49175181098602
 30
0.0
 11
150.6494927613925
 21
75.49175181098602
 31
0.0
  0
LINE
  5
47D
  8
0
  6
CONTINUOUS
 62
     3
 10
150.6494927613925
 20
120.6143252009063
 30
0.0
 11
150.6494927613925
 21
71.19176531143769
 31
0.0
  0
LINE
  5
47E
  8
0
  6
CONTINUOUS
 62
     3
 10
115.1494974999616
 20
71.19176531143769
 30
0.0
 11
151.149481317301
 21
71.19176531143769
 31
0.0
  0
ARC
  5
47F
  8
0
  6
CONTINUOUS
 62
     3
 10
133.1494894086313
 20
78.74175934352277
 30
0.0
 40
8.749999977648258
 50
300.3611646630463
 51
338.1962517823986
  0
ARC
  5
480
  8
0
  6
CONTINUOUS
 62
     3
 10
133.1494894086313
 20
78.74175934352277
 30
0.0
 40
8.749999977648258
 50
201.8037483312869
 51
239.6388353369536
  0
LINE
  5
481
  8
0
  6
CONTINUOUS
 62
     3
 10
72.07725703645394
 20
-15.47430368207097
 30
0.0
 11
114.8783201235173
 21
9.236901612847216
 31
0.0
  0
LINE
  5
482
  8
0
  6
CONTINUOUS
 62
     3
 10
70.43341606431045
 20
-12.38193316857902
 30
0.0
 11
64.73485861174944
 21
-2.511742130893126
 31
0.0
  0
LINE
  5
483
  8
0
  6
CONTINUOUS
 62
     3
 10
62.13918449558923
 20
1.984097318187821
 30
0.0
 11
56.43341606431045
 21
11.86677813738525
 31
0.0
  0
LINE
  5
484
  8
0
  6
CONTINUOUS
 62
     3
 10
54.57726155700038
 20
14.83658258869474
 30
0.0
 11
97.3783224928019
 21
39.54778664158133
 31
0.0
  0
LINE
  5
485
  8
0
  6
CONTINUOUS
 62
     3
 10
99.65456006248459
 20
27.005558089088
 30
0.0
 11
93.65455639679905
 21
37.39786928365487
 31
0.0
  0
LINE
  5
486
  8
0
  6
CONTINUOUS
 62
     3
 10
111.1545540275145
 20
7.086984254920765
 30
0.0
 11
105.1545560838747
 21
17.47928553861371
 31
0.0
  0
LINE
  5
487
  8
0
  6
CONTINUOUS
 62
     3
 10
211.7195891983206
 20
14.83534486024737
 30
0.0
 11
168.9182434763923
 21
39.54671333448099
 31
0.0
  0
LINE
  5
488
  8
0
  6
CONTINUOUS
 62
     3
 10
209.8634382617944
 20
11.86555156184343
 30
0.0
 11
204.1648808092335
 21
1.995360524157512
 31
0.0
  0
LINE
  5
489
  8
0
  6
CONTINUOUS
 62
     3
 10
201.5692066930732
 20
-2.500478924923421
 30
0.0
 11
195.8634382617944
 21
-12.38315974412085
 31
0.0
  0
LINE
  5
48A
  8
0
  6
CONTINUOUS
 62
     3
 10
194.2195894163434
 20
-15.4755389264551
 30
0.0
 11
151.4182458456768
 21
9.235828305746889
 31
0.0
  0
LINE
  5
48B
  8
0
  6
CONTINUOUS
 62
     3
 10
161.1422982422302
 20
17.4780589630719
 30
0.0
 11
155.1422945765447
 21
7.085747768505051
 31
0.0
  0
LINE
  5
48C
  8
0
  6
CONTINUOUS
 62
     3
 10
172.6422922072601
 20
37.39663279723914
 30
0.0
 11
166.6422942636203
 21
27.00433151354619
 31
0.0
  0
LINE
  5
48D
  8
0
  6
CONTINUOUS
 62
     3
 10
115.1281755164527
 20
8.804139377738068
 30
0.0
 11
97.128183607783
 21
39.98103989938267
 31
0.0
  0
ARC
  5
48E
  8
0
  6
CONTINUOUS
 62
     3
 10
99.58969293191126
 20
20.61759262251783
 30
0.0
 40
8.749999977648256
 50
321.8037483312868
 51
359.6388353369537
  0
ARC
  5
48F
  8
0
  6
CONTINUOUS
 62
     3
 10
99.58969293191126
 20
20.61759262251783
 30
0.0
 40
8.749999977648256
 50
60.36116466304617
 51
98.19625178239863
  0
LINE
  5
490
  8
0
  6
CONTINUOUS
 62
     3
 10
169.1681054485919
 20
39.97948696521009
 30
0.0
 11
151.1681135399222
 21
8.802586443565502
 31
0.0
  0
ARC
  5
491
  8
0
  6
CONTINUOUS
 62
     3
 10
166.7065961244636
 20
20.61603968834524
 30
0.0
 40
8.749999977648255
 50
81.8037483312869
 51
119.6388353369536
  0
ARC
  5
492
  8
0
  6
CONTINUOUS
 62
     3
 10
166.7065961244636
 20
20.61603968834524
 30
0.0
 40
8.749999977648255
 50
180.3611646630461
 51
218.1962517823986
  0
LINE
  5
493
  8
0
  6
CONTINUOUS
 62
     3
 10
-42.74203233128407
 20
63.79154487206755
 30
0.0
 11
-42.74203233128407
 21
65.29154487206755
 31
0.0
  0
LINE
  5
494
  8
0
  6
CONTINUOUS
 62
     3
 10
-42.74203233128407
 20
67.79154487206755
 30
0.0
 11
-42.74203233128407
 21
75.49153888180089
 31
0.0
  0
LINE
  5
495
  8
0
  6
CONTINUOUS
 62
     4
 10
144.999722749872
 20
-134.0
 30
0.0
 11
144.999722749872
 21
-142.0
 31
0.0
  0
LINE
  5
496
  8
0
  6
CONTINUOUS
 62
     4
 10
193.999722749872
 20
-134.0
 30
0.0
 11
193.999722749872
 21
-143.0
 31
0.0
  0
LINE
  5
497
  8
0
  6
CONTINUOUS
 62
     4
 10
217.999722749872
 20
-134.0
 30
0.0
 11
217.999722749872
 21
-143.0
 31
0.0
  0
LINE
  5
498
  8
0
  6
CONTINUOUS
 62
     4
 10
234.999722749872
 20
-134.0
 30
0.0
 11
234.999722749872
 21
-143.0
 31
0.0
  0
LINE
  5
499
  8
0
  6
CONTINUOUS
 62
     4
 10
88.99972274987203
 20
-176.0
 30
0.0
 11
137.999722749872
 21
-176.0
 31
0.0
  0
LINE
  5
49A
  8
0
  6
CONTINUOUS
 62
     4
 10
137.999722749872
 20
-141.0
 30
0.0
 11
88.99972274987203
 21
-141.0
 31
0.0
  0
LINE
  5
49B
  8
0
  6
CONTINUOUS
 62
     4
 10
137.999722749872
 20
-148.0
 30
0.0
 11
88.99972274987203
 21
-148.0
 31
0.0
  0
LINE
  5
49C
  8
0
  6
CONTINUOUS
 62
     4
 10
137.999722749872
 20
-155.0
 30
0.0
 11
88.99972274987203
 21
-155.0
 31
0.0
  0
LINE
  5
49D
  8
0
  6
CONTINUOUS
 62
     4
 10
137.999722749872
 20
-162.0
 30
0.0
 11
88.99972274987203
 21
-162.0
 31
0.0
  0
LINE
  5
49E
  8
0
  6
CONTINUOUS
 62
     4
 10
137.999722749872
 20
-169.0
 30
0.0
 11
88.99972274987203
 21
-169.0
 31
0.0
  0
LINE
  5
49F
  8
0
  6
CONTINUOUS
 62
     4
 10
113.499722749872
 20
-134.0
 30
0.0
 11
113.499722749872
 21
-180.0
 31
0.0
  0
LINE
  5
4A0
  8
0
  6
CONTINUOUS
 62
     4
 10
100.999722749872
 20
-134.0
 30
0.0
 11
100.999722749872
 21
-176.0
 31
0.0
  0
LINE
  5
4A1
  8
0
  6
CONTINUOUS
 62
     4
 10
96.99972274987203
 20
-134.0
 30
0.0
 11
96.99972274987203
 21
-176.0
 31
0.0
  0
LINE
  5
4A2
  8
0
  6
CONTINUOUS
 62
     4
 10
206.3330662557314
 20
-171.4237518310547
 30
0.0
 11
206.3330662557314
 21
-166.0
 31
0.0
  0
LINE
  5
4A3
  8
0
  6
CONTINUOUS
 62
     4
 10
192.6663792440127
 20
-180.0
 30
0.0
 11
192.6663792440127
 21
-166.0
 31
0.0
  0
LINE
  5
4A4
  8
0
  6
CONTINUOUS
 62
     4
 10
165.3330662557314
 20
-180.0
 30
0.0
 11
165.3330662557314
 21
-166.0
 31
0.0
  0
LINE
  5
4A5
  8
0
  6
CONTINUOUS
 62
     4
 10
137.999722749872
 20
-170.0
 30
0.0
 11
219.999722749872
 21
-170.0
 31
0.0
  0
LINE
  5
4A6
  8
0
  6
CONTINUOUS
 62
     4
 10
219.999722749872
 20
-159.0
 30
0.0
 11
246.999722749872
 21
-159.0
 31
0.0
  0
LINE
  5
4A7
  8
0
  6
CONTINUOUS
 62
     4
 10
193.999722749872
 20
-151.0
 30
0.0
 11
193.999722749872
 21
-152.0
 31
0.0
  0
LINE
  5
4A8
  8
0
  6
CONTINUOUS
 62
     4
 10
217.999722749872
 20
-151.0
 30
0.0
 11
217.999722749872
 21
-152.0
 31
0.0
  0
LINE
  5
4A9
  8
0
  6
CONTINUOUS
 62
     4
 10
234.999722749872
 20
-151.0
 30
0.0
 11
234.999722749872
 21
-152.0
 31
0.0
  0
LINE
  5
4AA
  8
0
  6
CONTINUOUS
 62
     4
 10
246.999722749872
 20
-170.0
 30
0.0
 11
268.999707491083
 21
-170.0
 31
0.0
  0
LINE
  5
4AB
  8
0
  6
CONTINUOUS
 62
     4
 10
89.99970240363791
 20
-140.5000009669629
 30
0.0
 11
92.99971019531722
 21
-134.4999853836043
 31
0.0
  0
LINE
  5
4AC
  8
0
  6
CONTINUOUS
 62
     4
 10
92.99972213720844
 20
-134.4999964725033
 30
0.0
 11
95.99971628101207
 21
-140.4999847601106
 31
0.0
  0
LINE
  5
4AD
  8
0
  6
CONTINUOUS
 62
     4
 10
89.99972274987203
 20
-140.5
 30
0.0
 11
95.99972274987203
 21
-140.5
 31
0.0
  0
LINE
  5
4AE
  8
0
  6
CONTINUOUS
 62
     4
 10
89.99970240363791
 20
-147.4999964010885
 30
0.0
 11
92.99971019531722
 21
-141.4999808177299
 31
0.0
  0
LINE
  5
4AF
  8
0
  6
CONTINUOUS
 62
     4
 10
92.99972213720844
 20
-141.4999919066289
 30
0.0
 11
95.99972310494991
 21
-147.4999938421118
 31
0.0
  0
LINE
  5
4B0
  8
0
  6
CONTINUOUS
 62
     4
 10
89.99972274987203
 20
-147.5
 30
0.0
 11
95.99972274987203
 21
-147.5
 31
0.0
  0
LINE
  5
4B1
  8
0
  6
CONTINUOUS
 62
     4
 10
89.99970240363791
 20
-154.4999918352141
 30
0.0
 11
92.99969654744154
 21
-148.5000035476069
 31
0.0
  0
LINE
  5
4B2
  8
0
  6
CONTINUOUS
 62
     4
 10
92.99969484145709
 20
-148.5000009886302
 30
0.0
 11
95.9997026331364
 21
-154.5000165719888
 31
0.0
  0
LINE
  5
4B3
  8
0
  6
CONTINUOUS
 62
     4
 10
89.99972274987203
 20
-154.5
 30
0.0
 11
95.99972274987203
 21
-154.5
 31
0.0
  0
LINE
  5
4B4
  8
0
  6
CONTINUOUS
 62
     4
 10
89.99971605151359
 20
-161.5000282129668
 30
0.0
 11
92.9997238431929
 21
-155.5000126296081
 31
0.0
  0
LINE
  5
4B5
  8
0
  6
CONTINUOUS
 62
     4
 10
92.99970251838715
 20
-155.5000096441353
 30
0.0
 11
95.99971031006646
 21
-161.5000252274939
 31
0.0
  0
LINE
  5
4B6
  8
0
  6
CONTINUOUS
 62
     4
 10
89.99972274987203
 20
-161.5
 30
0.0
 11
95.99972274987203
 21
-161.5
 31
0.0
  0
LINE
  5
4B7
  8
0
  6
CONTINUOUS
 62
     4
 10
89.99972969938926
 20
-168.499996351341
 30
0.0
 11
92.9997238431929
 21
-162.5000080637337
 31
0.0
  0
LINE
  5
4B8
  8
0
  6
CONTINUOUS
 62
     4
 10
92.99973663807634
 20
-162.5000050782609
 30
0.0
 11
95.99973760581781
 21
-168.5000070137439
 31
0.0
  0
LINE
  5
4B9
  8
0
  6
CONTINUOUS
 62
     4
 10
89.99972274987203
 20
-168.5
 30
0.0
 11
95.99972274987203
 21
-168.5
 31
0.0
  0
LINE
  5
4BA
  8
0
  6
CONTINUOUS
 62
     4
 10
-115.4420303643309
 20
67.64155017837089
 30
0.0
 11
-103.4420307219588
 21
67.64155017837089
 31
0.0
  0
LINE
  5
4BB
  8
0
  6
CONTINUOUS
 62
     4
 10
-120.442022585925
 20
58.99156226172212
 30
0.0
 11
-104.4420268774593
 21
58.99156226172212
 31
0.0
  0
LINE
  5
4BC
  8
0
  6
CONTINUOUS
 62
     4
 10
-120.442022585925
 20
20.99153955235315
 30
0.0
 11
-104.4420268774593
 21
20.99153955235315
 31
0.0
  0
LINE
  5
4BD
  8
0
  6
CONTINUOUS
 62
     4
 10
-115.4420303643309
 20
12.34154591365868
 30
0.0
 11
-111.4420228541459
 21
12.34154591365868
 31
0.0
  0
LINE
  5
4BE
  8
0
  6
CONTINUOUS
 62
     4
 10
-33.94202864407102
 20
75.4915470256845
 30
0.0
 11
-32.94202148309105
 21
76.06890143963034
 31
0.0
  0
LINE
  5
4BF
  8
0
  6
CONTINUOUS
 62
     4
 10
-33.94203047691374
 20
76.99155011517425
 30
0.0
 11
-33.07599821968759
 21
77.49155408098486
 31
0.0
  0
LINE
  5
4C0
  8
0
  6
CONTINUOUS
 62
     4
 10
-33.94203234245517
 20
76.9915475401047
 30
0.0
 11
-32.94202518147519
 21
76.41419312615886
 31
0.0
  0
LINE
  5
4C1
  8
0
  6
CONTINUOUS
 62
     4
 10
-32.94201735561753
 20
76.41420731133448
 30
0.0
 11
-32.94201735561753
 21
76.06889329574673
 31
0.0
  0
LINE
  5
4C2
  8
0
  6
CONTINUOUS
 62
     4
 10
-32.94201735561753
 20
119.5688919993457
 30
0.0
 11
-32.94201735561753
 21
119.9142060149335
 31
0.0
  0
LINE
  5
4C3
  8
0
  6
CONTINUOUS
 62
     4
 10
-33.94203849786404
 20
118.9915559033857
 30
0.0
 11
-32.94203133688406
 21
119.5689103173316
 31
0.0
  0
LINE
  5
4C4
  8
0
  6
CONTINUOUS
 62
     4
 10
-33.9420239382006
 20
118.9915597142645
 30
0.0
 11
-33.07597346195054
 21
118.4915452296954
 31
0.0
  0
LINE
  5
4C5
  8
0
  6
CONTINUOUS
 62
     4
 10
-33.94202210535777
 20
120.4915628037542
 30
0.0
 11
-32.9420248552515
 21
119.9142141118541
 31
0.0
  0
LINE
  5
4C6
  8
0
  6
CONTINUOUS
 62
     4
 10
-46.44201695328618
 20
107.4915531869152
 30
0.0
 11
-24.94202522343041
 21
107.4915531869152
 31
0.0
  0
LINE
  5
4C7
  8
0
  6
CONTINUOUS
 62
     4
 10
-46.44201695328618
 20
113.4915530081013
 30
0.0
 11
-24.94202522343041
 21
113.4915530081013
 31
0.0
  0
LINE
  5
4C8
  8
0
  6
CONTINUOUS
 62
     4
 10
-46.44201695328618
 20
82.49154630257894
 30
0.0
 11
-24.94202522343041
 21
82.49154630257894
 31
0.0
  0
LINE
  5
4C9
  8
0
  6
CONTINUOUS
 62
     4
 10
-46.44201695328618
 20
88.49154612376503
 30
0.0
 11
-24.94202522343041
 21
88.49154612376503
 31
0.0
  0
LINE
  5
4CA
  8
0
  6
CONTINUOUS
 62
     4
 10
-110.9420304984414
 20
16.99155493035105
 30
0.0
 11
-110.9420304984414
 21
9.491569458982783
 31
0.0
  0
LINE
  5
4CB
  8
0
  6
CONTINUOUS
 62
     4
 10
-107.9420191437569
 20
16.99155493035105
 30
0.0
 11
-107.9420191437569
 21
9.491569458982783
 31
0.0
  0
LINE
  5
4CC
  8
0
  6
CONTINUOUS
 62
     4
 10
-107.4420267880523
 20
12.34154591365868
 30
0.0
 11
-103.4420307219588
 21
12.34154591365868
 31
0.0
  0
LINE
  5
4CD
  8
0
  6
CONTINUOUS
 62
     4
 10
-41.94202111071004
 20
18.49153803243476
 30
0.0
 11
-34.94202111071004
 21
18.49153803243476
 31
0.0
  0
LINE
  5
4CE
  8
0
  6
CONTINUOUS
 62
     4
 10
-41.94202111071004
 20
12.49153803243477
 30
0.0
 11
-34.94202111071004
 21
12.49153803243477
 31
0.0
  0
LINE
  5
4CF
  8
0
  6
CONTINUOUS
 62
     4
 10
-51.44202111071004
 20
7.99153803243477
 30
0.0
 11
-39.44202111071004
 21
7.99153803243477
 31
0.0
  0
LINE
  5
4D0
  8
0
  6
CONTINUOUS
 62
     4
 10
-51.44202111071004
 20
2.99153803243477
 30
0.0
 11
-39.44202111071004
 21
2.99153803243477
 31
0.0
  0
LINE
  5
4D1
  8
0
  6
CONTINUOUS
 62
     4
 10
-62.45642779248035
 20
107.9327429619433
 30
0.0
 11
-62.45642779248035
 21
111.4915070231183
 31
0.0
  0
LINE
  5
4D2
  8
0
  6
CONTINUOUS
 62
     4
 10
-56.4564888276366
 20
107.4611123838112
 30
0.0
 11
-56.4564888276366
 21
111.4915070231183
 31
0.0
  0
LINE
  5
4D3
  8
0
  6
CONTINUOUS
 62
     4
 10
-23.9420251048522
 20
82.75950030221878
 30
0.0
 11
-20.94202447604234
 21
84.49155128147083
 31
0.0
  0
LINE
  5
4D4
  8
0
  6
CONTINUOUS
 62
     4
 10
-20.94201743085673
 20
84.49156387782025
 30
0.0
 11
-17.94201556318753
 21
82.7595121833125
 31
0.0
  0
LINE
  5
4D5
  8
0
  6
CONTINUOUS
 62
     4
 10
-18.94202417111946
 20
84.49155023810303
 30
0.0
 11
-17.94202685218786
 21
83.91420158061558
 31
0.0
  0
LINE
  5
4D6
  8
0
  6
CONTINUOUS
 62
     4
 10
-22.94202356519602
 20
84.49155521807
 30
0.0
 11
-17.94202705966372
 21
81.60480620858735
 31
0.0
  0
LINE
  5
4D7
  8
0
  6
CONTINUOUS
 62
     4
 10
-23.94203095009257
 20
83.9142003785509
 30
0.0
 11
-17.94202721475417
 21
80.45009698953544
 31
0.0
  0
LINE
  5
4D8
  8
0
  6
CONTINUOUS
 62
     4
 10
-23.94201966109224
 20
82.75951098124784
 30
0.0
 11
-19.14779273043828
 21
79.9915630780869
 31
0.0
  0
LINE
  5
4D9
  8
0
  6
CONTINUOUS
 62
     4
 10
-23.94202972705707
 20
81.60480748424129
 30
0.0
 11
-21.14779743426632
 21
79.99155689605527
 31
0.0
  0
LINE
  5
4DA
  8
0
  6
CONTINUOUS
 62
     4
 10
-23.94202988214752
 20
80.45009826518935
 30
0.0
 11
-23.14780213809436
 21
79.99155071402362
 31
0.0
  0
LINE
  5
4DB
  8
0
  6
CONTINUOUS
 62
     4
 10
-23.94203639385253
 20
81.60481090491572
 30
0.0
 11
-18.94202130543069
 21
84.49157064323344
 31
0.0
  0
LINE
  5
4DC
  8
0
  6
CONTINUOUS
 62
     4
 10
-23.94203623876208
 20
80.45010168586379
 30
0.0
 11
-17.94203374228314
 21
83.91420435962357
 31
0.0
  0
LINE
  5
4DD
  8
0
  6
CONTINUOUS
 62
     4
 10
-22.7362592789872
 20
79.9915479526664
 30
0.0
 11
-17.94201376544381
 21
82.75950658466243
 31
0.0
  0
LINE
  5
4DE
  8
0
  6
CONTINUOUS
 62
     4
 10
-20.73625610837555
 20
79.991567314429
 30
0.0
 11
-17.94202505444414
 21
81.60481718735934
 31
0.0
  0
LINE
  5
4DF
  8
0
  6
CONTINUOUS
 62
     4
 10
-18.73626255428135
 20
79.99155469509631
 30
0.0
 11
-17.94202489935369
 21
80.45010796830744
 31
0.0
  0
LINE
  5
4E0
  8
0
  6
CONTINUOUS
 62
     4
 10
-23.94202525994265
 20
83.91420952127072
 30
0.0
 11
-22.94201803013666
 21
84.49156390080356
 31
0.0
  0
LINE
  5
4E1
  8
0
  6
CONTINUOUS
 62
     4
 10
-23.94203664402246
 20
107.7595012157119
 30
0.0
 11
-20.94203477635337
 21
109.4915529102196
 31
0.0
  0
LINE
  5
4E2
  8
0
  6
CONTINUOUS
 62
     4
 10
-20.94202972437019
 20
109.4915521221213
 30
0.0
 11
-17.94202785670111
 21
107.7595004276135
 31
0.0
  0
LINE
  5
4E3
  8
0
  6
CONTINUOUS
 62
     4
 10
-18.94202502054227
 20
109.4915583041529
 30
0.0
 11
-17.94201779073628
 21
108.9142039246201
 31
0.0
  0
LINE
  5
4E4
  8
0
  6
CONTINUOUS
 62
     4
 10
-22.94203442819823
 20
109.4915459400896
 30
0.0
 11
-17.94203792266594
 21
106.604796930607
 31
0.0
  0
LINE
  5
4E5
  8
0
  6
CONTINUOUS
 62
     4
 10
-23.94203036900389
 20
108.9142109223194
 30
0.0
 11
-17.94202663366561
 21
105.4501075333039
 31
0.0
  0
LINE
  5
4E6
  8
0
  6
CONTINUOUS
 62
     4
 10
-23.94203052409434
 20
107.7595017032675
 30
0.0
 11
-19.14780359344049
 21
104.9915538001065
 31
0.0
  0
LINE
  5
4E7
  8
0
  6
CONTINUOUS
 62
     4
 10
-23.94202914596851
 20
106.6048180280098
 30
0.0
 11
-21.14779685317776
 21
104.9915674398238
 31
0.0
  0
LINE
  5
4E8
  8
0
  6
CONTINUOUS
 62
     4
 10
-23.94202930105896
 20
105.4501088089579
 30
0.0
 11
-23.1478015570058
 21
104.9915612577921
 31
0.0
  0
LINE
  5
4E9
  8
0
  6
CONTINUOUS
 62
     4
 10
-23.94201666718325
 20
106.6048034407508
 30
0.0
 11
-18.94202016165095
 21
109.4915524502334
 31
0.0
  0
LINE
  5
4EA
  8
0
  6
CONTINUOUS
 62
     4
 10
-23.94202795618357
 20
105.4501140434477
 30
0.0
 11
-17.94202422084518
 21
108.9142174324632
 31
0.0
  0
LINE
  5
4EB
  8
0
  6
CONTINUOUS
 62
     4
 10
-22.73625099640869
 20
104.9915603102503
 30
0.0
 11
-17.94202406575473
 21
107.7595082134113
 31
0.0
  0
LINE
  5
4EC
  8
0
  6
CONTINUOUS
 62
     4
 10
-20.73625620345504
 20
104.9915484061733
 30
0.0
 11
-17.94202391066428
 21
106.6047989943593
 31
0.0
  0
LINE
  5
4ED
  8
0
  6
CONTINUOUS
 62
     4
 10
-18.73625303284339
 20
104.9915677679359
 30
0.0
 11
-17.94203519966472
 21
105.4501095970563
 31
0.0
  0
LINE
  5
4EE
  8
0
  6
CONTINUOUS
 62
     4
 10
-23.94203679911291
 20
108.9142104347638
 30
0.0
 11
-22.94202956930692
 21
109.4915648142967
 31
0.0
  0
CIRCLE
  5
4EF
  8
0
  6
CONTINUOUS
 62
     4
 10
133.1495626707545
 20
15.49171005851956
 30
0.0
 40
3.0
  0
CIRCLE
  5
4F0
  8
0
  6
CONTINUOUS
 62
     4
 10
154.3670397471811
 20
52.24170878526527
 30
0.0
 40
2.999999999999999
  0
CIRCLE
  5
4F1
  8
0
  6
CONTINUOUS
 62
     4
 10
111.9319685419122
 20
52.24182644399485
 30
0.0
 40
2.999999999999999
  0
LINE
  5
4F2
  8
0
  6
CONTINUOUS
 62
     4
 10
126.1495583619824
 20
117.4919539116816
 30
0.0
 11
116.2353245917808
 21
117.4919538346301
 31
0.0
  0
LINE
  5
4F3
  8
0
  6
CONTINUOUS
 62
     4
 10
126.1495583969555
 20
112.9919541063673
 30
0.0
 11
116.235324626754
 21
112.9919540293158
 31
0.0
  0
LINE
  5
4F4
  8
0
  6
CONTINUOUS
 62
     4
 10
126.1495583736401
 20
115.9919539765768
 30
0.0
 11
116.2353246034385
 21
115.9919538995253
 31
0.0
  0
LINE
  5
4F5
  8
0
  6
CONTINUOUS
 62
     4
 10
126.1495583503247
 20
118.9919538467864
 30
0.0
 11
116.2353245801231
 21
118.9919537697348
 31
0.0
  0
LINE
  5
4F6
  8
0
  6
CONTINUOUS
 62
     4
 10
126.1495584086134
 20
111.4919427271713
 30
0.0
 11
116.2353246384118
 21
111.4919426501197
 31
0.0
  0
LINE
  5
4F7
  8
0
  6
CONTINUOUS
 62
     4
 10
126.1495583852978
 20
114.4919540414721
 30
0.0
 11
116.2353246150963
 21
114.4919539644205
 31
0.0
  0
LINE
  5
4F8
  8
0
  6
CONTINUOUS
 62
     4
 10
140.1495737303376
 20
117.4919540204871
 30
0.0
 11
149.7930935590807
 21
117.4919540954347
 31
0.0
  0
LINE
  5
4F9
  8
0
  6
CONTINUOUS
 62
     4
 10
140.1495737653107
 20
112.9919542151728
 30
0.0
 11
149.7930935940538
 21
112.9919542901204
 31
0.0
  0
LINE
  5
4FA
  8
0
  6
CONTINUOUS
 62
     4
 10
140.1495737769685
 20
111.4919428359768
 30
0.0
 11
149.7930936057116
 21
111.4919429109244
 31
0.0
  0
LINE
  5
4FB
  8
0
  6
CONTINUOUS
 62
     4
 10
140.1495737186798
 20
118.9919539555919
 30
0.0
 11
149.7930935474229
 21
118.9919540305395
 31
0.0
  0
LINE
  5
4FC
  8
0
  6
CONTINUOUS
 62
     4
 10
140.1495737419953
 20
115.9919540853824
 30
0.0
 11
149.7930935707384
 21
115.9919541603299
 31
0.0
  0
LINE
  5
4FD
  8
0
  6
CONTINUOUS
 62
     4
 10
140.149573753653
 20
114.4919541502776
 30
0.0
 11
149.7930935823961
 21
114.4919542252252
 31
0.0
  0
LINE
  5
4FE
  8
0
  6
CONTINUOUS
 62
     4
 10
126.14955863011
 20
82.99194396018095
 30
0.0
 11
116.2353248599084
 21
82.99194388312941
 31
0.0
  0
LINE
  5
4FF
  8
0
  6
CONTINUOUS
 62
     4
 10
126.1495586650831
 20
78.49194415486656
 30
0.0
 11
116.2353248948815
 21
78.491944077815
 31
0.0
  0
LINE
  5
500
  8
0
  6
CONTINUOUS
 62
     4
 10
126.1495586767409
 20
76.99194421976188
 30
0.0
 11
116.2353249065392
 21
76.99194414271037
 31
0.0
  0
LINE
  5
501
  8
0
  6
CONTINUOUS
 62
     4
 10
126.1495586534255
 20
79.99194408997141
 30
0.0
 11
116.2353248832238
 21
79.99194401291986
 31
0.0
  0
LINE
  5
502
  8
0
  6
CONTINUOUS
 62
     4
 10
126.1495586184522
 20
84.4919438952856
 30
0.0
 11
116.2353248482507
 21
84.49194381823406
 31
0.0
  0
LINE
  5
503
  8
0
  6
CONTINUOUS
 62
     4
 10
126.1495586417677
 20
81.49194402507607
 30
0.0
 11
116.2353248715661
 21
81.49194394802451
 31
0.0
  0
LINE
  5
504
  8
0
  6
CONTINUOUS
 62
     4
 10
140.1495739984652
 20
82.99194406898644
 30
0.0
 11
150.110659375294
 21
82.99194414640215
 31
0.0
  0
LINE
  5
505
  8
0
  6
CONTINUOUS
 62
     4
 10
140.1495740334383
 20
78.49194426367205
 30
0.0
 11
150.1106594102671
 21
78.49194434108776
 31
0.0
  0
LINE
  5
506
  8
0
  6
CONTINUOUS
 62
     4
 10
140.1495740450961
 20
76.9919443285674
 30
0.0
 11
150.1106594219249
 21
76.99194440598306
 31
0.0
  0
LINE
  5
507
  8
0
  6
CONTINUOUS
 62
     4
 10
140.1495740217806
 20
79.9919441987769
 30
0.0
 11
150.1106593986094
 21
79.99194427619261
 31
0.0
  0
LINE
  5
508
  8
0
  6
CONTINUOUS
 62
     4
 10
140.1495739868074
 20
84.4919440040911
 30
0.0
 11
150.1106593636363
 21
84.49194408150677
 31
0.0
  0
LINE
  5
509
  8
0
  6
CONTINUOUS
 62
     4
 10
140.1495740101229
 20
81.49194413388159
 30
0.0
 11
150.1106593869517
 21
81.49194421129722
 31
0.0
  0
LINE
  5
50A
  8
0
  6
CONTINUOUS
 62
     4
 10
69.53128161322115
 20
-4.819797347634292
 30
0.0
 11
74.48839856505055
 21
-13.40577561316063
 31
0.0
  0
LINE
  5
50B
  8
0
  6
CONTINUOUS
 62
     4
 10
73.4283957441618
 20
-2.569797414689475
 30
0.0
 11
78.38551269599117
 21
-11.15577568021587
 31
0.0
  0
LINE
  5
50C
  8
0
  6
CONTINUOUS
 62
     4
 10
70.83031965686803
 20
-4.069797369986006
 30
0.0
 11
75.78743660869742
 21
-12.65577563551238
 31
0.0
  0
LINE
  5
50D
  8
0
  6
CONTINUOUS
 62
     4
 10
74.72744369868235
 20
-1.819791714995525
 30
0.0
 11
79.6845606505118
 21
-10.40576998052186
 31
0.0
  0
LINE
  5
50E
  8
0
  6
CONTINUOUS
 62
     4
 10
72.1293577005149
 20
-3.319797392337748
 30
0.0
 11
77.08647465234432
 21
-11.90577565786408
 31
0.0
  0
LINE
  5
50F
  8
0
  6
CONTINUOUS
 62
     4
 10
68.23224356957428
 20
-5.569797325282536
 30
0.0
 11
73.1893605214037
 21
-14.15577559080886
 31
0.0
  0
LINE
  5
510
  8
0
  6
CONTINUOUS
 62
     4
 10
62.53127383481524
 20
7.304571560331127
 30
0.0
 11
57.70951385553715
 21
15.6561046764478
 31
0.0
  0
LINE
  5
511
  8
0
  6
CONTINUOUS
 62
     4
 10
66.42838796575586
 20
9.554571493275901
 30
0.0
 11
61.6066279864778
 21
17.90610460939253
 31
0.0
  0
LINE
  5
512
  8
0
  6
CONTINUOUS
 62
     4
 10
67.72743592027643
 20
10.30457719296987
 30
0.0
 11
62.90567594099838
 21
18.6561103090865
 31
0.0
  0
LINE
  5
513
  8
0
  6
CONTINUOUS
 62
     4
 10
61.23223579116836
 20
6.554571582682854
 30
0.0
 11
56.41047581189031
 21
14.90610469879951
 31
0.0
  0
LINE
  5
514
  8
0
  6
CONTINUOUS
 62
     4
 10
63.83031187846211
 20
8.05457153797937
 30
0.0
 11
59.00855189918406
 21
16.40610465409607
 31
0.0
  0
LINE
  5
515
  8
0
  6
CONTINUOUS
 62
     4
 10
65.12934992210899
 20
8.804571515627657
 30
0.0
 11
60.30758994283093
 21
17.15610463174428
 31
0.0
  0
LINE
  5
516
  8
0
  6
CONTINUOUS
 62
     4
 10
92.40915874956693
 20
24.55457676828678
 30
0.0
 11
87.42861599410858
 21
33.18112971517834
 31
0.0
  0
LINE
  5
517
  8
0
  6
CONTINUOUS
 62
     4
 10
96.30627288050769
 20
26.80457670123155
 30
0.0
 11
91.32573012504929
 21
35.43112964812318
 31
0.0
  0
LINE
  5
518
  8
0
  6
CONTINUOUS
 62
     4
 10
97.60531092415442
 20
27.55457667887983
 30
0.0
 11
92.62476816869611
 21
36.18112962577143
 31
0.0
  0
LINE
  5
519
  8
0
  6
CONTINUOUS
 62
     4
 10
95.0072348368607
 20
26.05457672358331
 30
0.0
 11
90.02669208140236
 21
34.68112967047487
 31
0.0
  0
LINE
  5
51A
  8
0
  6
CONTINUOUS
 62
     4
 10
91.1101207059202
 20
23.80457679063852
 30
0.0
 11
86.12957795046182
 21
32.43112973753014
 31
0.0
  0
LINE
  5
51B
  8
0
  6
CONTINUOUS
 62
     4
 10
93.70819679321392
 20
25.30457674593507
 30
0.0
 11
88.7276540377556
 21
33.9311296928267
 31
0.0
  0
LINE
  5
51C
  8
0
  6
CONTINUOUS
 62
     4
 10
99.40916652797284
 20
12.43020786032139
 30
0.0
 11
104.3662834798023
 21
3.844229594794946
 31
0.0
  0
LINE
  5
51D
  8
0
  6
CONTINUOUS
 62
     4
 10
103.3062806589136
 20
14.68020779326618
 30
0.0
 11
108.263397610743
 21
6.094229527739749
 31
0.0
  0
LINE
  5
51E
  8
0
  6
CONTINUOUS
 62
     4
 10
104.6053187025604
 20
15.43020777091442
 30
0.0
 11
109.5624356543898
 21
6.844229505387929
 31
0.0
  0
LINE
  5
51F
  8
0
  6
CONTINUOUS
 62
     4
 10
102.0072426152666
 20
13.93020781561792
 30
0.0
 11
106.9643595670961
 21
5.344229550091448
 31
0.0
  0
LINE
  5
520
  8
0
  6
CONTINUOUS
 62
     4
 10
98.11012848432611
 20
11.68020788267313
 30
0.0
 11
103.0672454361555
 21
3.094229617146759
 31
0.0
  0
LINE
  5
521
  8
0
  6
CONTINUOUS
 62
     4
 10
100.7082045716199
 20
13.18020783796965
 30
0.0
 11
105.6653215234493
 21
4.594229572443268
 31
0.0
  0
LINE
  5
522
  8
0
  6
CONTINUOUS
 62
     4
 10
203.7655037595326
 20
7.303212299098604
 30
0.0
 11
208.7226205779048
 21
15.88919064167649
 31
0.0
  0
LINE
  5
523
  8
0
  6
CONTINUOUS
 62
     4
 10
199.8683895936188
 20
9.553212171468104
 30
0.0
 11
204.8255064119911
 21
18.13919051404602
 31
0.0
  0
LINE
  5
524
  8
0
  6
CONTINUOUS
 62
     4
 10
202.466465704228
 20
8.053212256555092
 30
0.0
 11
207.4235825226002
 21
16.63919059913302
 31
0.0
  0
LINE
  5
525
  8
0
  6
CONTINUOUS
 62
     4
 10
198.5693416274405
 20
10.30321785097014
 30
0.0
 11
203.5264584458126
 21
18.88919619354809
 31
0.0
  0
LINE
  5
526
  8
0
  6
CONTINUOUS
 62
     4
 10
201.1674276489235
 20
8.803212214011594
 30
0.0
 11
206.1245444672956
 21
17.38919055658951
 31
0.0
  0
LINE
  5
527
  8
0
  6
CONTINUOUS
 62
     4
 10
205.0645418148372
 20
6.553212341642094
 30
0.0
 11
210.0216586332094
 21
15.13919068422001
 31
0.0
  0
LINE
  5
528
  8
0
  6
CONTINUOUS
 62
     4
 10
196.7654961695833
 20
-4.821156717672302
 30
0.0
 11
191.9437363201183
 21
-13.17268990873659
 31
0.0
  0
LINE
  5
529
  8
0
  6
CONTINUOUS
 62
     4
 10
192.8683820036696
 20
-2.571156845302795
 30
0.0
 11
188.0466221542046
 21
-10.92269003636703
 31
0.0
  0
LINE
  5
52A
  8
0
  6
CONTINUOUS
 62
     4
 10
191.5693340374912
 20
-1.82115116580075
 30
0.0
 11
186.7475741880262
 21
-10.17268435686499
 31
0.0
  0
LINE
  5
52B
  8
0
  6
CONTINUOUS
 62
     4
 10
198.064534224888
 20
-5.571156675128798
 30
0.0
 11
193.242774375423
 21
-13.92268986619305
 31
0.0
  0
LINE
  5
52C
  8
0
  6
CONTINUOUS
 62
     4
 10
195.4664581142788
 20
-4.071156760215793
 30
0.0
 11
190.6446982648137
 21
-12.42268995128006
 31
0.0
  0
LINE
  5
52D
  8
0
  6
CONTINUOUS
 62
     4
 10
194.1674200589742
 20
-3.321156802759305
 30
0.0
 11
189.3456602095092
 21
-11.67268999382354
 31
0.0
  0
LINE
  5
52E
  8
0
  6
CONTINUOUS
 62
     4
 10
166.8876109867041
 20
12.4288480258727
 30
0.0
 11
161.9070683653336
 21
3.802295001565447
 31
0.0
  0
LINE
  5
52F
  8
0
  6
CONTINUOUS
 62
     4
 10
162.9904968207902
 20
14.67884789824232
 30
0.0
 11
158.0099541994198
 21
6.052294873935004
 31
0.0
  0
LINE
  5
530
  8
0
  6
CONTINUOUS
 62
     4
 10
161.6914587654857
 20
15.42884785569871
 30
0.0
 11
156.7109161441152
 21
6.802294831391457
 31
0.0
  0
LINE
  5
531
  8
0
  6
CONTINUOUS
 62
     4
 10
164.2895348760948
 20
13.92884794078573
 30
0.0
 11
159.3089922547244
 21
5.302294916478473
 31
0.0
  0
LINE
  5
532
  8
0
  6
CONTINUOUS
 62
     4
 10
168.1866490420086
 20
11.67884806841631
 30
0.0
 11
163.2061064206381
 21
3.052295044109009
 31
0.0
  0
LINE
  5
533
  8
0
  6
CONTINUOUS
 62
     4
 10
165.5885729313994
 20
13.17884798332928
 30
0.0
 11
160.6080303100289
 21
4.552294959022021
 31
0.0
  0
LINE
  5
534
  8
0
  6
CONTINUOUS
 62
     4
 10
173.8876185766533
 20
24.55321704264358
 30
0.0
 11
178.8447353950255
 21
33.1391953852216
 31
0.0
  0
LINE
  5
535
  8
0
  6
CONTINUOUS
 62
     4
 10
169.9905044107395
 20
26.80321691501319
 30
0.0
 11
174.9476212291117
 21
35.38919525759118
 31
0.0
  0
LINE
  5
536
  8
0
  6
CONTINUOUS
 62
     4
 10
168.6914663554349
 20
27.55321687246965
 30
0.0
 11
173.6485831738072
 21
36.13919521504764
 31
0.0
  0
LINE
  5
537
  8
0
  6
CONTINUOUS
 62
     4
 10
171.2895424660441
 20
26.05321695755661
 30
0.0
 11
176.2466592844164
 21
34.63919530013462
 31
0.0
  0
LINE
  5
538
  8
0
  6
CONTINUOUS
 62
     4
 10
175.1866566319578
 20
23.8032170851872
 30
0.0
 11
180.1437734503301
 21
32.3891954277651
 31
0.0
  0
LINE
  5
539
  8
0
  6
CONTINUOUS
 62
     4
 10
172.5885805213487
 20
25.30321700010023
 30
0.0
 11
177.5456973397208
 21
33.88919534267816
 31
0.0
  0
TEXT
  5
53A
  8
0
 62
     6
 10
159.3171237998411
 20
-149.2053412307957
 30
0.0
 40
5.0
  1
外形図
 41
1.117647193459903
  7
DCSTYLE0
 72
     5
 11
172.8885540061399
 21
-149.2053412307957
 31
0.0
  0
TEXT
  5
53B
  8
0
 62
     6
 10
222.2650593826006
 20
-149.3289489746094
 30
0.0
 40
4.0
  1
1式
 41
1.028571617603302
  7
DCSTYLE0
 72
     5
 11
229.122203499956
 21
-149.3289489746094
 31
0.0
  0
TEXT
  5
53C
  8
0
 62
     6
 10
141.0028565236757
 20
-158.5840911865234
 30
0.0
 40
5.0
  1
日鋼プレシジォン
 41
1.148936218911029
  7
DCSTYLE0
 72
     5
 11
179.5742867299746
 21
-158.5840911865234
 31
0.0
  0
TEXT
  5
53D
  8
0
 62
     6
 10
155.4430769084719
 20
-164.524368981979
 30
0.0
 40
4.5
  1
  PDM3-6型ﾁｬｯｸ
 41
1.022988503920164
  7
DCSTYLE0
 72
     5
 11
212.6573625205782
 21
-164.524368981979
 31
0.0
  0
TEXT
  5
53E
  8
0
 62
     6
 10
-58.47353554709859
 20
-113.7045843871863
 30
0.0
 40
3.149999852478509
  1
（直径ﾆﾃ）
 41
1.458409223529428
  7
DCSTYLE0
 72
     5
 11
-35.50359135224361
 21
-113.7045843871863
 31
0.0
  0
TEXT
  5
53F
  8
0
 62
     6
 10
-29.38300198613191
 20
-114.2295843625994
 30
0.0
 40
4.199999803304678
  1
  12 mm
 41
1.131642997418157
  7
DCSTYLE0
 72
     5
 11
6.603243646449631
 21
-114.2295843625994
 31
0.0
  0
TEXT
  5
540
  8
0
 62
     6
 10
-155.3578288087371
 20
-106.1295966202942
 30
0.0
 40
4.199999803304678
  1
仕 様
 41
1.299145425959823
  7
DCSTYLE0
 72
     5
 11
-141.3270588654631
 21
-106.1295966202942
 31
0.0
  0
TEXT
  5
541
  8
0
 62
     6
 10
-155.3946761010158
 20
-122.3295864100189
 30
0.0
 40
4.199999803304678
  1
ピｽﾄﾝｽﾄﾛ-ｸ　　      　　　　　　　　 19 mm
 41
1.318714200415533
  7
DCSTYLE0
 72
     5
 11
6.543420126090695
 21
-122.3295864100189
 31
0.0
  0
TEXT
  5
542
  8
0
 62
     6
 10
-155.3946761010158
 20
-130.429554125164
 30
0.0
 40
4.199999803304678
  1
推奨ｼﾘﾝダ-　　　　     　　   　   52TＳ　型
 41
1.353997523503573
  7
DCSTYLE0
 72
     5
 11
6.543420126090695
 21
-130.429554125164
 31
0.0
  0
TEXT
  5
543
  8
0
 62
     6
 10
-155.3946761010158
 20
-146.6295582200029
 30
0.0
 40
4.199999803304678
  1
最大静的把握力　　　  　　　　　　　　　　　　  55　ｋN
 41
1.410610660374803
  7
DCSTYLE0
 72
     5
 11
6.543420126090695
 21
-146.6295582200029
 31
0.0
  0
TEXT
  5
544
  8
0
 62
     6
 10
-155.3353021875899
 20
-154.7295545453767
 30
0.0
 40
4.199999803304678
  1
最高使用回転速度　　　　　　　    　　　　5200　min
 41
1.359029022209942
  7
DCSTYLE0
 72
     5
 11
1.496639630649156
 21
-154.7295545453767
 31
0.0
  0
TEXT
  5
545
  8
0
 62
     6
 10
1.679000870369645
 20
-151.74109296118
 30
0.0
 40
2.099999901652339
  1
-1
 41
1.182893583105827
  7
DCSTYLE0
 72
     5
 11
6.055706922890336
 21
-151.74109296118
 31
0.0
  0
TEXT
  5
546
  8
0
 62
     6
 10
-155.3645135886587
 20
-162.829562314842
 30
0.0
 40
4.199999803304678
  1
慣性モーメント        　　　　　 0.061　Kg・m
 41
1.334540423399886
  7
DCSTYLE0
 72
     5
 11
3.979605502848528
 21
-162.829562314842
 31
0.0
  0
TEXT
  5
547
  8
0
 62
     6
 10
4.535455127844374
 20
-159.8411007306453
 30
0.0
 40
2.099999901652339
  1
2
 41
1.089905554034524
  7
DCSTYLE0
 72
     5
 11
6.388294482930482
 21
-159.8411007306453
 31
0.0
  0
TEXT
  5
548
  8
0
 62
     6
 10
-155.3946761010158
 20
-179.0295664096809
 30
0.0
 40
4.199999803304678
  1
ｱﾝバﾗﾝｽ量 　  　　    　　　　
 41
1.378965536756362
  7
DCSTYLE0
 72
     5
 11
-46.18061070464931
 21
-179.0295664096809
 31
0.0
  0
TEXT
  5
549
  8
0
 62
     6
 10
-44.20346088960102
 20
-178.5045664342678
 30
0.0
 40
3.149999852478509
  1
外周ﾆﾃ
 41
1.419073471103906
  7
DCSTYLE0
 72
     5
 11
-29.51605115151962
 21
-178.5045664342678
 31
0.0
  0
TEXT
  5
54A
  8
0
 62
     6
 10
-28.85700210723977
 20
-179.0295664096809
 30
0.0
 40
4.199999803304678
  1
　　3g　以内
 41
1.404778725841705
  7
DCSTYLE0
 72
     5
 11
6.543420126090762
 21
-179.0295664096809
 31
0.0
  0
TEXT
  5
54B
  8
0
 62
     6
 10
-155.3946761010158
 20
-170.9295643622614
 30
0.0
 40
4.199999803304678
  1
質　量　　　     　　　　　　　　　　　　　　　17 Kg
 41
1.39601813630196
  7
DCSTYLE0
 72
     5
 11
6.543420126090695
 21
-170.9295643622614
 31
0.0
  0
TEXT
  5
54C
  8
0
 62
     6
 10
-155.3210390945434
 20
-138.529544728492
 30
0.0
 40
4.199999803304678
  1
許容ｼﾘﾝダ-力　　
 41
1.330127239326118
  7
DCSTYLE0
 72
     5
 11
-106.1063335443111
 21
-138.529544728492
 31
0.0
  0
TEXT
  5
54D
  8
0
 62
     6
 10
-104.2065025145333
 20
-138.0045447530789
 30
0.0
 40
3.149999852478509
  1
52TS 型引側使用圧　2.5ＭＰａ
 41
1.384945463657081
  7
DCSTYLE0
 72
     5
 11
-36.89815613299851
 21
-138.0045447530789
 31
0.0
  0
TEXT
  5
54E
  8
0
 62
     6
 10
-32.88172781342686
 20
-138.5295447284921
 30
0.0
 40
4.199999803304678
  1
　  28　ｋN
 41
1.268904815181436
  7
DCSTYLE0
 72
     5
 11
6.200538663851997
 21
-138.5295447284921
 31
0.0
  0
TEXT
  5
54F
  8
0
 62
     6
 10
-155.4258369315386
 20
-114.2295843625994
 30
0.0
 40
4.199999803304678
  1
爪ノｽﾄﾛ-ｸ　　　　　  　　　　
 41
1.417051301186129
  7
DCSTYLE0
 72
     5
 11
-60.48340419843298
 21
-114.2295843625994
 31
0.0
  0
TEXT
  5
550
  8
0
 62
     6
 10
2.066089204514356
 20
-78.82079343365253
 30
0.0
 40
5.0
  1
標準引き込み量は0.5mm～0.6mmに調整しています。
 41
1.290326119408503
  7
DCSTYLE0
 72
     5
 11
168.2723822045144
 21
-78.82079343365253
 31
0.0
  0
TEXT
  5
551
  8
0
 62
     6
 10
2.066693027546762
 20
-85.90615526558582
 30
0.0
 40
5.0
  1
希望の引き込み量にする場合は事前にご指定下さい。
 41
1.392631271328671
  7
DCSTYLE0
 72
     5
 11
144.3140300275468
 21
-85.90615526558582
 31
0.0
  0
TEXT
  5
552
  8
0
 62
     6
 10
15.65213917191102
 20
-122.7295865083665
 30
0.0
 40
5.0
  1
※シリンダのストロークは20mmを使用して下さい。
 41
1.310727829894736
  7
DCSTYLE0
 72
     5
 11
163.889215171911
 21
-122.7295865083665
 31
0.0
  0
TEXT
  5
553
  8
0
 62
     7
 10
229.2263719150255
 20
-175.6313568353653
 30
0.0
 40
3.200000047683716
  1
1/1
 41
1.075471809871915
  7
DCSTYLE0
 72
     5
 11
237.9120872327517
 21
-175.6313568353653
 31
0.0
  0
TEXT
  5
554
  8
0
 62
     7
 10
140.6068651982973
 20
-137.25
 30
0.0
 40
2.5
  1
符
 41
1.000000457763672
  7
DCSTYLE0
 72
     5
 11
142.3925803014467
 21
-137.25
 31
0.0
  0
TEXT
  5
555
  8
0
 62
     7
 10
140.6068651982973
 20
-141.0000001192093
 30
0.0
 40
2.5
  1
号
 41
1.000000457763672
  7
DCSTYLE0
 72
     5
 11
142.3925803014467
 21
-141.0000001192093
 31
0.0
  0
TEXT
  5
556
  8
0
 62
     7
 10
237.1068651982973
 20
-137.25
 30
0.0
 40
2.5
  1
単重量
 41
1.117647193459903
  7
DCSTYLE0
 72
     5
 11
243.8925803014467
 21
-137.25
 31
0.0
  0
TEXT
  5
557
  8
0
 62
     7
 10
237.1068651982973
 20
-141.0000001192093
 30
0.0
 40
2.5
  1
(kg)
 41
1.300000114440918
  7
DCSTYLE0
 72
     5
 11
246.3925803014467
 21
-141.0000001192093
 31
0.0
  0
TEXT
  5
558
  8
0
 62
     7
 10
222.4818651982973
 20
-156.75
 30
0.0
 40
2.5
  1
作図
 41
1.090909298983487
  7
DCSTYLE0
 72
     5
 11
226.7675803014467
 21
-156.75
 31
0.0
  0
TEXT
  5
559
  8
0
 62
     7
 10
222.4818651982973
 20
-169.25
 30
0.0
 40
2.5
  1
尺度
 41
1.090909298983487
  7
DCSTYLE0
 72
     5
 11
226.7675803014467
 21
-169.25
 31
0.0
  0
TEXT
  5
55A
  8
0
 62
     7
 10
143.9402087041567
 20
-169.25
 30
0.0
 40
2.5
  1
承　　　　認
 41
1.142857208251953
  7
DCSTYLE0
 72
     5
 11
158.2259238073061
 21
-169.25
 31
0.0
  0
TEXT
  5
55B
  8
0
 62
     7
 10
171.273521692438
 20
-169.25
 30
0.0
 40
2.5
  1
検　　　　図
 41
1.142857208251953
  7
DCSTYLE0
 72
     5
 11
185.5592367955874
 21
-169.25
 31
0.0
  0
TEXT
  5
55C
  8
0
 62
     7
 10
195.1902087041567
 20
-169.25
 30
0.0
 40
2.5
  1
担　　当
 41
1.130434882122537
  7
DCSTYLE0
 72
     5
 11
204.4759238073061
 21
-169.25
 31
0.0
  0
TEXT
  5
55D
  8
0
 62
     7
 10
208.8568651982973
 20
-169.25
 30
0.0
 40
2.5
  1
製　　図
 41
1.130434882122537
  7
DCSTYLE0
 72
     5
 11
218.1425803014467
 21
-169.25
 31
0.0
  0
TEXT
  5
55E
  8
0
 62
     7
 10
92.10686519829733
 20
-172.0
 30
0.0
 40
2.5
  1
記
 41
1.000000457763672
  7
DCSTYLE0
 72
     5
 11
93.89258030144674
 21
-172.0
 31
0.0
  0
TEXT
  5
55F
  8
0
 62
     7
 10
92.10686519829733
 20
-175.7500001192093
 30
0.0
 40
2.5
  1
号
 41
1.000000457763672
  7
DCSTYLE0
 72
     5
 11
93.89258030144674
 21
-175.7500001192093
 31
0.0
  0
TEXT
  5
560
  8
0
 62
     7
 10
98.10686519829733
 20
-172.0
 30
0.0
 40
2.5
  1
理
 41
1.000000457763672
  7
DCSTYLE0
 72
     5
 11
99.89258030144674
 21
-172.0
 31
0.0
  0
TEXT
  5
561
  8
0
 62
     7
 10
98.10686519829733
 20
-175.7500001192093
 30
0.0
 40
2.5
  1
由
 41
1.000000457763672
  7
DCSTYLE0
 72
     5
 11
99.89258030144674
 21
-175.7500001192093
 31
0.0
  0
TEXT
  5
562
  8
0
 62
     7
 10
103.2318651982973
 20
-173.75
 30
0.0
 40
2.5
  1
日　付
 41
1.117647193459903
  7
DCSTYLE0
 72
     5
 11
110.0175803014467
 21
-173.75
 31
0.0
  0
TEXT
  5
563
  8
0
 62
     7
 10
91.7207262822817
 20
-179.0588989257812
 30
0.0
 40
2.5
  1
訂　正　来　歴
 41
1.146341519239472
  7
DCSTYLE0
 72
     5
 11
108.5064413854311
 21
-179.0588989257812
 31
0.0
  0
TEXT
  5
564
  8
0
 62
     7
 10
117.1322558232973
 20
-179.24853515625
 30
0.0
 40
2.5
  1
工　事　番　号
 41
1.146341519239472
  7
DCSTYLE0
 72
     5
 11
133.9179709264467
 21
-179.24853515625
 31
0.0
  0
TEXT
  5
565
  8
0
 62
     7
 10
156.106865079088
 20
-139.6000000238419
 30
0.0
 40
3.200000047683716
  1
品　　　　　　　名
 41
1.150943418718734
  7
DCSTYLE0
 72
     5
 11
183.9925803252886
 21
-139.6000000238419
 31
0.0
  0
TEXT
  5
566
  8
0
 62
     7
 10
198.856865079088
 20
-139.6000000238419
 30
0.0
 40
3.200000047683716
  1
材　　　料
 41
1.13793109357357
  7
DCSTYLE0
 72
     5
 11
213.9425803729723
 21
-139.6000000238419
 31
0.0
  0
TEXT
  5
567
  8
0
 62
     7
 10
221.106865079088
 20
-139.6000000238419
 30
0.0
 40
3.200000047683716
  1
個　　数
 41
1.13043486278342
  7
DCSTYLE0
 72
     5
 11
232.9925803848932
 21
-139.6000000238419
 31
0.0
  0
TEXT
  5
568
  8
0
 62
     7
 10
251.356865079088
 20
-139.6000000238419
 30
0.0
 40
3.200000047683716
  1
記　　　事
 41
1.13793109357357
  7
DCSTYLE0
 72
     5
 11
266.4425803729723
 21
-139.6000000238419
 31
0.0
  0
TEXT
  5
569
  8
0
 62
     7
 10
222.231865079088
 20
-164.1000000238419
 30
0.0
 40
3.200000047683716
  1
第　三　角　法
 41
1.146341517931077
  7
DCSTYLE0
 72
     5
 11
243.7175807067583
 21
-164.1000000238419
 31
0.0
  0
TEXT
  5
56A
  8
0
 62
     7
 10
249.1068651982973
 20
-169.25
 30
0.0
 40
2.5
  1
 ｺｰﾄﾞ番号
 41
1.119047673543295
  7
DCSTYLE0
 72
     5
 11
265.8925803014467
 21
-169.25
 31
0.0
  0
TEXT
  5
56B
  8
0
 62
     7
 10
-144.8658774055753
 20
136.8416546235535
 30
0.0
 40
4.0
  1
MIN14.9
 41
0.9800000000000002
  7
DCSTYLE0
 72
     5
 11
-122.4658774055753
 21
136.8416546235535
 31
0.0
  0
TEXT
  5
56C
  8
0
 62
     7
 10
13.72295186482849
 20
46.35424253273931
 30
0.0
 40
4.0
  1
MIN31.9
 50
90.0
 41
0.9800000000000002
  7
DCSTYLE0
 72
     5
 11
13.72295186482849
 21
68.75424253273931
 31
0.0
  0
TEXT
  5
56D
  8
0
 62
     7
 10
9.240444174515988
 20
46.35424253273931
 30
0.0
 40
4.0
  1
MAX37.9
 50
90.0
 41
0.9187500000000002
  7
DCSTYLE0
 72
     5
 11
9.240444174515988
 21
68.75424253273931
 31
0.0
  0
TEXT
  5
56E
  8
0
 62
     7
 10
-61.82140422631212
 20
30.76437173369692
 30
0.0
 40
4.0
  1
ピストン内径
 50
90.0
 41
0.9600000000000002
  7
DCSTYLE0
 72
     5
 11
-61.82140422631212
 21
49.96437173369692
 31
0.0
  0
TEXT
  5
56F
  8
0
 62
     7
 10
-46.85753237900468
 20
29.33924108157239
 30
0.0
 40
4.0
  1
防塵カバー外径
 50
90.0
 41
0.9560975609756097
  7
DCSTYLE0
 72
     5
 11
-46.85753237900468
 21
51.73924108157239
 31
0.0
  0
TEXT
  5
570
  8
0
 62
     7
 10
26.98861405575185
 20
37.07499018453079
 30
0.0
 40
4.0
  1
（防塵カバー）
 50
90.0
 41
0.95609756097561
  7
DCSTYLE0
 72
     5
 11
26.98861405575185
 21
59.4749901845308
 31
0.0
  0
TEXT
  5
572
  8
ZUWAKU
 62
     3
 10
97.83115742321547
 20
-190.3896955966668
 30
0.0
 40
7.0
  1
株式会社 野村製作所
 41
0.5756623947008424
  7
DCSTYLE1
 72
     5
 11
153.8311574232155
 21
-190.3896955966668
 31
0.0
  0
TEXT
  5
574
  8
ZUWAKU
 62
     3
 10
168.1110287873201
 20
-191.3599240265901
 30
0.0
 40
8.0
  1
２－
 41
0.7689423076923078
  7
DCSTYLE2
 72
     5
 11
184.1110287873201
 21
-191.3599240265901
 31
0.0
  0
TEXT
  5
575
  8
ZUWAKU
 62
     3
 10
185.0229864117269
 20
-191.3599240265901
 30
0.0
 40
8.0
  1
D006072
 41
1.537884615384616
  7
DCSTYLE2
 72
     5
 11
241.0229864117269
 21
-191.3599240265901
 31
0.0
  0
LINE
  5
576
  8
0
  6
CONTINUOUS
 62
     6
 10
-158.0892879277155
 20
-140.4795515725951
 30
0.0
 11
10.33617549763881
 21
-140.4795515725951
 31
0.0
  0
LINE
  5
577
  8
0
  6
CONTINUOUS
 62
     6
 10
-158.0892879277155
 20
-132.3795495251757
 30
0.0
 11
10.33617549763881
 21
-132.3795495251757
 31
0.0
  0
LINE
  5
578
  8
0
  6
CONTINUOUS
 62
     6
 10
-158.0892879277155
 20
-124.279593254122
 30
0.0
 11
10.33617549763881
 21
-124.279593254122
 31
0.0
  0
LINE
  5
579
  8
0
  6
CONTINUOUS
 62
     6
 10
-158.0892879277155
 20
-116.1795912067025
 30
0.0
 11
10.33617549763881
 21
-116.1795912067025
 31
0.0
  0
LINE
  5
57A
  8
0
  6
CONTINUOUS
 62
     6
 10
-158.0892879277155
 20
-108.0795920203059
 30
0.0
 11
-138.744104178075
 21
-108.0795920203059
 31
0.0
  0
LINE
  5
57B
  8
0
  6
CONTINUOUS
 62
     6
 10
-158.0892879277155
 20
-148.5795536200146
 30
0.0
 11
10.33617549763881
 21
-148.5795536200146
 31
0.0
  0
LINE
  5
57C
  8
0
  6
CONTINUOUS
 62
     6
 10
-158.0892879277155
 20
-156.6795613894798
 30
0.0
 11
10.33617549763881
 21
-156.6795613894798
 31
0.0
  0
LINE
  5
57D
  8
0
  6
CONTINUOUS
 62
     6
 10
-158.0892879277155
 20
-164.7795691589451
 30
0.0
 11
10.33617549763881
 21
-164.7795691589451
 31
0.0
  0
LINE
  5
57E
  8
0
  6
CONTINUOUS
 62
     6
 10
-158.0892879277155
 20
-180.9795732537841
 30
0.0
 11
10.33617549763881
 21
-180.9795732537841
 31
0.0
  0
LINE
  5
57F
  8
0
  6
CONTINUOUS
 62
     6
 10
-158.0892879277155
 20
-172.8795483181817
 30
0.0
 11
10.33617549763881
 21
-172.8795483181817
 31
0.0
  0
LINE
  5
580
  8
0
  6
CENTER
 62
     7
 10
45.34755359859428
 20
39.99175096161989
 30
0.0
 11
219.2884254041994
 21
39.99175096161989
 31
0.0
  0
LINE
  5
581
  8
0
  6
CENTER
 62
     7
 10
56.55633005333248
 20
-4.229314513024226
 30
0.0
 11
189.3658935871079
 21
72.44832412038565
 31
0.0
  0
LINE
  5
582
  8
0
  6
CENTER
 62
     7
 10
-48.59093122640174
 20
85.49154621317197
 30
0.0
 11
-13.40347186006989
 21
85.49154621317197
 31
0.0
  0
LINE
  5
583
  8
0
  6
CENTER
 62
     7
 10
-48.59093122640174
 20
110.4915530975082
 30
0.0
 11
-13.40347186006989
 21
110.4915530975082
 31
0.0
  0
LINE
  5
584
  8
0
  6
CENTER
 62
     7
 10
-109.4420305431449
 20
7.554939752079898
 30
0.0
 11
-109.4420305431449
 21
18.5639871381108
 31
0.0
  0
LINE
  5
585
  8
0
  6
CENTER
 62
     7
 10
-44.522497956399
 20
15.49153803243477
 30
0.0
 11
-33.21788073714904
 21
15.49153803243477
 31
0.0
  0
LINE
  5
586
  8
0
  6
CENTER
 62
     7
 10
-54.13498784448498
 20
5.49153803243477
 30
0.0
 11
-32.7661837469449
 21
5.49153803243477
 31
0.0
  0
LINE
  5
587
  8
0
  6
CENTER
 62
     7
 10
-59.44248882763659
 20
124.1362636730195
 30
0.0
 11
-59.44248882763659
 21
104.3236051127689
 31
0.0
  0
LINE
  5
588
  8
0
  6
CENTER
 62
     7
 10
-155.2984508743885
 20
39.99153803243476
 30
0.0
 11
-89.63636579024242
 21
39.99153803243476
 31
0.0
  0
LINE
  5
589
  8
0
  6
CENTER
 62
     7
 10
-169.6714610299447
 20
-12.39345647440117
 30
0.0
 11
-92.39995390054864
 21
-12.39345647440117
 31
0.0
  0
LINE
  5
58A
  8
0
  6
CENTER
 62
     7
 10
-83.86327339381717
 20
-12.39345647440117
 30
0.0
 11
-32.92363404053872
 21
-12.39345647440117
 31
0.0
  0
LINE
  5
58B
  8
0
  6
CENTER
 62
     7
 10
75.29933013151296
 20
73.3915569663381
 30
0.0
 11
113.7825910420792
 21
51.17323552154852
 31
0.0
  0
LINE
  5
58C
  8
0
  6
CENTER
 62
     7
 10
113.7825910420792
 20
51.17323552154852
 30
0.0
 11
210.4596758075812
 21
-4.643306394090436
 31
0.0
  0
LINE
  5
58D
  8
0
  6
CENTER
 62
     7
 10
125.0586328346634
 20
85.4917591423571
 30
0.0
 11
140.9162752414022
 21
85.4917591423571
 31
0.0
  0
LINE
  5
58E
  8
0
  6
CENTER
 62
     7
 10
124.6440539482127
 20
110.4917431385105
 30
0.0
 11
140.9162752414022
 21
110.4917431385105
 31
0.0
  0
LINE
  5
58F
  8
0
  6
CENTER
 62
     7
 10
76.1055876618205
 20
-2.20530024885425
 30
0.0
 11
68.22027584752558
 21
11.45246020189504
 31
0.0
  0
LINE
  5
590
  8
0
  6
CENTER
 62
     7
 10
97.75172878220351
 20
10.30249663831016
 30
0.0
 11
89.6294339821788
 21
24.37072365350569
 31
0.0
  0
LINE
  5
591
  8
0
  6
CENTER
 62
     7
 10
198.1037928832839
 20
11.49595806642949
 30
0.0
 11
190.0422121908153
 21
-2.467109031630024
 31
0.0
  0
LINE
  5
592
  8
0
  6
CENTER
 62
     7
 10
176.6243929106274
 20
24.29246753525592
 30
0.0
 11
168.4967492492037
 21
10.21497602052099
 31
0.0
  0
ARC
  5
593
  8
0
  6
CENTER
 62
     7
 10
133.1494894086313
 20
39.99175096161989
 30
0.0
 40
52.38499676033864
 50
254.3738341010838
 51
284.9678203877905
  0
ARC
  5
594
  8
0
  6
CENTER
 62
     7
 10
133.1494894086313
 20
39.99175096161989
 30
0.0
 40
52.38499676033864
 50
136.4554668506271
 51
163.24650061593
  0
LINE
  5
595
  8
0
  6
CENTER
 62
     7
 10
133.1494894086313
 20
126.0405843894815
 30
0.0
 11
133.1494894086313
 21
-46.75020304429563
 31
0.0
  0
ARC
  5
596
  8
0
  6
CENTER
 62
     7
 10
133.1495621979306
 20
39.99171005852915
 30
0.0
 40
24.5
 50
258.3501937325448
 51
281.5131506343039
  0
ARC
  5
597
  8
0
  6
CENTER
 62
     7
 10
133.149417590866
 20
39.99170837578296
 30
0.0
 40
24.49999999999999
 50
18.3501937325447
 51
41.5131506343039
  0
ARC
  5
598
  8
0
  6
CENTER
 62
     7
 10
133.1495911710512
 20
39.99182685346761
 30
0.0
 40
24.49999999999999
 50
138.3501937325447
 51
161.5131506343039
  0
ARC
  5
599
  8
0
  6
CENTER
 62
     7
 10
133.1493448015667
 20
39.99149712934411
 30
0.0
 40
52.38499676033864
 50
15.41787663933787
 51
43.49785950859965
  0
LINE
  5
59A
  8
0
  6
CENTER
 62
     7
 10
118.2101443576271
 20
-6.035160181031129
 30
0.0
 11
107.0737910036137
 21
-40.30933156284474
 31
0.0
  0
LINE
  5
59B
  8
0
  6
CENTER
 62
     7
 10
180.4791286593709
 20
50.06671709806551
 30
0.0
 11
215.7296084466898
 21
57.55943787887661
 31
0.0
  0
LINE
  5
59C
  8
0
  6
CENTER
 62
     7
 10
100.7589855848044
 20
75.94230073168173
 30
0.0
 11
76.64485915149893
 21
102.7237513326842
 31
0.0
  0
LINE
  5
59D
  8
0
  6
CENTER
 62
     7
 10
-70.61111636056987
 20
39.99153803243476
 30
0.0
 11
-67.01295160190857
 21
39.99153803243476
 31
0.0
  0
LINE
  5
59E
  8
0
  6
CENTER
 62
     7
 10
-46.55214723926371
 20
39.99153803243476
 30
0.0
 11
-32.33496381509676
 21
39.99153803243476
 31
0.0
  0
LINE
  5
59F
  8
0
  6
CENTER
 62
     7
 10
72.66469390112803
 20
98.4910954191102
 30
0.0
 11
195.5794289761394
 21
98.49109446383989
 31
0.0
  0
LINE
  5
5A0
  8
0
  6
CENTER
 62
     7
 10
203.6101049523477
 20
45.03094311797476
 30
0.0
 11
194.67291248361
 21
29.55127196293169
 31
0.0
  0
LINE
  5
5A1
  8
0
  6
CENTER
 62
     7
 10
172.9726409659651
 20
-8.034700169067207
 30
0.0
 11
163.6438189714296
 21
-24.19269354836119
 31
0.0
  0
LINE
  5
5A2
  8
0
  6
CENTER
 62
     7
 10
102.2849417002255
 20
-23.54948910774614
 30
0.0
 11
92.98674501976726
 21
-7.444539749368857
 31
0.0
  0
LINE
  5
5A3
  8
0
  6
CENTER
 62
     7
 10
71.64747853867533
 20
29.51615465551311
 30
0.0
 11
62.31865679529369
 21
45.67414817981084
 31
0.0
  0
LINE
  5
5A4
  8
0
  6
DASHED2
 62
     7
 10
-64.4420204401579
 20
120.4915375406964
 30
0.0
 11
-64.4420204401579
 21
68.99155879478499
 31
0.0
  0
LINE
  5
5A5
  8
0
  6
DASHED2
 62
     7
 10
-46.94202075308217
 20
106.4915455873232
 30
0.0
 11
-46.94202075308217
 21
89.4915308351741
 31
0.0
  0
LINE
  5
5A6
  8
0
  6
DASHED2
 62
     7
 10
-46.94202075308217
 20
81.49153870298696
 30
0.0
 11
-46.94202075308217
 21
69.99156002654803
 31
0.0
  0
LINE
  5
5A7
  8
0
  6
DASHED2
 62
     7
 10
-54.4420131087867
 20
120.4915375406964
 30
0.0
 11
-54.4420131087867
 21
63.79154487206755
 31
0.0
  0
ARC
  5
5A8
  8
0
  6
DASHED2
 62
     7
 10
133.1494894086313
 20
39.99175096161989
 30
0.0
 40
26.99999919533732
 50
268.4136587400297
 51
271.586336251014
  0
ARC
  5
5A9
  8
0
  6
DASHED2
 62
     7
 10
133.1494894086313
 20
39.99175096161989
 30
0.0
 40
26.99999919533732
 50
28.41366207933391
 51
31.5863395903182
  0
ARC
  5
5AA
  8
0
  6
DASHED2
 62
     7
 10
133.1494894086313
 20
39.99175096161989
 30
0.0
 40
26.99999919533732
 50
148.413658588449
 51
151.5863360994333
  0
LINE
  5
5AB
  8
0
  6
DASHED2
 62
     7
 10
119.6243066480044
 20
-8.154952136042672
 30
0.0
 11
117.0360214324369
 21
-16.12087493350874
 31
0.0
  0
LINE
  5
5AC
  8
0
  6
DASHED2
 62
     7
 10
117.0360214324369
 20
-16.12087493350874
 30
0.0
 11
113.2318383633006
 21
-14.8848209262706
 31
0.0
  0
LINE
  5
5AD
  8
0
  6
DASHED2
 62
     7
 10
112.6105912686508
 20
-15.01687869867093
 30
0.0
 11
117.4609853065444
 21
-16.59286725607322
 31
0.0
  0
LINE
  5
5AE
  8
0
  6
DASHED2
 62
     7
 10
117.4610030494083
 20
-16.5928648432664
 30
0.0
 11
117.0360214324369
 21
-16.12087493350874
 31
0.0
  0
LINE
  5
5AF
  8
0
  6
DASHED2
 62
     7
 10
117.460983538335
 20
-16.59287269806226
 30
0.0
 11
113.752785499867
 21
-28.00553275364064
 31
0.0
  0
LINE
  5
5B0
  8
0
  6
DASHED2
 62
     7
 10
110.9465652731831
 20
-18.68205277465298
 30
0.0
 11
116.652904370954
 21
-20.53615474090267
 31
0.0
  0
LINE
  5
5B1
  8
0
  6
DASHED2
 62
     7
 10
116.6528735788031
 20
-20.53615075244144
 30
0.0
 11
114.1807446966412
 21
-28.14458111484651
 31
0.0
  0
LINE
  5
5B2
  8
0
  6
DASHED2
 62
     7
 10
115.7663743590129
 20
-7.084174919409429
 30
0.0
 11
113.2317953672563
 21
-14.88480695600895
 31
0.0
  0
LINE
  5
5B3
  8
0
  6
DASHED2
 62
     7
 10
112.610581003383
 20
-15.01687320678429
 30
0.0
 11
113.2318383633006
 21
-14.8848209262706
 31
0.0
  0
LINE
  5
5B4
  8
0
  6
DASHED2
 62
     7
 10
112.6105906792477
 20
-15.01688051266728
 30
0.0
 11
108.9023891043608
 21
-26.42955145222373
 31
0.0
  0
LINE
  5
5B5
  8
0
  6
DASHED2
 62
     7
 10
110.9465356598384
 20
-18.68204515819906
 30
0.0
 11
108.4744055988702
 21
-26.29047914859682
 31
0.0
  0
LINE
  5
5B6
  8
0
  6
DASHED2
 62
     7
 10
118.0440032433613
 20
-32.43513957647603
 30
0.0
 11
114.1807991733142
 21
-28.14461672188499
 31
0.0
  0
LINE
  5
5B7
  8
0
  6
DASHED2
 62
     7
 10
118.0439726959358
 20
-32.43512778856169
 30
0.0
 11
115.3829573124459
 21
-40.6248910264989
 31
0.0
  0
LINE
  5
5B8
  8
0
  6
DASHED2
 62
     7
 10
118.0439726959358
 20
-32.43512778856169
 30
0.0
 11
114.6574301734189
 21
-31.33477342086567
 31
0.0
  0
LINE
  5
5B9
  8
0
  6
DASHED2
 62
     7
 10
108.4744405168432
 20
-26.29047043908363
 30
0.0
 11
114.1807796146141
 21
-28.14457240533332
 31
0.0
  0
LINE
  5
5BA
  8
0
  6
DASHED2
 62
     7
 10
108.4744287287804
 20
-26.29050671901055
 30
0.0
 11
114.1807678265513
 21
-28.14460868526024
 31
0.0
  0
LINE
  5
5BB
  8
0
  6
DASHED2
 62
     7
 10
108.4743998324328
 20
-26.29045817091114
 30
0.0
 11
102.8270959221332
 21
-27.49083002334226
 31
0.0
  0
LINE
  5
5BC
  8
0
  6
DASHED2
 62
     7
 10
102.8270684352134
 20
-27.49085587856253
 30
0.0
 11
100.1660525449896
 21
-35.68062067606607
 31
0.0
  0
LINE
  5
5BD
  8
0
  6
DASHED2
 62
     7
 10
112.5196965260789
 20
-30.14421126762218
 30
0.0
 11
112.9746143606018
 21
-28.74411813754367
 31
0.0
  0
ARC
  5
5BE
  8
0
  6
DASHED2
 62
     7
 10
110.3815024777188
 20
-30.25271074895407
 30
0.0
 40
2.999999910593035
 50
30.18968684487313
 51
72.0
  0
ARC
  5
5BF
  8
0
  6
DASHED2
 62
     7
 10
113.8518088403492
 20
-29.28040963090418
 30
0.0
 40
0.9999999999999999
 50
72.0
 51
161.9999820139107
  0
LINE
  5
5C0
  8
0
  6
DASHED2
 62
     7
 10
114.4202946717269
 20
-28.41060730307228
 30
0.0
 11
108.12422973854
 21
-26.36489179751851
 31
0.0
  0
ARC
  5
5C1
  8
0
  6
DASHED2
 62
     7
 10
113.8518088403492
 20
-29.28040963090418
 30
0.0
 40
0.9999999999999999
 50
0.1948632934379361
 51
72.0
  0
LINE
  5
5C2
  8
0
  6
DASHED2
 62
     7
 10
114.3307200941435
 20
-30.88072696064267
 30
0.0
 11
114.8518007869671
 21
-29.27700549079956
 31
0.0
  0
ARC
  5
5C3
  8
0
  6
DASHED2
 62
     7
 10
113.5237105184418
 20
-30.29019243481355
 30
0.0
 40
0.9999999999999999
 50
272.7154669700721
 51
323.8051248674166
  0
ARC
  5
5C4
  8
0
  6
DASHED2
 62
     7
 10
111.3085534332154
 20
-27.39954128509969
 30
0.0
 40
2.999999910593035
 50
210.1897159868626
 51
293.8103013159814
  0
ARC
  5
5C5
  8
0
  6
DASHED2
 62
     7
 10
113.5237105184418
 20
-30.29019243481355
 30
0.0
 40
0.9999999999999999
 50
161.9999820139107
 51
231.2845330299279
  0
LINE
  5
5C6
  8
0
  6
DASHED2
 62
     7
 10
108.7154633182879
 20
-28.90814096934758
 30
0.0
 11
109.1703811528108
 21
-27.50804783926908
 31
0.0
  0
ARC
  5
5C7
  8
0
  6
DASHED2
 62
     7
 10
110.3815024777188
 20
-30.25271074895407
 30
0.0
 40
2.999999910593035
 50
72.0
 51
113.8103131551269
  0
ARC
  5
5C8
  8
0
  6
DASHED2
 62
     7
 10
108.1454699126405
 20
-27.42630771991104
 30
0.0
 40
0.9999999999999999
 50
342.0000179860893
 51
72.0
  0
LINE
  5
5C9
  8
0
  6
DASHED2
 62
     7
 10
106.8173796441151
 20
-28.43949466392503
 30
0.0
 11
107.3384603369387
 21
-26.83577319408192
 31
0.0
  0
ARC
  5
5CA
  8
0
  6
DASHED2
 62
     7
 10
108.1454699126405
 20
-27.42630771991104
 30
0.0
 40
0.9999999999999999
 50
72.0
 51
143.8051367065621
  0
LINE
  5
5CB
  8
0
  6
DASHED2
 62
     7
 10
113.6080359143822
 20
-31.30107501308008
 30
0.0
 11
107.1549472730998
 21
-29.20433941199058
 31
0.0
  0
ARC
  5
5CC
  8
0
  6
DASHED2
 62
     7
 10
104.3143708320488
 20
-30.16925426485673
 30
0.0
 40
2.999999910593035
 50
314.1101699443929
 51
18.76199489168723
  0
ARC
  5
5CD
  8
0
  6
DASHED2
 62
     7
 10
107.817371590733
 20
-28.43609052382041
 30
0.0
 40
0.9999999999999999
 50
180.1948751325834
 51
231.2845330299279
  0
ARC
  5
5CE
  8
0
  6
DASHED2
 62
     7
 10
107.817371590733
 20
-28.43609052382041
 30
0.0
 40
0.9999999999999999
 50
272.7154669700721
 51
342.0000179860893
  0
ARC
  5
5CF
  8
0
  6
DASHED2
 62
     7
 10
115.3389695767364
 20
-33.75136354007029
 30
0.0
 40
2.999999910593035
 50
125.2380051083128
 51
189.8931085464087
  0
LINE
  5
5D0
  8
0
  6
DASHED2
 62
     7
 10
112.2221335500603
 20
-35.26691406125753
 30
0.0
 11
105.9451476688074
 21
-33.22739771546258
 31
0.0
  0
LINE
  5
5D1
  8
0
  6
DASHED2
 62
     7
 10
111.877831244289
 20
-34.10357324573186
 30
0.0
 11
106.844818716238
 21
-32.46824834398112
 31
0.0
  0
LINE
  5
5D2
  8
0
  6
DASHED2
 62
     7
 10
110.6554431156258
 20
-37.1762246224156
 30
0.0
 11
112.2221330982555
 21
-35.26690959622764
 31
0.0
  0
ARC
  5
5D3
  8
0
  6
DASHED2
 62
     7
 10
109.0836297254561
 20
-34.24715235194131
 30
0.0
 40
3.29999997317791
 50
342.0000179860893
 51
359.6397055176993
  0
LINE
  5
5D4
  8
0
  6
DASHED2
 62
     7
 10
105.9451475912617
 20
-33.2273916420872
 30
0.0
 11
106.0903591977524
 21
-35.69293721259265
 31
0.0
  0
ARC
  5
5D5
  8
0
  6
DASHED2
 62
     7
 10
109.0836297254561
 20
-34.24715235194131
 30
0.0
 40
3.29999997317791
 50
144.3602944823007
 51
161.9999820139107
  0
LINE
  5
5D6
  8
0
  6
DASHED2
 62
     7
 10
110.6554351736023
 20
-37.17622514216339
 30
0.0
 11
106.0903683850264
 21
-35.69294502793637
 31
0.0
  0
ARC
  5
5D7
  8
0
  6
DASHED2
 62
     7
 10
108.5205646692915
 20
-35.98008840565769
 30
0.0
 40
1.199999982118607
 50
185.4679828897849
 51
318.5320275828699
  0
LINE
  5
5D8
  8
0
  6
DASHED2
 62
     7
 10
114.606173892664
 20
-31.31811924569275
 30
0.0
 11
114.0532651129184
 21
-31.13846829293328
 31
0.0
  0
LINE
  5
5D9
  8
0
  6
DASHED2
 62
     7
 10
106.8903488850736
 20
-28.81109572804021
 30
0.0
 11
102.8270684352134
 21
-27.49085587856253
 31
0.0
  0
LINE
  5
5DA
  8
0
  6
DASHED2
 62
     7
 10
181.6078411979602
 20
52.35131354411196
 30
0.0
 11
189.8006753129351
 21
54.09275419392389
 31
0.0
  0
LINE
  5
5DB
  8
0
  6
DASHED2
 62
     7
 10
189.8006753129351
 20
54.09275419392384
 30
0.0
 11
190.6323126767855
 21
50.18020801178611
 31
0.0
  0
LINE
  5
5DC
  8
0
  6
DASHED2
 62
     7
 10
191.0573016097763
 20
49.70822113199222
 30
0.0
 11
189.9969507176135
 21
54.69677986587384
 31
0.0
  0
LINE
  5
5DD
  8
0
  6
DASHED2
 62
     7
 10
189.9969397566295
 20
54.69679402524132
 30
0.0
 11
189.8006753129351
 21
54.09275419392384
 31
0.0
  0
LINE
  5
5DE
  8
0
  6
DASHED2
 62
     7
 10
189.9969563146189
 20
54.69678105555408
 30
0.0
 11
201.7347088667397
 21
57.19171737976639
 31
0.0
  0
LINE
  5
5DF
  8
0
  6
DASHED2
 62
     7
 10
182.6094870710579
 20
48.47485756744845
 30
0.0
 11
190.6323220762062
 21
50.18016379098867
 31
0.0
  0
LINE
  5
5E0
  8
0
  6
DASHED2
 62
     7
 10
191.0573019862968
 20
49.70820949606625
 30
0.0
 11
190.6323126767855
 21
50.18020801178611
 31
0.0
  0
LINE
  5
5E1
  8
0
  6
DASHED2
 62
     7
 10
191.0573034754448
 20
49.70822152855234
 30
0.0
 11
202.7950672215765
 21
52.20316023212509
 31
0.0
  0
LINE
  5
5E2
  8
0
  6
DASHED2
 62
     7
 10
195.0634484666028
 20
50.09971938535055
 30
0.0
 11
193.8159783216962
 21
55.96860498975339
 31
0.0
  0
LINE
  5
5E3
  8
0
  6
DASHED2
 62
     7
 10
193.8159902636629
 20
55.96857632873783
 30
0.0
 11
201.6411486815115
 21
57.63186509655894
 31
0.0
  0
LINE
  5
5E4
  8
0
  6
DASHED2
 62
     7
 10
195.0634566772325
 20
50.0996899312148
 30
0.0
 11
202.8886188264181
 21
51.76297949215611
 31
0.0
  0
LINE
  5
5E5
  8
0
  6
DASHED2
 62
     7
 10
206.7518441505085
 20
47.47243040967615
 30
0.0
 11
215.174896461278
 21
49.26280544762007
 31
0.0
  0
LINE
  5
5E6
  8
0
  6
DASHED2
 62
     7
 10
208.7885755206048
 20
59.49682456069004
 30
0.0
 11
210.1607954943392
 21
53.04103715543128
 31
0.0
  0
LINE
  5
5E7
  8
0
  6
DASHED2
 62
     7
 10
207.9532439739859
 20
58.6169796095477
 30
0.0
 11
209.0535173296539
 21
53.44060045181483
 31
0.0
  0
LINE
  5
5E8
  8
0
  6
DASHED2
 62
     7
 10
210.1607902734147
 20
53.04103405158703
 30
0.0
 11
212.2234095684152
 21
54.39956377698506
 31
0.0
  0
ARC
  5
5E9
  8
0
  6
DASHED2
 62
     7
 10
209.4746878868324
 20
56.26891966405007
 30
0.0
 40
3.29999997317791
 50
264.3602944823007
 51
281.9999820139106
  0
LINE
  5
5EA
  8
0
  6
DASHED2
 62
     7
 10
211.2254366086253
 20
59.09467950706254
 30
0.0
 11
212.2234117430644
 21
54.39957564106966
 31
0.0
  0
ARC
  5
5EB
  8
0
  6
DASHED2
 62
     7
 10
211.256987060567
 20
56.6477590482864
 30
0.0
 40
1.199999982118607
 50
305.4679828897849
 51
78.53202758286993
  0
ARC
  5
5EC
  8
0
  6
DASHED2
 62
     7
 10
205.9176522551998
 20
61.4383084786285
 30
0.0
 40
2.999999910593035
 50
245.2380051083127
 51
309.8931085464087
  0
LINE
  5
5ED
  8
0
  6
DASHED2
 62
     7
 10
211.2254321874988
 20
59.09468612518276
 30
0.0
 11
208.7885718796778
 21
59.49682193690064
 31
0.0
  0
ARC
  5
5EE
  8
0
  6
DASHED2
 62
     7
 10
209.4746878868324
 20
56.26891966405007
 30
0.0
 40
3.29999997317791
 50
102.0000179860893
 51
119.6397055176993
  0
LINE
  5
5EF
  8
0
  6
DASHED2
 62
     7
 10
205.5782338331968
 20
51.40246067827208
 30
0.0
 11
203.9288299533063
 21
51.0518690607574
 31
0.0
  0
LINE
  5
5F0
  8
0
  6
DASHED2
 62
     7
 10
204.6611069754018
 20
58.71413169126903
 30
0.0
 11
206.0718250004803
 21
52.0772251945009
 31
0.0
  0
ARC
  5
5F1
  8
0
  6
DASHED2
 62
     7
 10
208.3277539960768
 20
50.09967126159222
 30
0.0
 40
2.999999910593035
 50
74.11016994439288
 51
138.7619948916872
  0
ARC
  5
5F2
  8
0
  6
DASHED2
 62
     7
 10
205.0752897880792
 20
52.26677703757073
 30
0.0
 40
0.9999999999999998
 50
300.1948751325834
 51
351.2845330299278
  0
LINE
  5
5F3
  8
0
  6
DASHED2
 62
     7
 10
205.8635651743146
 20
51.65145442669461
 30
0.0
 11
206.7518441505085
 21
47.47243040967615
 31
0.0
  0
LINE
  5
5F4
  8
0
  6
DASHED2
 62
     7
 10
202.8886035424281
 20
51.76296400943195
 30
0.0
 11
206.751808015771
 21
47.47244128643685
 31
0.0
  0
LINE
  5
5F5
  8
0
  6
DASHED2
 62
     7
 10
203.4252520323449
 20
63.12282437022068
 30
0.0
 11
201.6411522797749
 21
57.63193007826094
 31
0.0
  0
LINE
  5
5F6
  8
0
  6
DASHED2
 62
     7
 10
203.4252570974243
 20
63.12279202141704
 30
0.0
 11
204.1655935230929
 21
59.63978298207311
 31
0.0
  0
LINE
  5
5F7
  8
0
  6
DASHED2
 62
     7
 10
203.4252570974243
 20
63.12279202141704
 30
0.0
 11
211.8483078042028
 21
64.91316671842212
 31
0.0
  0
LINE
  5
5F8
  8
0
  6
DASHED2
 62
     7
 10
202.8885938247719
 20
51.76300537725116
 30
0.0
 11
201.6411236798654
 21
57.63189098165394
 31
0.0
  0
LINE
  5
5F9
  8
0
  6
DASHED2
 62
     7
 10
202.8886311381417
 20
51.76301330845271
 30
0.0
 11
201.6411609932351
 21
57.63189891285555
 31
0.0
  0
LINE
  5
5FA
  8
0
  6
DASHED2
 62
     7
 10
204.2034032772697
 20
57.19317026033015
 30
0.0
 11
202.7634281416962
 21
56.88709409662233
 31
0.0
  0
ARC
  5
5FB
  8
0
  6
DASHED2
 62
     7
 10
205.3664636085806
 20
55.39568963689557
 30
0.0
 40
2.999999910593035
 50
150.1896868448731
 51
192.0
  0
ARC
  5
5FC
  8
0
  6
DASHED2
 62
     7
 10
202.7892729589062
 20
57.91491254682336
 30
0.0
 40
0.9999999999999998
 50
192.0
 51
281.9999820139106
  0
LINE
  5
5FD
  8
0
  6
DASHED2
 62
     7
 10
201.7517591310441
 20
57.97233455457199
 30
0.0
 11
203.1281500009123
 21
51.49692462577883
 31
0.0
  0
ARC
  5
5FE
  8
0
  6
DASHED2
 62
     7
 10
202.7892729589062
 20
57.91491254682336
 30
0.0
 40
0.9999999999999998
 50
120.1948632934379
 51
192.0
  0
LINE
  5
5FF
  8
0
  6
DASHED2
 62
     7
 10
203.9357327936791
 20
59.12982052363671
 30
0.0
 11
202.2863289137886
 21
58.77922890612199
 31
0.0
  0
ARC
  5
600
  8
0
  6
DASHED2
 62
     7
 10
203.8278196803501
 20
58.13566246706716
 30
0.0
 40
0.9999999999999998
 50
32.71546697007211
 51
83.80512486741657
  0
ARC
  5
601
  8
0
  6
DASHED2
 62
     7
 10
202.4320208938324
 20
54.77195458303105
 30
0.0
 40
2.999999910593035
 50
330.1897159868627
 51
53.8103013159814
  0
ARC
  5
602
  8
0
  6
DASHED2
 62
     7
 10
203.8278196803501
 20
58.13566246706716
 30
0.0
 40
0.9999999999999998
 50
281.9999820139106
 51
351.2845330299278
  0
LINE
  5
603
  8
0
  6
DASHED2
 62
     7
 10
205.035051601996
 20
53.28057251132549
 30
0.0
 11
203.5950764664225
 21
52.97449634761766
 31
0.0
  0
ARC
  5
604
  8
0
  6
DASHED2
 62
     7
 10
205.3664636085806
 20
55.39568963689557
 30
0.0
 40
2.999999910593035
 50
192.0
 51
233.8103131551268
  0
ARC
  5
605
  8
0
  6
DASHED2
 62
     7
 10
204.0367430666352
 20
52.04602711732694
 30
0.0
 40
0.9999999999999998
 50
102.0000179860893
 51
192.0
  0
ARC
  5
606
  8
0
  6
DASHED2
 62
     7
 10
204.0367430666352
 20
52.04602711732694
 30
0.0
 40
0.9999999999999998
 50
192.0
 51
263.8051367065621
  0
ARC
  5
607
  8
0
  6
DASHED2
 62
     7
 10
205.0752897880792
 20
52.26677703757073
 30
0.0
 40
0.9999999999999998
 50
32.71546697007211
 51
102.0000179860893
  0
LINE
  5
608
  8
0
  6
DASHED2
 62
     7
 10
204.1767987246915
 20
59.58706665324941
 30
0.0
 11
204.2976708256606
 21
59.0184081276345
 31
0.0
  0
LINE
  5
609
  8
0
  6
DASHED2
 62
     7
 10
98.21611075583786
 20
75.77749624064684
 30
0.0
 11
92.61156185643037
 21
82.00197838830094
 31
0.0
  0
LINE
  5
60A
  8
0
  6
DASHED2
 62
     7
 10
92.61156185643043
 20
82.001978388301
 30
0.0
 11
95.58410756171631
 21
84.6784705632006
 31
0.0
  0
LINE
  5
60B
  8
0
  6
DASHED2
 62
     7
 10
95.78036572337538
 20
85.28251521539484
 30
0.0
 11
91.9903225776446
 21
81.86994503891547
 31
0.0
  0
LINE
  5
60C
  8
0
  6
DASHED2
 62
     7
 10
91.99031579576464
 20
81.8699284667412
 30
0.0
 11
92.61156185643043
 21
82.001978388301
 31
0.0
  0
LINE
  5
60D
  8
0
  6
DASHED2
 62
     7
 10
91.99031874884855
 20
81.8699492912243
 30
0.0
 11
87.22302076510894
 21
87.16457009388552
 31
0.0
  0
LINE
  5
60E
  8
0
  6
DASHED2
 62
     7
 10
101.0723971717316
 20
78.58317500067709
 30
0.0
 11
95.58414115833995
 21
84.67850081373642
 31
0.0
  0
LINE
  5
60F
  8
0
  6
DASHED2
 62
     7
 10
95.78037561212261
 20
85.28252135943414
 30
0.0
 11
95.58410756171631
 21
84.6784705632006
 31
0.0
  0
LINE
  5
610
  8
0
  6
DASHED2
 62
     7
 10
95.78036444711003
 20
85.28251663283105
 30
0.0
 11
90.96265363604422
 21
90.63312655242868
 31
0.0
  0
LINE
  5
611
  8
0
  6
DASHED2
 62
     7
 10
93.4382448620166
 20
88.55619103801853
 30
0.0
 11
88.97937590915225
 21
84.5414073998654
 31
0.0
  0
LINE
  5
612
  8
0
  6
DASHED2
 62
     7
 10
88.97939475933646
 20
84.54143207241974
 30
0.0
 11
86.88861920103227
 21
86.86347357317136
 31
0.0
  0
LINE
  5
613
  8
0
  6
DASHED2
 62
     7
 10
93.43826626473154
 20
88.55621287570038
 30
0.0
 11
91.21194166294869
 21
91.02879684051253
 31
0.0
  0
LINE
  5
614
  8
0
  6
DASHED2
 62
     7
 10
-110.4420874586723
 20
-33.50844085068078
 30
0.0
 11
-105.4421175772533
 21
-30.62170684189172
 31
0.0
  0
LINE
  5
615
  8
0
  6
DASHED2
 62
     7
 10
-110.4420547636784
 20
-33.50843907938165
 30
0.0
 11
-110.4420547636784
 21
-42.50845052347344
 31
0.0
  0
LINE
  5
616
  8
0
  6
DASHED2
 62
     7
 10
-110.4420547636784
 20
-33.50843907938165
 30
0.0
 11
-106.2459739749283
 21
-33.50843907938165
 31
0.0
  0
LINE
  5
617
  8
0
  6
DASHED2
 62
     7
 10
-99.44204279700912
 20
-30.62167164276602
 30
0.0
 11
-94.4420729155901
 21
-33.50840599568059
 31
0.0
  0
LINE
  5
618
  8
0
  6
DASHED2
 62
     7
 10
-98.71444318041833
 20
-33.50843907938165
 30
0.0
 11
-94.44205476367839
 21
-33.50843907938165
 31
0.0
  0
LINE
  5
619
  8
0
  6
DASHED2
 62
     7
 10
-94.44205476367839
 20
-33.50843907938165
 30
0.0
 11
-94.44205476367839
 21
-42.50845052347344
 31
0.0
  0
LINE
  5
61A
  8
0
  6
DASHED2
 62
     7
 10
-99.44208528125651
 20
-30.62167073831719
 30
0.0
 11
-105.4420852812565
 21
-30.62167073831719
 31
0.0
  0
LINE
  5
61B
  8
0
  6
DASHED2
 62
     7
 10
-99.44208528125651
 20
-30.62170888528985
 30
0.0
 11
-105.4420852812565
 21
-30.62170888528985
 31
0.0
  0
LINE
  5
61C
  8
0
  6
DASHED2
 62
     7
 10
-104.9920730742253
 20
-18.62171269998711
 30
0.0
 11
-104.9920730742253
 21
-30.62169362650079
 31
0.0
  0
LINE
  5
61D
  8
0
  6
DASHED2
 62
     7
 10
-105.4420547636784
 20
-22.62171269998711
 30
0.0
 11
-105.4420547636784
 21
-30.62168981180352
 31
0.0
  0
LINE
  5
61E
  8
0
  6
DASHED2
 62
     7
 10
-99.89206697070964
 20
-18.62170888528985
 30
0.0
 11
-99.89206697070964
 21
-30.62170125589532
 31
0.0
  0
LINE
  5
61F
  8
0
  6
DASHED2
 62
     7
 10
-99.44205476367839
 20
-22.62170888528985
 30
0.0
 11
-99.44205476367839
 21
-30.62168981180352
 31
0.0
  0
LINE
  5
620
  8
0
  6
DASHED2
 62
     7
 10
-104.4420547636784
 20
-18.30413666301961
 30
0.0
 11
-100.4420999723948
 21
-18.30413666301961
 31
0.0
  0
LINE
  5
621
  8
0
  6
DASHED2
 62
     7
 10
-99.89205551077353
 20
-18.62170492698883
 30
0.0
 11
-100.4420999723948
 21
-18.30413666301961
 31
0.0
  0
LINE
  5
622
  8
0
  6
DASHED2
 62
     7
 10
-99.89206697070964
 20
-18.62170697794122
 30
0.0
 11
-104.9920730742253
 21
-18.62170697794122
 31
0.0
  0
LINE
  5
623
  8
0
  6
DASHED2
 62
     7
 10
-104.9920892030933
 20
-18.62169920037908
 30
0.0
 11
-104.4420547636784
 21
-18.30413666301961
 31
0.0
  0
LINE
  5
624
  8
0
  6
DASHED2
 62
     7
 10
-100.4420547636784
 20
-0.0084619675652373
 30
0.0
 11
-100.4420547636784
 21
-18.30413666301961
 31
0.0
  0
LINE
  5
625
  8
0
  6
DASHED2
 62
     7
 10
-104.4420547636784
 20
-0.0084619675652373
 30
0.0
 11
-104.4420547636784
 21
-18.30413666301961
 31
0.0
  0
LINE
  5
626
  8
0
  6
DASHED2
 62
     7
 10
-99.44208528125651
 20
-22.62170697794122
 30
0.0
 11
-105.4420852812565
 21
-22.62170697794122
 31
0.0
  0
LINE
  5
627
  8
0
  6
DASHED2
 62
     7
 10
-98.53021174715019
 20
-33.17757120413235
 30
0.0
 11
-98.53021174715019
 21
-31.49131866039245
 31
0.0
  0
LINE
  5
628
  8
0
  6
DASHED2
 62
     7
 10
-105.8727866015666
 20
-33.80066765162708
 30
0.0
 11
-99.08760766559709
 21
-33.80066765162708
 31
0.0
  0
LINE
  5
629
  8
0
  6
DASHED2
 62
     7
 10
-104.4802237768573
 20
-33.0367402146771
 30
0.0
 11
-104.4802237768573
 21
-31.56459517798403
 31
0.0
  0
LINE
  5
62A
  8
0
  6
DASHED2
 62
     7
 10
-100.4802162666722
 20
-33.0367402146771
 30
0.0
 11
-100.4802162666722
 21
-31.56459517798403
 31
0.0
  0
LINE
  5
62B
  8
0
  6
DASHED2
 62
     7
 10
-105.0932837561452
 20
-37.00066450450193
 30
0.0
 11
-99.80126120878168
 21
-37.00066450450193
 31
0.0
  0
ARC
  5
62C
  8
0
  6
DASHED2
 62
     7
 10
-102.4802085776733
 20
-33.80066765162708
 30
0.0
 40
2.999999910593036
 50
90.0
 51
131.8103131551269
  0
ARC
  5
62D
  8
0
  6
DASHED2
 62
     7
 10
-102.4802085776733
 20
-30.80066774103405
 30
0.0
 40
2.999999910593036
 50
228.1896986840186
 51
311.8102840131374
  0
ARC
  5
62E
  8
0
  6
DASHED2
 62
     7
 10
-102.4802085776733
 20
-33.80066765162708
 30
0.0
 40
2.999999910593036
 50
48.18968684487312
 51
90.0
  0
ARC
  5
62F
  8
0
  6
DASHED2
 62
     7
 10
-102.4802085776733
 20
-38.00067210409391
 30
0.0
 40
3.299999973177911
 50
0.0000179860893428
 51
17.63970551769929
  0
ARC
  5
630
  8
0
  6
DASHED2
 62
     7
 10
-96.68423401896149
 20
-35.59614260422127
 30
0.0
 40
2.999999910593036
 50
143.2380051083128
 51
207.8898300556071
  0
ARC
  5
631
  8
0
  6
DASHED2
 62
     7
 10
-105.4802084882663
 20
-32.86531916876045
 30
0.0
 40
1.0
 50
290.7154669700721
 51
0.0000179860893428
  0
ARC
  5
632
  8
0
  6
DASHED2
 62
     7
 10
-99.48020866708026
 20
-32.86531916876045
 30
0.0
 40
1.0
 50
179.9999820139107
 51
249.2845330299279
  0
ARC
  5
633
  8
0
  6
DASHED2
 62
     7
 10
-99.48020866708026
 20
-32.86531916876045
 30
0.0
 40
1.0
 50
290.7154669700721
 51
341.8051248674166
  0
ARC
  5
634
  8
0
  6
DASHED2
 62
     7
 10
-99.48020866708026
 20
-31.80357069576435
 30
0.0
 40
1.0
 50
90.0
 51
179.9999820139107
  0
ARC
  5
635
  8
0
  6
DASHED2
 62
     7
 10
-105.4802084882663
 20
-31.80357069576435
 30
0.0
 40
1.0
 50
0.0000179860893428
 51
90.0
  0
ARC
  5
636
  8
0
  6
DASHED2
 62
     7
 10
-99.48020866708026
 20
-31.80357069576435
 30
0.0
 40
1.0
 50
18.19486329343793
 51
90.0
  0
ARC
  5
637
  8
0
  6
DASHED2
 62
     7
 10
-102.4802085776733
 20
-38.00067210409391
 30
0.0
 40
3.299999973177911
 50
162.3602944823007
 51
179.9999820139107
  0
ARC
  5
638
  8
0
  6
DASHED2
 62
     7
 10
-108.2761831363851
 20
-35.59614260422127
 30
0.0
 40
2.999999910593036
 50
332.1068914535913
 51
36.76199489168723
  0
ARC
  5
639
  8
0
  6
DASHED2
 62
     7
 10
-105.4802084882663
 20
-32.86531916876045
 30
0.0
 40
1.0
 50
198.1948751325834
 51
249.2845330299279
  0
ARC
  5
63A
  8
0
  6
DASHED2
 62
     7
 10
-105.4802084882663
 20
-31.80357069576435
 30
0.0
 40
1.0
 50
90.0
 51
161.8051367065621
  0
LINE
  5
63B
  8
0
  6
DASHED2
 62
     7
 10
-105.7520869415726
 20
-30.80066774103405
 30
0.0
 11
-99.13201250297527
 21
-30.80066774103405
 31
0.0
  0
LINE
  5
63C
  8
0
  6
DASHED2
 62
     7
 10
-104.8802176614209
 20
-40.30067127260912
 30
0.0
 11
-100.0802223821086
 21
-40.30067127260912
 31
0.0
  0
LINE
  5
63D
  8
0
  6
DASHED2
 62
     7
 10
-105.780226789872
 20
-38.00067210409391
 30
0.0
 11
-99.18021325365754
 21
-38.00067210409391
 31
0.0
  0
LINE
  5
63E
  8
0
  6
DASHED2
 62
     7
 10
-99.18021130313099
 20
-38.00066635193362
 30
0.0
 11
-100.0802112294177
 21
-40.30066667879936
 31
0.0
  0
LINE
  5
63F
  8
0
  6
DASHED2
 62
     7
 10
-104.8802250541232
 20
-40.30066832407937
 30
0.0
 11
-105.7802249804099
 21
-38.00066799721351
 31
0.0
  0
ARC
  5
640
  8
0
  6
DASHED2
 62
     7
 10
-102.4802085776733
 20
-39.82278890159722
 30
0.0
 40
1.199999982118607
 50
203.46797241713
 51
336.5320171102151
  0
LINE
  5
641
  8
0
  6
DASHED2
 62
     7
 10
-106.4302054081964
 20
-33.17757120413235
 30
0.0
 11
-106.4302054081964
 21
-31.49131866039245
 31
0.0
  0
LINE
  5
642
  8
0
  6
DASHED2
 62
     7
 10
108.149497723479
 20
117.5443115810959
 30
0.0
 11
108.149497723479
 21
114.8508442496181
 31
0.0
  0
LINE
  5
643
  8
0
  6
DASHED2
 62
     7
 10
158.149492537875
 20
117.5443085146609
 30
0.0
 11
158.149492537875
 21
114.8508442496181
 31
0.0
  0
LINE
  5
644
  8
0
  6
DASHED2
 62
     7
 10
78.4859688606771
 20
-20.4344859649457
 30
0.0
 11
80.8185799940004
 21
-19.08775229920678
 31
0.0
  0
LINE
  5
645
  8
0
  6
DASHED2
 62
     7
 10
53.48597410908977
 20
22.86678126662899
 30
0.0
 11
55.81858258680239
 21
24.21351339915037
 31
0.0
  0
LINE
  5
646
  8
0
  6
DASHED2
 62
     7
 10
212.8108771505801
 20
22.8655432469957
 30
0.0
 11
210.4782660172568
 21
24.21227691273464
 31
0.0
  0
LINE
  5
647
  8
0
  6
DASHED2
 62
     7
 10
187.8108770877714
 20
-20.4357209181439
 30
0.0
 11
185.4782686100588
 21
-19.08898878562251
 31
0.0
  0
LINE
  5
648
  8
0
  6
DASHED2
 62
     7
 10
93.1501327044434
 20
112.1455956361612
 30
0.0
 11
93.1501327044434
 21
87.4910952599012
 31
0.0
  0
LINE
  5
649
  8
0
  6
DASHED2
 62
     7
 10
90.77322924134509
 20
94.54124292747196
 30
0.0
 11
92.45948178508499
 21
94.54124292747196
 31
0.0
  0
LINE
  5
64A
  8
0
  6
DASHED2
 62
     7
 10
90.77322924134509
 20
102.4412365885182
 30
0.0
 11
92.45948178508499
 21
102.4412365885182
 31
0.0
  0
LINE
  5
64B
  8
0
  6
DASHED2
 62
     7
 10
90.15013279385036
 20
101.8838177818884
 30
0.0
 11
90.15013279385036
 21
95.09863884591886
 31
0.0
  0
LINE
  5
64C
  8
0
  6
DASHED2
 62
     7
 10
90.91406023080035
 20
100.491254957179
 30
0.0
 11
92.38620526749341
 21
100.491254957179
 31
0.0
  0
LINE
  5
64D
  8
0
  6
DASHED2
 62
     7
 10
90.91406023080035
 20
96.49124744699401
 30
0.0
 11
92.38620526749341
 21
96.49124744699401
 31
0.0
  0
ARC
  5
64E
  8
0
  6
DASHED2
 62
     7
 10
90.15013279385036
 20
98.49123975799506
 30
0.0
 40
2.999999910593036
 50
0.0
 51
41.81031315512688
  0
ARC
  5
64F
  8
0
  6
DASHED2
 62
     7
 10
93.1501327044434
 20
98.49123975799506
 30
0.0
 40
2.999999910593036
 50
138.1896986840186
 51
221.8102840131373
  0
ARC
  5
650
  8
0
  6
DASHED2
 62
     7
 10
90.15013279385036
 20
98.49123975799506
 30
0.0
 40
2.999999910593036
 50
318.1896868448731
 51
0.0
  0
ARC
  5
651
  8
0
  6
DASHED2
 62
     7
 10
88.35465784125617
 20
104.2872143167069
 30
0.0
 40
2.999999910593036
 50
242.1068914535913
 51
306.7619948916872
  0
ARC
  5
652
  8
0
  6
DASHED2
 62
     7
 10
88.35465784125617
 20
92.69526519928326
 30
0.0
 40
2.999999910593036
 50
53.23800510831276
 51
117.8898300556071
  0
ARC
  5
653
  8
0
  6
DASHED2
 62
     7
 10
91.08548127671699
 20
101.4912396685881
 30
0.0
 40
1.0
 50
200.7154669700721
 51
270.0000179860893
  0
ARC
  5
654
  8
0
  6
DASHED2
 62
     7
 10
91.08548127671699
 20
101.4912396685881
 30
0.0
 40
1.0
 50
108.1948751325834
 51
159.2845330299279
  0
ARC
  5
655
  8
0
  6
DASHED2
 62
     7
 10
91.08548127671699
 20
95.49123984740203
 30
0.0
 40
1.0
 50
89.99998201391067
 51
159.2845330299279
  0
ARC
  5
656
  8
0
  6
DASHED2
 62
     7
 10
91.08548127671699
 20
95.49123984740203
 30
0.0
 40
1.0
 50
200.7154669700721
 51
251.8051248674166
  0
ARC
  5
657
  8
0
  6
DASHED2
 62
     7
 10
92.14722974971309
 20
101.4912396685881
 30
0.0
 40
1.0
 50
0.0
 51
71.80513670656207
  0
ARC
  5
658
  8
0
  6
DASHED2
 62
     7
 10
92.14722974971309
 20
95.49123984740203
 30
0.0
 40
1.0
 50
0.0
 51
89.99998201391067
  0
ARC
  5
659
  8
0
  6
DASHED2
 62
     7
 10
92.14722974971309
 20
101.4912396685881
 30
0.0
 40
1.0
 50
270.0000179860893
 51
0.0
  0
ARC
  5
65A
  8
0
  6
DASHED2
 62
     7
 10
92.14722974971309
 20
95.49123984740203
 30
0.0
 40
1.0
 50
288.1948632934379
 51
0.0
  0
LINE
  5
65B
  8
0
  6
DASHED2
 62
     7
 10
93.1501327044434
 20
104.4912395791811
 30
0.0
 11
108.1501360125011
 21
104.4912395791811
 31
0.0
  0
LINE
  5
65C
  8
0
  6
DASHED2
 62
     7
 10
93.6501327044434
 20
104.4912395791811
 30
0.0
 11
93.1501327044434
 21
103.9912395791811
 31
0.0
  0
LINE
  5
65D
  8
0
  6
DASHED2
 62
     7
 10
93.1501327044434
 20
92.491239936809
 30
0.0
 11
108.1501360125011
 21
92.491239936809
 31
0.0
  0
LINE
  5
65E
  8
0
  6
DASHED2
 62
     7
 10
83.6501291728683
 20
100.8912488417427
 30
0.0
 11
83.6501291728683
 21
96.09125356243038
 31
0.0
  0
LINE
  5
65F
  8
0
  6
DASHED2
 62
     7
 10
85.95012834138353
 20
101.7912579701937
 30
0.0
 11
85.95012834138353
 21
95.1912444339793
 31
0.0
  0
LINE
  5
660
  8
0
  6
DASHED2
 62
     7
 10
85.95013409354382
 20
95.19124248345275
 30
0.0
 11
83.65013376667807
 21
96.0912424097395
 31
0.0
  0
LINE
  5
661
  8
0
  6
DASHED2
 62
     7
 10
83.65013212139806
 20
100.8912562344449
 30
0.0
 11
85.95013244826393
 21
101.7912561607317
 31
0.0
  0
LINE
  5
662
  8
0
  6
DASHED2
 62
     7
 10
86.95013594097551
 20
101.104314936467
 30
0.0
 11
86.95013594097551
 21
95.81229238910345
 31
0.0
  0
ARC
  5
663
  8
0
  6
DASHED2
 62
     7
 10
85.95012834138353
 20
98.49123975799506
 30
0.0
 40
3.299999973177911
 50
72.3602944823007
 51
89.99998201391067
  0
ARC
  5
664
  8
0
  6
DASHED2
 62
     7
 10
85.95012834138353
 20
98.49123975799506
 30
0.0
 40
3.299999973177911
 50
270.0000179860893
 51
287.6397055176993
  0
ARC
  5
665
  8
0
  6
DASHED2
 62
     7
 10
84.1280115438802
 20
98.49123975799506
 30
0.0
 40
1.199999982118607
 50
113.46797241713
 51
246.5320171102152
  0
LINE
  5
666
  8
0
  6
DASHED2
 62
     7
 10
158.1501308268971
 20
104.4912395791811
 30
0.0
 11
181.1501378006404
 21
104.4912395791811
 31
0.0
  0
LINE
  5
667
  8
0
  6
DASHED2
 62
     7
 10
158.1501308268971
 20
92.491239936809
 30
0.0
 11
181.1501430231997
 21
92.491239936809
 31
0.0
  0
LINE
  5
668
  8
0
  6
DASHED2
 62
     7
 10
172.6501303798624
 20
104.4912395791811
 30
0.0
 11
173.1501303798624
 21
103.9912395791811
 31
0.0
  0
LINE
  5
669
  8
0
  6
DASHED2
 62
     7
 10
173.1501303798624
 20
92.991239936809
 30
0.0
 11
172.6501303798624
 21
92.491239936809
 31
0.0
  0
LINE
  5
66A
  8
0
  6
DASHED2
 62
     7
 10
173.1501303798624
 20
103.9912395791811
 30
0.0
 11
173.1501303798624
 21
92.991239936809
 31
0.0
  0
LINE
  5
66B
  8
0
  6
DASHED2
 62
     7
 10
181.1501430231997
 20
92.491239936809
 30
0.0
 11
181.2944861137974
 21
92.74124949895861
 31
0.0
  0
LINE
  5
66C
  8
0
  6
DASHED2
 62
     7
 10
181.1501378006404
 20
104.4912395791811
 30
0.0
 11
181.1501378006404
 21
92.491239936809
 31
0.0
  0
LINE
  5
66D
  8
0
  6
DASHED2
 62
     7
 10
181.1501430231997
 20
92.74124755875272
 30
0.0
 11
196.5826671308518
 21
92.74124755875272
 31
0.0
  0
LINE
  5
66E
  8
0
  6
DASHED2
 62
     7
 10
181.2944559544011
 20
104.241243572902
 30
0.0
 11
181.2944841203883
 21
92.74124773032582
 31
0.0
  0
LINE
  5
66F
  8
0
  6
DASHED2
 62
     7
 10
181.2944512181101
 20
104.2412434013289
 30
0.0
 11
184.9013362387288
 21
104.2412434013289
 31
0.0
  0
LINE
  5
670
  8
0
  6
DIVIDE
 62
     7
 10
-131.442022585925
 20
17.99151961460009
 30
0.0
 11
-131.442022585925
 21
27.43567584694595
 31
0.0
  0
LINE
  5
671
  8
0
  6
DIVIDE
 62
     7
 10
-130.4420263944535
 20
16.99153490319103
 30
0.0
 11
-131.4420137217451
 21
17.99152223048264
 31
0.0
  0
LINE
  5
672
  8
0
  6
DIVIDE
 62
     7
 10
-130.4420263944535
 20
16.99153490319103
 30
0.0
 11
-126.4420303643309
 21
16.99153490319103
 31
0.0
  0
TEXT
  5
673
  8
LAYER0015
 62
     5
 10
79.00056360052228
 20
98.80235434074285
 30
0.0
 40
2.5
  1
N MAX 5500 AT ΣS MAX
 50
240.000000445292
 41
1.050801549553871
  7
DCSTYLE0
 72
     5
 11
53.98147942412112
 21
55.46802861059898
 31
0.0
  0
TEXT
  5
674
  8
LAYER0015
 62
     5
 10
82.4646651845728
 20
96.8023543945875
 30
0.0
 40
2.5
  1
ΣS MAX 55KN
 50
240.000000445292
 41
1.033643088405489
  7
DCSTYLE0
 72
     5
 11
68.86733664513184
 21
73.25109009436589
 31
0.0
  0
TEXT
  5
675
  8
LAYER0015
 62
     5
 10
85.92876676862332
 20
94.8023544484322
 30
0.0
 40
2.5
  1
F MAX  28KN
 50
240.000000445292
 41
1.028987038457716
  7
DCSTYLE0
 72
     5
 11
72.33143822918237
 21
71.2510901482106
 31
0.0
  0
LINE
  5
676
  8
0
  6
CONTINUOUS
 62
     3
 10
-166.9419995350977
 20
-7.393456474401168
 30
0.0
 11
-116.9420241624679
 21
-7.393456474401168
 31
0.0
  0
LINE
  5
677
  8
0
  6
CONTINUOUS
 62
     3
 10
-166.9419995350977
 20
-17.39345647440117
 30
0.0
 11
-116.9420241624679
 21
-17.39345647440117
 31
0.0
  0
LINE
  5
678
  8
0
  6
CONTINUOUS
 62
     3
 10
-134.9419995350977
 20
-17.39345647440117
 30
0.0
 11
-134.9419995350977
 21
-7.393456474401168
 31
0.0
  0
LINE
  5
679
  8
0
  6
CONTINUOUS
 62
     3
 10
-146.7420211107101
 20
-17.89345647440117
 30
0.0
 11
-116.9420241624679
 21
-17.89345647440117
 31
0.0
  0
LINE
  5
67A
  8
0
  6
CONTINUOUS
 62
     3
 10
-34.94202111071004
 20
-1.00846196756523
 30
0.0
 11
-43.24202111071003
 21
-1.00846196756523
 31
0.0
  0
LINE
  5
67B
  8
0
  6
CONTINUOUS
 62
     3
 10
-41.94202111071004
 20
-1.00846196756523
 30
0.0
 11
-41.94202111071004
 21
2.49153803243477
 31
0.0
  0
LINE
  5
67C
  8
0
  6
CONTINUOUS
 62
     3
 10
-64.4420380574999
 20
9.49153803243477
 30
0.0
 11
-62.44202812915685
 21
9.49153803243477
 31
0.0
  0
LINE
  5
67D
  8
0
  6
CONTINUOUS
 62
     3
 10
-41.94202111071004
 20
17.99153803243476
 30
0.0
 11
-34.94202111071004
 21
17.99153803243476
 31
0.0
  0
LINE
  5
67E
  8
0
  6
CONTINUOUS
 62
     3
 10
-41.94202111071004
 20
12.99153803243477
 30
0.0
 11
-34.94202111071004
 21
12.99153803243477
 31
0.0
  0
LINE
  5
67F
  8
0
  6
CONTINUOUS
 62
     3
 10
-41.94202111071004
 20
8.49153803243477
 30
0.0
 11
-41.94202111071004
 21
20.49155390217095
 31
0.0
  0
LINE
  5
680
  8
0
  6
CONTINUOUS
 62
     3
 10
-39.44202111071004
 20
10.99153803243477
 30
0.0
 11
-34.94202111071004
 21
10.99153803243477
 31
0.0
  0
LINE
  5
681
  8
0
  6
CONTINUOUS
 62
     3
 10
-39.44202111071004
 20
0.4915380324347698
 30
0.0
 11
-35.44202111071004
 21
0.4915380324347698
 31
0.0
  0
LINE
  5
682
  8
0
  6
CONTINUOUS
 62
     3
 10
-39.44202111071004
 20
10.99153803243477
 30
0.0
 11
-39.44202111071004
 21
-0.0084619675652302
 31
0.0
  0
LINE
  5
683
  8
0
  6
CONTINUOUS
 62
     3
 10
-39.44202111071004
 20
10.49153803243477
 30
0.0
 11
-35.44202111071004
 21
10.49153803243477
 31
0.0
  0
LINE
  5
684
  8
0
  6
CONTINUOUS
 62
     3
 10
-39.44202111071004
 20
0.4915380324347698
 30
0.0
 11
-35.44202111071004
 21
0.4915380324347698
 31
0.0
  0
LINE
  5
685
  8
0
  6
CONTINUOUS
 62
     3
 10
-35.44202111071004
 20
10.49153803243477
 30
0.0
 11
-35.44202111071004
 21
0.4915380324347698
 31
0.0
  0
LINE
  5
686
  8
0
  6
CONTINUOUS
 62
     3
 10
-51.44202111071004
 20
8.49153803243477
 30
0.0
 11
-39.44202111071004
 21
8.49153803243477
 31
0.0
  0
LINE
  5
687
  8
0
  6
CONTINUOUS
 62
     3
 10
-51.44202111071004
 20
2.49153803243477
 30
0.0
 11
-39.44202111071004
 21
2.49153803243477
 31
0.0
  0
LINE
  5
688
  8
0
  6
CONTINUOUS
 62
     3
 10
-51.44202111071004
 20
8.49153803243477
 30
0.0
 11
-51.44202111071004
 21
2.49153803243477
 31
0.0
  0
LINE
  5
689
  8
0
  6
CONTINUOUS
 62
     3
 10
-39.44202111071004
 20
-0.0084619675652302
 30
0.0
 11
-34.94202111071004
 21
-0.0084619675652302
 31
0.0
  0
LINE
  5
68A
  8
0
  6
CONTINUOUS
 62
     3
 10
-62.00647662060535
 20
108.0580194060536
 30
0.0
 11
-62.00647662060535
 21
111.4915070231183
 31
0.0
  0
LINE
  5
68B
  8
0
  6
CONTINUOUS
 62
     3
 10
-56.9064399995116
 20
107.1247720292893
 30
0.0
 11
-56.9064399995116
 21
111.4915070231183
 31
0.0
  0
LINE
  5
68C
  8
0
  6
CONTINUOUS
 62
     3
 10
-41.94202111071004
 20
8.99153803243477
 30
0.0
 11
-39.44202111071004
 21
8.99153803243477
 31
0.0
  0
LINE
  5
68D
  8
0
  6
CONTINUOUS
 62
     3
 10
-41.94202111071004
 20
1.99153803243477
 30
0.0
 11
-39.44202111071004
 21
1.99153803243477
 31
0.0
  0
LINE
  5
68E
  8
0
  6
CONTINUOUS
 62
     3
 10
-67.94202111071004
 20
55.49153993978339
 30
0.0
 11
-67.94202111071004
 21
24.49153612508613
 31
0.0
  0
LINE
  5
68F
  8
0
  6
CONTINUOUS
 62
     3
 10
-77.94202111071004
 20
55.99153993978339
 30
0.0
 11
-67.94202111071004
 21
55.49153803243476
 31
0.0
  0
LINE
  5
690
  8
0
  6
CONTINUOUS
 62
     3
 10
-77.94202111071004
 20
23.99153612508611
 30
0.0
 11
-67.94202111071004
 21
24.49153803243476
 31
0.0
  0
LINE
  5
691
  8
0
  6
CONTINUOUS
 62
     3
 10
-44.94202111071004
 20
55.49153993978339
 30
0.0
 11
-44.94202111071004
 21
24.49153803243476
 31
0.0
  0
LINE
  5
692
  8
0
  6
CONTINUOUS
 62
     3
 10
-54.44202111071004
 20
63.79154487206755
 30
0.0
 11
-54.44202111071004
 21
59.49154505088146
 31
0.0
  0
LINE
  5
693
  8
0
  6
CONTINUOUS
 62
     3
 10
-54.44202111071004
 20
20.49155390217095
 30
0.0
 11
-54.44202111071004
 21
9.491569458982783
 31
0.0
  0
LINE
  5
694
  8
0
  6
CONTINUOUS
 62
     3
 10
-47.94202111071004
 20
59.49154505088146
 30
0.0
 11
-47.94202111071004
 21
63.79154487206755
 31
0.0
  0
LINE
  5
695
  8
0
  6
CONTINUOUS
 62
     3
 10
-72.94202383762254
 20
70.49155238225256
 30
0.0
 11
-65.44200948780477
 21
62.99153803243476
 31
0.0
  0
LINE
  5
696
  8
0
  6
CONTINUOUS
 62
     3
 10
-56.44202111071004
 20
9.491569458982783
 30
0.0
 11
-56.44202111071004
 21
20.49155390217095
 31
0.0
  0
LINE
  5
697
  8
0
  6
CONTINUOUS
 62
     3
 10
-65.44200948780477
 20
62.99153803243476
 30
0.0
 11
-62.04202052956487
 21
62.99153803243476
 31
0.0
  0
LINE
  5
698
  8
0
  6
CONTINUOUS
 62
     3
 10
-116.9420241624679
 20
-6.893456474401168
 30
0.0
 11
-146.7420211107101
 21
-6.893456474401168
 31
0.0
  0
LINE
  5
699
  8
0
  6
CONTINUOUS
 62
     3
 10
-106.9420241624679
 20
-4.393456474401168
 30
0.0
 11
-106.9420241624679
 21
-20.39345647440117
 31
0.0
  0
LINE
  5
69A
  8
0
  6
CONTINUOUS
 62
     3
 10
-116.9420241624679
 20
-4.393456474401168
 30
0.0
 11
-106.9420241624679
 21
-4.393456474401168
 31
0.0
  0
LINE
  5
69B
  8
0
  6
CONTINUOUS
 62
     3
 10
-116.9420241624679
 20
-20.39345647440117
 30
0.0
 11
-106.9420241624679
 21
-20.39345647440117
 31
0.0
  0
LINE
  5
69C
  8
0
  6
CONTINUOUS
 62
     3
 10
-116.9420241624679
 20
-3.243456474401169
 30
0.0
 11
-51.94202111071004
 21
-3.243456474401169
 31
0.0
  0
LINE
  5
69D
  8
0
  6
CONTINUOUS
 62
     3
 10
-116.9420241624679
 20
-21.54345647440117
 30
0.0
 11
-51.94202111071004
 21
-21.54345647440117
 31
0.0
  0
LINE
  5
69E
  8
0
  6
CONTINUOUS
 62
     3
 10
-51.94202111071004
 20
-2.79274887502727
 30
0.0
 11
-51.94202111071004
 21
-21.99416407377507
 31
0.0
  0
CIRCLE
  5
69F
  8
0
  6
CONTINUOUS
 62
     3
 10
133.1495626707545
 20
15.49171005851956
 30
0.0
 40
2.5
  0
CIRCLE
  5
6A0
  8
0
  6
CONTINUOUS
 62
     3
 10
154.3670397471811
 20
52.24170878526527
 30
0.0
 40
2.499999999999999
  0
CIRCLE
  5
6A1
  8
0
  6
CONTINUOUS
 62
     3
 10
111.9319685419122
 20
52.24182644399485
 30
0.0
 40
2.499999999999999
  0
CIRCLE
  5
6A2
  8
0
  6
CONTINUOUS
 62
     3
 10
133.1494903801653
 20
39.99158230101818
 30
0.0
 40
15.0
  0
CIRCLE
  5
6A3
  8
0
  6
CONTINUOUS
 62
     3
 10
133.1495911710512
 20
39.99182685346761
 30
0.0
 40
11.0
  0
CIRCLE
  5
6A4
  8
0
  6
CONTINUOUS
 62
     3
 10
133.1494894086313
 20
5.491668411465378
 30
0.0
 40
5.0
  0
CIRCLE
  5
6A5
  8
0
  6
CONTINUOUS
 62
     3
 10
133.1494894086313
 20
5.491668411465378
 30
0.0
 40
5.5
  0
CIRCLE
  5
6A6
  8
0
  6
CONTINUOUS
 62
     3
 10
163.0270005939293
 20
57.241536721675
 30
0.0
 40
4.999999999999999
  0
CIRCLE
  5
6A7
  8
0
  6
CONTINUOUS
 62
     3
 10
163.0270005939293
 20
57.241536721675
 30
0.0
 40
5.499999999999999
  0
CIRCLE
  5
6A8
  8
0
  6
CONTINUOUS
 62
     3
 10
103.2715444021395
 20
57.24128625489197
 30
0.0
 40
4.999999999999998
  0
CIRCLE
  5
6A9
  8
0
  6
CONTINUOUS
 62
     3
 10
103.2715444021395
 20
57.24128625489197
 30
0.0
 40
5.499999999999998
  0
LINE
  5
6AA
  8
0
  6
CONTINUOUS
 62
     3
 10
-49.94202075308218
 20
120.4915375406964
 30
0.0
 11
-49.94202075308218
 21
72.49153754069641
 31
0.0
  0
LINE
  5
6AB
  8
0
  6
CONTINUOUS
 62
     3
 10
-49.94202075308218
 20
72.49153754069641
 30
0.0
 11
-46.94202075308218
 21
72.49153754069641
 31
0.0
  0
LINE
  5
6AC
  8
0
  6
CONTINUOUS
 62
     3
 10
-49.94202075308218
 20
120.4915375406964
 30
0.0
 11
-49.94202075308218
 21
72.49153754069641
 31
0.0
  0
LINE
  5
6AD
  8
0
  6
CONTINUOUS
 62
     3
 10
-49.94202075308218
 20
72.49153754069641
 30
0.0
 11
-46.94202075308218
 21
72.49153754069641
 31
0.0
  0
LINE
  5
6AE
  8
0
  6
CONTINUOUS
 62
     3
 10
119.1494894086313
 20
120.4917504698815
 30
0.0
 11
115.6494974999616
 21
119.553930464438
 31
0.0
  0
LINE
  5
6AF
  8
0
  6
CONTINUOUS
 62
     3
 10
147.1494894086313
 20
120.4917504698815
 30
0.0
 11
150.649481317301
 21
119.553930464438
 31
0.0
  0
LINE
  5
6B0
  8
0
  6
CONTINUOUS
 62
     3
 10
151.149481317301
 20
76.82892824827044
 30
0.0
 11
151.149481317301
 21
68.30480052869281
 31
0.0
  0
ARC
  5
6B1
  8
0
  6
CONTINUOUS
 62
     3
 10
133.1487812449121
 20
39.99178962104864
 30
0.0
 40
40.99999982118606
 50
356.0405360443112
 51
63.95726104782543
  0
LINE
  5
6B2
  8
0
  6
CONTINUOUS
 62
     3
 10
115.1494974999616
 20
76.82962031187539
 30
0.0
 11
115.1494974999616
 21
68.30480052869281
 31
0.0
  0
LINE
  5
6B3
  8
0
  6
CONTINUOUS
 62
     3
 10
115.1494974999616
 20
68.30480052869281
 30
0.0
 11
151.149481317301
 21
68.30480052869281
 31
0.0
  0
ARC
  5
6B4
  8
0
  6
CONTINUOUS
 62
     3
 10
133.1494894086313
 20
77.49175936587432
 30
0.0
 40
5.0
 50
180.0
 51
0.0
  0
LINE
  5
6B5
  8
0
  6
CONTINUOUS
 62
     3
 10
128.1494894086313
 20
120.4917590678511
 30
0.0
 11
128.1494894086313
 21
118.4917581588805
 31
0.0
  0
LINE
  5
6B6
  8
0
  6
CONTINUOUS
 62
     3
 10
138.1494894086313
 20
120.4917590678511
 30
0.0
 11
138.1494894086313
 21
118.4917581588805
 31
0.0
  0
ARC
  5
6B7
  8
0
  6
CONTINUOUS
 62
     3
 10
133.1487812449121
 20
39.99178962104864
 30
0.0
 40
40.99999982118605
 50
116.0405360443114
 51
183.9572610478253
  0
ARC
  5
6B8
  8
0
  6
CONTINUOUS
 62
     3
 10
133.1495139955757
 20
39.99170949761375
 30
0.0
 40
40.99999982118607
 50
236.0398582796209
 51
303.9567991199572
  0
LINE
  5
6B9
  8
0
  6
CONTINUOUS
 62
     3
 10
70.43341606431045
 20
-12.38193316857902
 30
0.0
 11
72.99558796753664
 21
-14.94410507180523
 31
0.0
  0
LINE
  5
6BA
  8
0
  6
CONTINUOUS
 62
     3
 10
60.93340861825038
 20
4.072545204340528
 30
0.0
 11
62.6654602130109
 21
5.072545658825831
 31
0.0
  0
LINE
  5
6BB
  8
0
  6
CONTINUOUS
 62
     3
 10
65.93340861825038
 20
-4.587708833503854
 30
0.0
 11
67.6654602130109
 21
-3.587708379018551
 31
0.0
  0
LINE
  5
6BC
  8
0
  6
CONTINUOUS
 62
     3
 10
56.43341606431045
 20
11.86677813738525
 30
0.0
 11
55.49559605886694
 21
15.36677004605495
 31
0.0
  0
ARC
  5
6BD
  8
0
  6
CONTINUOUS
 62
     3
 10
100.6725007228856
 20
21.2424180364067
 30
0.0
 40
4.999999999999999
 50
300.0
 51
120.0
  0
LINE
  5
6BE
  8
0
  6
CONTINUOUS
 62
     3
 10
209.8634382617944
 20
11.86555156184343
 30
0.0
 11
210.801258267238
 21
15.36554347051313
 31
0.0
  0
LINE
  5
6BF
  8
0
  6
CONTINUOUS
 62
     3
 10
200.3634457078545
 20
-4.588935409045689
 30
0.0
 11
198.631394113094
 21
-3.588934954560379
 31
0.0
  0
LINE
  5
6C0
  8
0
  6
CONTINUOUS
 62
     3
 10
205.3634457078545
 20
4.071318628798693
 30
0.0
 11
203.631394113094
 21
5.071319083284003
 31
0.0
  0
LINE
  5
6C1
  8
0
  6
CONTINUOUS
 62
     3
 10
195.8634382617944
 20
-12.38315974412085
 30
0.0
 11
193.3012663585682
 21
-14.94533164734705
 31
0.0
  0
ARC
  5
6C2
  8
0
  6
CONTINUOUS
 62
     3
 10
165.6243536032193
 20
21.24119146086491
 30
0.0
 40
4.999999999999998
 50
59.99999999999996
 51
239.9999999999999
  0
CIRCLE
  5
6C3
  8
0
  6
CONTINUOUS
 62
     3
 10
102.6501276976533
 20
98.49109524435761
 30
0.0
 40
7.0
  0
CIRCLE
  5
6C4
  8
0
  6
CONTINUOUS
 62
     3
 10
163.6501276976533
 20
98.4910946303844
 30
0.0
 40
7.0
  0
CIRCLE
  5
6C5
  8
0
  6
CONTINUOUS
 62
     3
 10
199.0613864756389
 20
37.15454272983371
 30
0.0
 40
6.999999999999998
  0
CIRCLE
  5
6C6
  8
0
  6
CONTINUOUS
 62
     3
 10
168.5613859439225
 20
-15.67300659403042
 30
0.0
 40
6.999999999999998
  0
CIRCLE
  5
6C7
  8
0
  6
CONTINUOUS
 62
     3
 10
97.73674442851012
 20
-15.67178032547525
 30
0.0
 40
6.999999999999999
  0
CIRCLE
  5
6C8
  8
0
  6
CONTINUOUS
 62
     3
 10
67.23674496022656
 20
37.15576961236212
 30
0.0
 40
6.999999999999999
  0
ARC
  5
6C9
  8
0
  6
CONTINUOUS
 62
     3
 10
133.1486794824921
 20
39.99171372920091
 30
0.0
 40
80.9999995082617
 50
102.4770937710014
 51
197.5221041216061
  0
ARC
  5
6CA
  8
0
  6
CONTINUOUS
 62
     3
 10
133.1485928216687
 20
39.99179721812862
 30
0.0
 40
80.99999950826167
 50
342.4763274770818
 51
77.52283515537265
  0
ARC
  5
6CB
  8
0
  6
CONTINUOUS
 62
     3
 10
133.1487084556127
 20
39.99183052413935
 30
0.0
 40
80.99999950826168
 50
222.4763627394994
 51
317.5220688589749
  0
LINE
  5
6CC
  8
0
  6
CONTINUOUS
 62
     3
 10
117.6283603581408
 20
10.24762176911051
 30
0.0
 11
99.62836844947111
 21
41.42452229075511
 31
0.0
  0
LINE
  5
6CD
  8
0
  6
CONTINUOUS
 62
     3
 10
92.24625729921377
 20
37.1624584309663
 30
0.0
 11
99.62836844947111
 21
41.42452229075511
 31
0.0
  0
LINE
  5
6CE
  8
0
  6
CONTINUOUS
 62
     3
 10
110.2456498632205
 20
5.985211877519227
 30
0.0
 11
117.6283603581408
 21
10.24762176911051
 31
0.0
  0
LINE
  5
6CF
  8
0
  6
CONTINUOUS
 62
     3
 10
166.6679206069038
 20
41.42296935658256
 30
0.0
 11
148.6679286982341
 21
10.24606883493796
 31
0.0
  0
LINE
  5
6D0
  8
0
  6
CONTINUOUS
 62
     3
 10
156.0500398484915
 20
5.984004975149126
 30
0.0
 11
148.6679286982341
 21
10.24606883493796
 31
0.0
  0
LINE
  5
6D1
  8
0
  6
CONTINUOUS
 62
     3
 10
174.0506311018241
 20
37.16055946499125
 30
0.0
 11
166.6679206069038
 21
41.42296935658256
 31
0.0
  0
LINE
  5
6D2
  8
0
  6
CONTINUOUS
 62
     3
 10
-41.94203233128408
 20
65.29154487206755
 30
0.0
 11
-45.74203233128405
 21
65.29154487206755
 31
0.0
  0
LINE
  5
6D3
  8
0
  6
CONTINUOUS
 62
     3
 10
-41.94203233128408
 20
67.79154487206755
 30
0.0
 11
-45.74203233128405
 21
67.79154487206755
 31
0.0
  0
LINE
  5
6D4
  8
0
  6
CONTINUOUS
 62
     3
 10
-45.74203233128405
 20
67.79154487206755
 30
0.0
 11
-45.74203233128405
 21
65.29154487206755
 31
0.0
  0
LINE
  5
6D5
  8
0
  6
CONTINUOUS
 62
     3
 10
-43.24202111071003
 20
59.49154505088146
 30
0.0
 11
-43.24202111071003
 21
63.79154487206755
 31
0.0
  0
LINE
  5
6D6
  8
0
  6
CONTINUOUS
 62
     3
 10
-54.14202111071003
 20
63.79154487206755
 30
0.0
 11
-54.14202111071003
 21
59.49154505088146
 31
0.0
  0
LINE
  5
6D7
  8
0
  6
CONTINUOUS
 62
     3
 10
-43.24202111071003
 20
20.49155390217095
 30
0.0
 11
-43.24202111071003
 21
9.491569458982783
 31
0.0
  0
LINE
  5
6D8
  8
0
  6
CONTINUOUS
 62
     3
 10
-54.14202111071003
 20
12.49153803243477
 30
0.0
 11
-43.24202111071003
 21
12.49153803243477
 31
0.0
  0
LINE
  5
6D9
  8
0
  6
CONTINUOUS
 62
     3
 10
-54.14202111071003
 20
19.24153803243476
 30
0.0
 11
-43.24202111071003
 21
19.24153803243476
 31
0.0
  0
LINE
  5
6DA
  8
0
  6
CONTINUOUS
 62
     3
 10
-41.94202111071003
 20
19.24048123932567
 30
0.0
 11
-43.39570076715039
 21
19.24048123932567
 31
0.0
  0
LINE
  5
6DB
  8
0
  6
CONTINUOUS
 62
     3
 10
-54.14202111071003
 20
20.49155390217095
 30
0.0
 11
-54.14202111071003
 21
9.49156945898278
 31
0.0
  0
LINE
  5
6DC
  8
0
  6
CONTINUOUS
 62
     3
 10
-46.1933650390009
 20
-0.008461967565232
 30
0.0
 11
-41.94202111071004
 21
-0.008461967565232
 31
0.0
  0
LINE
  5
6DD
  8
0
  6
CONTINUOUS
 62
     3
 10
-43.24202111071003
 20
-1.00846196756523
 30
0.0
 11
-43.24202111071003
 21
-0.008461967565232
 31
0.0
  0
LINE
  5
6DE
  8
0
  6
DASHED2
 62
     7
 10
-34.94202111071004
 20
119.5224060551487
 30
0.0
 11
-34.94202111071004
 21
117.5070118849691
 31
0.0
  0
LINE
  5
6DF
  8
0
  6
DASHED2
 62
     7
 10
-35.91114893057217
 20
120.4915375406964
 30
0.0
 11
-34.9420174450245
 21
119.5224060551487
 31
0.0
  0
LINE
  5
6E0
  8
0
  6
DASHED2
 62
     7
 10
115.6494974999616
 20
119.553930464438
 30
0.0
 11
108.149497723479
 21
117.5443115810959
 31
0.0
  0
LINE
  5
6E1
  8
0
  6
DASHED2
 62
     7
 10
150.649481317301
 20
119.553930464438
 30
0.0
 11
158.149492537875
 21
117.5443085146609
 31
0.0
  0
LINE
  5
6E2
  8
0
  6
DASHED2
 62
     7
 10
72.99558796753664
 20
-14.94410507180523
 30
0.0
 11
78.4859688606771
 21
-20.4344859649457
 31
0.0
  0
LINE
  5
6E3
  8
0
  6
DASHED2
 62
     7
 10
55.49559605886694
 20
15.36677004605495
 30
0.0
 11
53.48597410908977
 21
22.86678126662899
 31
0.0
  0
LINE
  5
6E4
  8
0
  6
DASHED2
 62
     7
 10
210.801258267238
 20
15.36554347051313
 30
0.0
 11
212.8108771505801
 21
22.8655432469957
 31
0.0
  0
LINE
  5
6E5
  8
0
  6
DASHED2
 62
     7
 10
193.3012663585682
 20
-14.94533164734705
 30
0.0
 11
187.8108770877714
 21
-20.4357209181439
 31
0.0
  0
LINE
  5
6E6
  8
0
  6
DASHED2
 62
     7
 10
65.69534301807174
 20
87.49109547327468
 30
0.0
 11
93.1501327044434
 21
87.4910952599012
 31
0.0
  0
POINT
  5
6E7
  8
0
  6
CONTINUOUS
 62
     5
 10
-39.94202111071003
 20
-12.39345647440117
 30
0.0
  0
LINE
  5
6E8
  8
0
  6
CONTINUOUS
 62
     3
 10
-46.44276111071004
 20
-22.29364847440117
 30
0.0
 11
-46.44276111071004
 21
-2.493264474401171
 31
0.0
  0
LINE
  5
6E9
  8
0
  6
CONTINUOUS
 62
     3
 10
-46.94202111071003
 20
-3.020453474401164
 30
0.0
 11
-46.94202111071003
 21
-21.76645947440117
 31
0.0
  0
LINE
  5
6EA
  8
0
  6
CONTINUOUS
 62
     3
 10
-34.94202111071003
 20
-2.366945474401168
 30
0.0
 11
-34.94202111071003
 21
-22.41996747440117
 31
0.0
  0
LINE
  5
6EB
  8
0
  6
CONTINUOUS
 62
     3
 10
-34.94202111071004
 20
-22.91996769292449
 30
0.0
 11
-51.94202111071004
 21
-21.99416407377507
 31
0.0
  0
LINE
  5
6EC
  8
0
  6
CONTINUOUS
 62
     3
 10
-34.94202111071003
 20
-22.41996747440117
 30
0.0
 11
-35.44128111071004
 21
-22.89277847440117
 31
0.0
  0
LINE
  5
6ED
  8
0
  6
CONTINUOUS
 62
     3
 10
-46.44276111071004
 20
-22.29364847440117
 30
0.0
 11
-46.94202111071003
 21
-21.76645947440117
 31
0.0
  0
LINE
  5
6EE
  8
0
  6
CONTINUOUS
 62
     3
 10
-34.94202111071004
 20
-1.866945255877843
 30
0.0
 11
-51.94202111071004
 21
-2.79274887502727
 31
0.0
  0
LINE
  5
6EF
  8
0
  6
CONTINUOUS
 62
     3
 10
-34.94202111071003
 20
-2.366945474401168
 30
0.0
 11
-35.44128111071004
 21
-1.894134474401168
 31
0.0
  0
LINE
  5
6F0
  8
0
  6
CONTINUOUS
 62
     3
 10
-51.44276111071004
 20
-2.493264474401171
 30
0.0
 11
-51.94202111071003
 21
-3.020453474401164
 31
0.0
  0
LINE
  5
6F1
  8
0
  6
CONTINUOUS
 62
     4
 10
-34.94202111071003
 20
-22.41996747440117
 30
0.0
 11
-51.93934457447312
 21
-21.49430881944447
 31
0.0
  0
LINE
  5
6F2
  8
0
  6
CONTINUOUS
 62
     4
 10
-34.94202111071003
 20
-2.366945474401168
 30
0.0
 11
-51.93934457447312
 21
-3.292604129357853
 31
0.0
  0
ARC
  5
6F3
  8
0
  6
CONTINUOUS
 62
     4
 10
133.069397875283
 20
40.0042470874518
 30
0.0
 40
44.99999999999999
 50
112.8704284487796
 51
139.8793281419037
  0
ARC
  5
6F4
  8
0
  6
CONTINUOUS
 62
     4
 10
133.069397875283
 20
40.0042470874518
 30
0.0
 40
50.99999999999999
 50
110.055187973172
 51
137.1604047988038
  0
ARC
  5
6F5
  8
0
  6
CONTINUOUS
 62
     4
 10
133.0693978752829
 20
40.0042470874518
 30
0.0
 40
45.0
 50
40.67208917568342
 51
67.0399555133723
  0
ARC
  5
6F6
  8
0
  6
CONTINUOUS
 62
     4
 10
133.0693978752829
 20
40.0042470874518
 30
0.0
 40
51.0
 50
43.42586215267956
 51
69.86725870758272
  0
ARC
  5
6F7
  8
0
  6
CONTINUOUS
 62
     4
 10
133.069397875283
 20
40.0042470874518
 30
0.0
 40
44.99999999999999
 50
160.6720891756834
 51
187.0399555133723
  0
ARC
  5
6F8
  8
0
  6
CONTINUOUS
 62
     4
 10
133.069397875283
 20
40.0042470874518
 30
0.0
 40
50.99999999999999
 50
163.4258621526795
 51
189.8672587075827
  0
ARC
  5
6F9
  8
0
  6
CONTINUOUS
 62
     4
 10
133.0693978752829
 20
40.0042470874518
 30
0.0
 40
45.0
 50
352.8704284487796
 51
19.8793281419037
  0
ARC
  5
6FA
  8
0
  6
CONTINUOUS
 62
     4
 10
133.0693978752829
 20
40.0042470874518
 30
0.0
 40
51.0
 50
350.0551879731719
 51
17.16040479880381
  0
ARC
  5
6FB
  8
0
  6
CONTINUOUS
 62
     4
 10
133.069397875283
 20
40.00424708745189
 30
0.0
 40
44.99999999999999
 50
280.6720891756834
 51
307.0399555133722
  0
ARC
  5
6FC
  8
0
  6
CONTINUOUS
 62
     4
 10
133.069397875283
 20
40.00424708745189
 30
0.0
 40
50.99999999999999
 50
283.4258621526795
 51
309.8672587075827
  0
ARC
  5
6FD
  8
0
  6
CONTINUOUS
 62
     4
 10
133.069397875283
 20
40.00424708745189
 30
0.0
 40
44.99999999999999
 50
232.8704284487796
 51
259.8793281419037
  0
ARC
  5
6FE
  8
0
  6
CONTINUOUS
 62
     4
 10
133.069397875283
 20
40.00424708745189
 30
0.0
 40
50.99999999999999
 50
230.0551879731719
 51
257.1604047988038
  0
LINE
  5
6FF
  8
0
  6
DASHED
 62
     2
 10
-41.44168911071003
 20
-18.16696047440117
 30
0.0
 11
-44.77502111071003
 21
-12.39345747440117
 31
0.0
  0
LINE
  5
700
  8
0
  6
DASHED
 62
     2
 10
-41.44168911071003
 20
-6.61995347440117
 30
0.0
 11
-41.44168911071003
 21
-18.16695947440117
 31
0.0
  0
LINE
  5
701
  8
0
  6
DASHED
 62
     2
 10
-34.94202111071003
 20
-18.16695947440117
 30
0.0
 11
-41.44168911071003
 21
-18.16695947440117
 31
0.0
  0
LINE
  5
702
  8
0
  6
DASHED
 62
     2
 10
-34.94202111071003
 20
-15.28020747440117
 30
0.0
 11
-41.44168911071003
 21
-15.28020747440117
 31
0.0
  0
LINE
  5
703
  8
0
  6
DASHED
 62
     2
 10
-34.94202111071003
 20
-9.506705474401171
 30
0.0
 11
-41.44168911071003
 21
-9.506705474401171
 31
0.0
  0
LINE
  5
704
  8
0
  6
DASHED
 62
     2
 10
-34.94202111071003
 20
-6.61995347440117
 30
0.0
 11
-41.44168911071003
 21
-6.61995347440117
 31
0.0
  0
LINE
  5
705
  8
0
  6
DASHED
 62
     2
 10
-41.44168911071003
 20
-6.619952474401172
 30
0.0
 11
-44.77502111071003
 21
-12.39345547440117
 31
0.0
  0
INSERT
  5
706
  8
0
  6
CONTINUOUS
  2
DC_GROUP_1
 10
0.0
 20
0.0
 30
0.0
  0
INSERT
  5
707
  8
0
  6
CONTINUOUS
  2
DC_GROUP_2
 10
0.0
 20
0.0
 30
0.0
  0
INSERT
  5
708
  8
0
  6
CONTINUOUS
  2
DC_GROUP_3
 10
0.0
 20
0.0
 30
0.0
  0
INSERT
  5
709
  8
0
  6
CONTINUOUS
  2
DC_GROUP_4
 10
0.0
 20
0.0
 30
0.0
  0
INSERT
  5
70A
  8
0
  6
CONTINUOUS
  2
DC_GROUP_5
 10
0.0
 20
0.0
 30
0.0
  0
INSERT
  5
70B
  8
0
  6
CONTINUOUS
  2
DC_GROUP_6
 10
0.0
 20
0.0
 30
0.0
  0
INSERT
  5
70C
  8
0
  6
CONTINUOUS
  2
DC_GROUP_7
 10
0.0
 20
0.0
 30
0.0
  0
INSERT
  5
70D
  8
0
  6
CONTINUOUS
  2
DC_GROUP_8
 10
0.0
 20
0.0
 30
0.0
  0
INSERT
  5
70E
  8
0
  6
CONTINUOUS
  2
DC_GROUP_9
 10
0.0
 20
0.0
 30
0.0
  0
INSERT
  5
70F
  8
0
  6
CONTINUOUS
  2
DC_GROUP_10
 10
0.0
 20
0.0
 30
0.0
  0
INSERT
  5
710
  8
0
  6
CONTINUOUS
  2
DC_IMAGEDIMGROUP_1
 10
0.0
 20
0.0
 30
0.0
  0
INSERT
  5
711
  8
0
  6
CONTINUOUS
  2
DC_IMAGEDIMGROUP_2
 10
0.0
 20
0.0
 30
0.0
  0
INSERT
  5
712
  8
0
  6
CONTINUOUS
  2
DC_IMAGEDIMGROUP_3
 10
0.0
 20
0.0
 30
0.0
  0
INSERT
  5
713
  8
0
  6
CONTINUOUS
  2
DC_IMAGEDIMGROUP_4
 10
0.0
 20
0.0
 30
0.0
  0
INSERT
  5
714
  8
0
  6
CONTINUOUS
  2
DC_IMAGEDIMGROUP_5
 10
0.0
 20
0.0
 30
0.0
  0
INSERT
  5
715
  8
0
  6
CONTINUOUS
  2
DC_GROUP_12
 10
0.0
 20
0.0
 30
0.0
  0
INSERT
  5
716
  8
0
  6
CONTINUOUS
  2
DC_GROUP_13
 10
0.0
 20
0.0
 30
0.0
  0
INSERT
  5
717
  8
0
  6
CONTINUOUS
  2
DC_GROUP_14
 10
0.0
 20
0.0
 30
0.0
  0
INSERT
  5
718
  8
0
  6
CONTINUOUS
  2
DC_IMAGEDIMGROUP_6
 10
0.0
 20
0.0
 30
0.0
  0
INSERT
  5
719
  8
0
  6
CONTINUOUS
  2
DC_IMAGEDIMGROUP_7
 10
0.0
 20
0.0
 30
0.0
  0
INSERT
  5
71A
  8
0
  6
CONTINUOUS
  2
DC_IMAGEDIMGROUP_8
 10
0.0
 20
0.0
 30
0.0
  0
INSERT
  5
71B
  8
0
  6
CONTINUOUS
  2
DC_IMAGEDIMGROUP_9
 10
0.0
 20
0.0
 30
0.0
  0
INSERT
  5
71C
  8
0
  6
CONTINUOUS
  2
DC_IMAGEDIMGROUP_10
 10
0.0
 20
0.0
 30
0.0
  0
INSERT
  5
71D
  8
0
  6
CONTINUOUS
  2
DC_IMAGEDIMGROUP_11
 10
0.0
 20
0.0
 30
0.0
  0
INSERT
  5
71E
  8
0
  6
CONTINUOUS
  2
DC_IMAGEDIMGROUP_12
 10
0.0
 20
0.0
 30
0.0
  0
INSERT
  5
71F
  8
0
  6
CONTINUOUS
  2
DC_IMAGEDIMGROUP_13
 10
0.0
 20
0.0
 30
0.0
  0
INSERT
  5
720
  8
0
  6
CONTINUOUS
  2
DC_IMAGEDIMGROUP_14
 10
0.0
 20
0.0
 30
0.0
  0
INSERT
  5
721
  8
0
  6
CONTINUOUS
  2
DC_GROUP_15
 10
0.0
 20
0.0
 30
0.0
  0
INSERT
  5
722
  8
0
  6
CONTINUOUS
  2
DC_GROUP_16
 10
0.0
 20
0.0
 30
0.0
  0
INSERT
  5
723
  8
0
  6
CONTINUOUS
  2
DC_GROUP_17
 10
0.0
 20
0.0
 30
0.0
  0
INSERT
  5
724
  8
0
  6
CONTINUOUS
  2
DC_GROUP_18
 10
0.0
 20
0.0
 30
0.0
  0
INSERT
  5
725
  8
0
  6
CONTINUOUS
  2
DC_IMAGEDIMGROUP_15
 10
0.0
 20
0.0
 30
0.0
  0
INSERT
  5
726
  8
0
  6
CONTINUOUS
  2
DC_IMAGEDIMGROUP_16
 10
0.0
 20
0.0
 30
0.0
  0
INSERT
  5
727
  8
0
  6
CONTINUOUS
  2
DC_IMAGEDIMGROUP_17
 10
0.0
 20
0.0
 30
0.0
  0
INSERT
  5
728
  8
0
  6
CONTINUOUS
  2
DC_IMAGEDIMGROUP_18
 10
0.0
 20
0.0
 30
0.0
  0
INSERT
  5
729
  8
0
  6
CONTINUOUS
  2
DC_IMAGEDIMGROUP_19
 10
0.0
 20
0.0
 30
0.0
  0
INSERT
  5
72A
  8
0
  6
CONTINUOUS
  2
DC_IMAGEDIMGROUP_20
 10
0.0
 20
0.0
 30
0.0
  0
INSERT
  5
72B
  8
0
  6
CONTINUOUS
  2
DC_IMAGEDIMGROUP_21
 10
0.0
 20
0.0
 30
0.0
  0
INSERT
  5
72C
  8
0
  6
CONTINUOUS
  2
DC_IMAGEDIMGROUP_22
 10
0.0
 20
0.0
 30
0.0
  0
INSERT
  5
72D
  8
0
  6
CONTINUOUS
  2
DC_IMAGEDIMGROUP_23
 10
0.0
 20
0.0
 30
0.0
  0
INSERT
  5
72E
  8
0
  6
CONTINUOUS
  2
DC_IMAGEDIMGROUP_24
 10
0.0
 20
0.0
 30
0.0
  0
INSERT
  5
72F
  8
0
  6
CONTINUOUS
  2
DC_IMAGEDIMGROUP_25
 10
0.0
 20
0.0
 30
0.0
  0
INSERT
  5
730
  8
0
  6
CONTINUOUS
  2
DC_IMAGEDIMGROUP_26
 10
0.0
 20
0.0
 30
0.0
  0
INSERT
  5
731
  8
0
  6
CONTINUOUS
  2
DC_IMAGEDIMGROUP_27
 10
0.0
 20
0.0
 30
0.0
  0
INSERT
  5
732
  8
0
  6
CONTINUOUS
  2
DC_IMAGEDIMGROUP_28
 10
0.0
 20
0.0
 30
0.0
  0
INSERT
  5
733
  8
0
  6
CONTINUOUS
  2
DC_IMAGEDIMGROUP_29
 10
0.0
 20
0.0
 30
0.0
  0
INSERT
  5
734
  8
0
  6
CONTINUOUS
  2
DC_IMAGEDIMGROUP_30
 10
0.0
 20
0.0
 30
0.0
  0
INSERT
  5
735
  8
0
  6
CONTINUOUS
  2
DC_IMAGEDIMGROUP_31
 10
0.0
 20
0.0
 30
0.0
  0
INSERT
  5
736
  8
0
  6
CONTINUOUS
  2
DC_IMAGEDIMGROUP_32
 10
0.0
 20
0.0
 30
0.0
  0
INSERT
  5
737
  8
0
  6
CONTINUOUS
  2
DC_IMAGEDIMGROUP_33
 10
0.0
 20
0.0
 30
0.0
  0
INSERT
  5
738
  8
0
  6
CONTINUOUS
  2
DC_IMAGEDIMGROUP_34
 10
0.0
 20
0.0
 30
0.0
  0
INSERT
  5
739
  8
0
  6
CONTINUOUS
  2
DC_GROUP_19
 10
0.0
 20
0.0
 30
0.0
  0
INSERT
  5
73A
  8
0
  6
CONTINUOUS
  2
DC_GROUP_20
 10
0.0
 20
0.0
 30
0.0
  0
INSERT
  5
73B
  8
0
  6
CONTINUOUS
  2
DC_GROUP_21
 10
0.0
 20
0.0
 30
0.0
  0
INSERT
  5
73C
  8
0
  6
CONTINUOUS
  2
DC_GROUP_22
 10
0.0
 20
0.0
 30
0.0
  0
INSERT
  5
73D
  8
0
  6
CONTINUOUS
  2
DC_GROUP_23
 10
0.0
 20
0.0
 30
0.0
  0
INSERT
  5
73E
  8
0
  6
CONTINUOUS
  2
DC_GROUP_24
 10
0.0
 20
0.0
 30
0.0
  0
INSERT
  5
73F
  8
0
  6
CONTINUOUS
  2
DC_GROUP_25
 10
0.0
 20
0.0
 30
0.0
  0
INSERT
  5
740
  8
0
  6
CONTINUOUS
  2
DC_GROUP_26
 10
0.0
 20
0.0
 30
0.0
  0
INSERT
  5
741
  8
0
  6
CONTINUOUS
  2
DC_IMAGEDIMGROUP_35
 10
0.0
 20
0.0
 30
0.0
  0
INSERT
  5
742
  8
0
  6
CONTINUOUS
  2
DC_IMAGEDIMGROUP_36
 10
0.0
 20
0.0
 30
0.0
  0
INSERT
  5
743
  8
0
  6
CONTINUOUS
  2
DC_IMAGEDIMGROUP_37
 10
0.0
 20
0.0
 30
0.0
  0
INSERT
  5
744
  8
0
  6
CONTINUOUS
  2
DC_GROUP_27
 10
0.0
 20
0.0
 30
0.0
  0
INSERT
  5
745
  8
0
  6
CONTINUOUS
  2
DC_GROUP_28
 10
0.0
 20
0.0
 30
0.0
  0
INSERT
  5
746
  8
0
  6
CONTINUOUS
  2
DC_IMAGEDIMGROUP_38
 10
0.0
 20
0.0
 30
0.0
  0
INSERT
  5
747
  8
0
  6
CONTINUOUS
  2
DC_GROUP_29
 10
0.0
 20
0.0
 30
0.0
  0
INSERT
  5
748
  8
0
  6
CONTINUOUS
  2
DC_GROUP_30
 10
0.0
 20
0.0
 30
0.0
  0
INSERT
  5
749
  8
0
  6
CONTINUOUS
  2
DC_GROUP_31
 10
0.0
 20
0.0
 30
0.0
  0
INSERT
  5
74A
  8
0
  6
CONTINUOUS
  2
DC_GROUP_32
 10
0.0
 20
0.0
 30
0.0
  0
INSERT
  5
74B
  8
0
  6
CONTINUOUS
  2
DC_GROUP_33
 10
0.0
 20
0.0
 30
0.0
  0
INSERT
  5
74C
  8
0
  6
CONTINUOUS
  2
DC_GROUP_34
 10
0.0
 20
0.0
 30
0.0
  0
INSERT
  5
74D
  8
0
  6
CONTINUOUS
  2
DC_GROUP_35
 10
0.0
 20
0.0
 30
0.0
  0
INSERT
  5
74E
  8
0
  6
CONTINUOUS
  2
DC_GROUP_36
 10
0.0
 20
0.0
 30
0.0
  0
INSERT
  5
74F
  8
0
  6
CONTINUOUS
  2
DC_IMAGEDIMGROUP_39
 10
0.0
 20
0.0
 30
0.0
  0
INSERT
  5
750
  8
0
  6
CONTINUOUS
  2
DC_IMAGEDIMGROUP_40
 10
0.0
 20
0.0
 30
0.0
  0
LINE
  5
751
  8
0
  6
CONTINUOUS
 62
     2
 10
69.06359005816392
 20
6.491736701209058
 30
0.0
 11
69.06359005816392
 21
2.991767323094402
 31
0.0
  0
LINE
  5
752
  8
0
  6
CONTINUOUS
 62
     2
 10
69.06362688601547
 20
2.991787585773098
 30
0.0
 11
72.0947282431718
 21
1.241778756829897
 31
0.0
  0
LINE
  5
753
  8
0
  6
CONTINUOUS
 62
     2
 10
72.09469697204571
 20
1.241773912683536
 30
0.0
 11
75.12578904417961
 21
2.991775767878048
 31
0.0
  0
LINE
  5
754
  8
0
  6
CONTINUOUS
 62
     2
 10
75.12578279436667
 20
2.991767323094402
 30
0.0
 11
75.12578279436667
 21
6.491736701209058
 31
0.0
  0
LINE
  5
755
  8
0
  6
CONTINUOUS
 62
     2
 10
75.12582170828472
 20
6.491772417279117
 30
0.0
 11
72.09473954702452
 21
8.241768759043703
 31
0.0
  0
LINE
  5
756
  8
0
  6
CONTINUOUS
 62
     2
 10
72.09470698119259
 20
8.241763808654264
 30
0.0
 11
69.06361490905869
 21
6.491761953459752
 31
0.0
  0
LINE
  5
757
  8
0
  6
CONTINUOUS
 62
     2
 10
90.71427206939092
 20
15.4917574061259
 30
0.0
 11
93.74535360480371
 21
13.74176002128234
 31
0.0
  0
LINE
  5
758
  8
0
  6
CONTINUOUS
 62
     2
 10
90.7142146418069
 20
18.99175158746864
 30
0.0
 11
90.7142146418069
 21
15.49173643298816
 31
0.0
  0
LINE
  5
759
  8
0
  6
CONTINUOUS
 62
     2
 10
93.745337640076
 20
13.74177735485167
 30
0.0
 11
96.7764198013362
 21
15.49177348800045
 31
0.0
  0
LINE
  5
75A
  8
0
  6
CONTINUOUS
 62
     2
 10
96.77641310005532
 20
15.49173643298816
 30
0.0
 11
96.77641310005532
 21
18.99175158746864
 31
0.0
  0
LINE
  5
75B
  8
0
  6
CONTINUOUS
 62
     2
 10
96.77644285270225
 20
18.99176127845182
 30
0.0
 11
93.74536069144204
 21
20.7417576202164
 31
0.0
  0
LINE
  5
75C
  8
0
  6
CONTINUOUS
 62
     2
 10
93.74533773834918
 20
20.74176152877668
 30
0.0
 11
90.71425557708898
 21
18.99176539562788
 31
0.0
  0
LINE
  5
75D
  8
0
  6
CONTINUOUS
 62
     2
 10
197.23536014887
 20
2.991721546728579
 30
0.0
 11
197.23536014887
 21
6.491736701209058
 31
0.0
  0
LINE
  5
75E
  8
0
  6
CONTINUOUS
 62
     2
 10
194.2042997495311
 20
1.241752496991746
 30
0.0
 11
197.2353719999175
 21
2.991742908094801
 31
0.0
  0
LINE
  5
75F
  8
0
  6
CONTINUOUS
 62
     2
 10
197.2353407695435
 20
6.491785624600853
 30
0.0
 11
194.2042784300308
 21
8.241770313658181
 31
0.0
  0
LINE
  5
760
  8
0
  6
CONTINUOUS
 62
     2
 10
194.2042670487476
 20
8.241770592366004
 30
0.0
 11
191.1731947983612
 21
6.491780181262948
 31
0.0
  0
LINE
  5
761
  8
0
  6
CONTINUOUS
 62
     2
 10
191.173196022896
 20
6.491736701209058
 30
0.0
 11
191.173196022896
 21
2.991767323094402
 31
0.0
  0
LINE
  5
762
  8
0
  6
CONTINUOUS
 62
     2
 10
191.1731849229522
 20
2.991762451134472
 30
0.0
 11
194.204247262465
 21
1.241777762077144
 31
0.0
  0
LINE
  5
763
  8
0
  6
CONTINUOUS
 62
     2
 10
175.5847183990899
 20
15.49173643298816
 30
0.0
 11
175.5847183990899
 21
18.99175158746864
 31
0.0
  0
LINE
  5
764
  8
0
  6
CONTINUOUS
 62
     2
 10
172.5536699847173
 20
13.7417363811763
 30
0.0
 11
175.5847521459775
 21
15.49173251432508
 31
0.0
  0
LINE
  5
765
  8
0
  6
CONTINUOUS
 62
     2
 10
175.5847397450081
 20
18.99176617858608
 30
0.0
 11
172.5536575837479
 21
20.74176231173486
 31
0.0
  0
LINE
  5
766
  8
0
  6
CONTINUOUS
 62
     2
 10
172.5536571056813
 20
20.74176592064201
 30
0.0
 11
169.5225650335473
 21
18.9917640654475
 31
0.0
  0
LINE
  5
767
  8
0
  6
CONTINUOUS
 62
     2
 10
169.5225542731158
 20
18.99175158746864
 30
0.0
 11
169.5225542731158
 21
15.49173643298816
 31
0.0
  0
LINE
  5
768
  8
0
  6
CONTINUOUS
 62
     2
 10
169.5225640766694
 20
15.49175444921114
 30
0.0
 11
172.5536462379296
 21
13.74175831606236
 31
0.0
  0
LINE
  5
769
  8
0
  6
CONTINUOUS
 62
     2
 10
136.1805829157097
 20
83.74177445329977
 30
0.0
 11
136.1805829157097
 21
87.24176671959736
 31
0.0
  0
LINE
  5
76A
  8
0
  6
CONTINUOUS
 62
     2
 10
133.1494894402271
 20
81.99177788988277
 30
0.0
 11
136.1805716014873
 21
83.74177402303158
 31
0.0
  0
LINE
  5
76B
  8
0
  6
CONTINUOUS
 62
     2
 10
136.1805829157097
 20
108.7417584494531
 30
0.0
 11
136.1805829157097
 21
112.2417736039336
 31
0.0
  0
LINE
  5
76C
  8
0
  6
CONTINUOUS
 62
     2
 10
130.1184038988623
 20
83.74178625008122
 30
0.0
 11
133.14950588187
 21
81.99177867284098
 31
0.0
  0
LINE
  5
76D
  8
0
  6
CONTINUOUS
 62
     2
 10
130.1183959015528
 20
87.24176671959736
 30
0.0
 11
130.1183959015528
 21
83.74177445329977
 31
0.0
  0
LINE
  5
76E
  8
0
  6
CONTINUOUS
 62
     2
 10
136.1805993889485
 20
87.24178653536467
 30
0.0
 11
133.1495172276882
 21
88.99178266851345
 31
0.0
  0
LINE
  5
76F
  8
0
  6
CONTINUOUS
 62
     2
 10
133.1495108934654
 20
88.99174796410603
 30
0.0
 11
130.1184188213315
 21
87.24174610891151
 31
0.0
  0
LINE
  5
770
  8
0
  6
CONTINUOUS
 62
     2
 10
133.1494911478257
 20
106.9917582553305
 30
0.0
 11
136.1805733090859
 21
108.7417543884793
 31
0.0
  0
LINE
  5
771
  8
0
  6
CONTINUOUS
 62
     2
 10
130.1184029065194
 20
108.7417678543882
 30
0.0
 11
133.1495048895271
 21
106.9917602771479
 31
0.0
  0
LINE
  5
772
  8
0
  6
CONTINUOUS
 62
     2
 10
130.1183959015528
 20
112.2417736039336
 30
0.0
 11
130.1183959015528
 21
108.7417584494531
 31
0.0
  0
LINE
  5
773
  8
0
  6
CONTINUOUS
 62
     2
 10
136.1805926745598
 20
112.2417582287979
 30
0.0
 11
133.1494906915522
 21
113.9917658060381
 31
0.0
  0
LINE
  5
774
  8
0
  6
CONTINUOUS
 62
     2
 10
133.1495110678463
 20
113.991753873347
 30
0.0
 11
130.1184090848387
 21
112.2417462961068
 31
0.0
  0
CIRCLE
  5
775
  8
0
  6
CONTINUOUS
 62
     2
 10
72.09470073137965
 20
4.74175201215173
 30
0.0
 40
6.500000044703483
  0
CIRCLE
  5
776
  8
0
  6
CONTINUOUS
 62
     2
 10
93.7453310370683
 20
17.24176689841131
 30
0.0
 40
6.500000044703483
  0
CIRCLE
  5
777
  8
0
  6
CONTINUOUS
 62
     2
 10
194.204278085883
 20
4.74175201215173
 30
0.0
 40
6.500000044703483
  0
CIRCLE
  5
778
  8
0
  6
CONTINUOUS
 62
     2
 10
172.5536363361029
 20
17.24176689841131
 30
0.0
 40
6.500000044703483
  0
CIRCLE
  5
779
  8
0
  6
CONTINUOUS
 62
     2
 10
133.1494894086313
 20
85.4917591423571
 30
0.0
 40
6.500000044703483
  0
CIRCLE
  5
77A
  8
0
  6
CONTINUOUS
 62
     2
 10
133.1494894086313
 20
110.4917660266934
 30
0.0
 40
6.500000044703483
  0
TEXT
  5
77B
  8
0
 62
     5
 10
113.6023656366095
 20
-37.18476768315954
 30
0.0
 40
5.0
  1
NOMURA
 41
0.7598435906249997
  7
DCSTYLE0
 72
     5
 11
136.7595036366095
 21
-37.18476768315954
 31
0.0
  0
TEXT
  5
77C
  8
0
 62
     5
 10
140.3784548136519
 20
-35.80808816559311
 30
0.0
 40
3.0
  1
0001
 41
1.098591601344901
  7
DCSTYLE0
 72
     5
 11
151.5213124844359
 21
-35.80808816559311
 31
0.0
  0
TEXT
  5
77D
  8
0
 62
     5
 10
110.0975732370975
 20
-30.96192937634474
 30
0.0
 40
5.0
  1
NIKKO
 41
0.8818684153846151
  7
DCSTYLE0
 72
     5
 11
129.2047222370975
 21
-30.96192937634474
 31
0.0
  0
TEXT
  5
77E
  8
0
 62
     5
 10
132.5209382399294
 20
-30.30871998374441
 30
0.0
 40
4.0
  1
PDM3-6
 41
0.9302326676457428
  7
DCSTYLE0
 72
     5
 11
155.3780837877962
 21
-30.30871998374441
 31
0.0
  0
TEXT
  5
77F
  8
0
 62
     5
 10
132.5210553454473
 20
-30.30791534016471
 30
0.0
 40
4.0
  1
PDM3-6
 41
0.9302326676457428
  7
DCSTYLE0
 72
     5
 11
155.3782008933142
 21
-30.30791534016471
 31
0.0
  0
ARC
  5
780
  8
0
  6
CENTER
 62
     7
 10
133.1494903801653
 20
39.99166747269223
 30
0.0
 40
34.49999906122687
 50
257.0308875997289
 51
283.6870557214534
  0
ARC
  5
781
  8
0
  6
CENTER
 62
     7
 10
133.1491244906005
 20
39.99153803243476
 30
0.0
 40
34.49999906122686
 50
17.03088759972893
 51
43.68705572145339
  0
ARC
  5
782
  8
0
  6
CENTER
 62
     7
 10
133.1494195339342
 20
39.99128588290537
 30
0.0
 40
34.49999906122685
 50
137.0308875997289
 51
163.6870557214534
  0
LINE
  5
783
  8
0
  6
CENTER
 62
     7
 10
-102.4420547636784
 20
2.462070564558973
 30
0.0
 11
-102.4420547636784
 21
-45.37178184504262
 31
0.0
  0
LINE
  5
784
  8
0
  6
CENTER
 62
     7
 10
102.6501276976533
 20
107.9528329974553
 30
0.0
 11
102.6501276976533
 21
89.47326523184063
 31
0.0
  0
LINE
  5
785
  8
0
  6
CENTER
 62
     7
 10
163.6501276976533
 20
107.9528323834821
 30
0.0
 11
163.6501276976533
 21
89.04242324042286
 31
0.0
  0
LINE
  5
786
  8
0
  6
CENTER
 62
     7
 10
207.2554917337678
 20
32.42367385328485
 30
0.0
 11
191.2517165977894
 21
41.66345773609223
 31
0.0
  0
LINE
  5
787
  8
0
  6
CENTER
 62
     7
 10
176.7554912020514
 20
-20.40387547057928
 30
0.0
 11
160.3785964882046
 21
-10.94867089904965
 31
0.0
  0
LINE
  5
788
  8
0
  6
CENTER
 62
     7
 10
89.54263917038122
 20
-20.40264920202412
 30
0.0
 11
105.5464143063596
 21
-11.16286531921676
 31
0.0
  0
LINE
  5
789
  8
0
  6
CENTER
 62
     7
 10
59.04263970209763
 20
32.42490073581325
 30
0.0
 11
75.41953441594447
 21
41.88010530734289
 31
0.0
  0
INSERT
  5
78A
  8
LAYER0015
  6
CONTINUOUS
  2
DC_GROUP_11
 10
0.0
 20
0.0
 30
0.0
  0
LINE
  5
78B
  8
ZUWAKU
  6
CONTINUOUS
 62
     3
 10
256.2960604477983
 20
-182.2382554681338
 30
0.0
 11
251.2960604477983
 21
-192.2382554681338
 31
0.0
  0
LINE
  5
78C
  8
ZUWAKU
  6
CONTINUOUS
 62
     3
 10
256.2960604477983
 20
-182.2382554681338
 30
0.0
 11
261.2960604477983
 21
-192.2382554681338
 31
0.0
  0
LINE
  5
78D
  8
ZUWAKU
  6
CONTINUOUS
 62
     3
 10
251.2960604477983
 20
-192.2382554681338
 30
0.0
 11
261.2960604477983
 21
-192.2382554681338
 31
0.0
  0
LINE
  5
78E
  8
0
  6
CONTINUOUS
 62
     6
 10
0.2952418610778001
 20
-71.58692500329502
 30
0.0
 11
167.4021352313169
 21
-71.58692500329502
 31
0.0
  0
LINE
  5
78F
  8
0
  6
CONTINUOUS
 62
     6
 10
167.4021352313169
 20
-88.71095294582835
 30
0.0
 11
0.2952418610778125
 21
-88.71095294582835
 31
0.0
  0
LINE
  5
790
  8
0
  6
CONTINUOUS
 62
     6
 10
0.2952418610778001
 20
-88.71095294582835
 30
0.0
 11
0.2952418610778001
 21
-71.58692500329502
 31
0.0
  0
LINE
  5
791
  8
0
  6
CONTINUOUS
 62
     6
 10
167.4021352313169
 20
-71.58692500329502
 30
0.0
 11
167.4021352313169
 21
-88.71095294582835
 31
0.0
  0
VIEWPORT
  5
B3
 67
     1
  8
0
 10
-0.0002925089170276
 20
0.0
 30
0.0
 40
1614.0
 41
1164.0
 68
     1
 69
     1
1001
ACAD
1000
MVIEW
1002
{
1070
    16
1010
0.0
1020
0.0
1030
0.0
1010
0.0
1020
0.0
1030
1.0
1040
0.0
1040
1164.0
1040
-0.0002925089170276
1040
0.0
1040
50.0
1040
0.0
1040
0.0
1070
     0
1070
   100
1070
     0
1070
     3
1070
     0
1070
     0
1070
     0
1070
     0
1040
0.0
1040
0.0
1040
0.0
1040
0.5
1040
0.5
1040
0.0
1040
0.0
1070
     0
1002
{
1002
}
1002
}
  0
ENDSEC
  0
EOF
