  0
SECTION
  2
HEADER
  9
$ACADVER
  1
AC1009
  9
$DWGCODEPAGE
  3
ansi_932
  9
$INSBASE
 10
0.0
 20
0.0
 30
0.0
  9
$EXTMIN
 10
-807.000292508917
 20
-582.0
 30
0.0
  9
$EXTMAX
 10
806.999707491083
 20
582.0
 30
0.0
  9
$LIMMIN
 10
-297.0
 20
-210.0
  9
$LIMMAX
 10
297.0
 20
210.0
  9
$ORTHOMODE
 70
     0
  9
$REGENMODE
 70
     1
  9
$FILLMODE
 70
     1
  9
$QTEXTMODE
 70
     0
  9
$MIRRTEXT
 70
     1
  9
$DRAGMODE
 70
     2
  9
$LTSCALE
 40
0.25
  9
$OSMODE
 70
    37
  9
$ATTMODE
 70
     1
  9
$TEXTSIZE
 40
0.2
  9
$TRACEWID
 40
0.05
  9
$TEXTSTYLE
  7
STANDARD
  9
$CLAYER
  8
0
  9
$CELTYPE
  6
BYLAYER
  9
$CECOLOR
 62
   256
  9
$DIMSCALE
 40
1.0
  9
$DIMASZ
 40
2.499996185302734
  9
$DIMEXO
 40
1.0
  9
$DIMDLI
 40
10.0
  9
$DIMRND
 40
0.0
  9
$DIMDLE
 40
0.0
  9
$DIMEXE
 40
1.0
  9
$DIMTP
 40
0.0
  9
$DIMTM
 40
0.0
  9
$DIMTXT
 40
4.0
  9
$DIMCEN
 40
0.0
  9
$DIMTSZ
 40
0.0
  9
$DIMTOL
 70
     0
  9
$DIMLIM
 70
     0
  9
$DIMTIH
 70
     0
  9
$DIMTOH
 70
     0
  9
$DIMSE1
 70
     0
  9
$DIMSE2
 70
     0
  9
$DIMTAD
 70
     1
  9
$DIMZIN
 70
     8
  9
$DIMBLK
  1

  9
$DIMASO
 70
     1
  9
$DIMSHO
 70
     1
  9
$DIMPOST
  1

  9
$DIMAPOST
  1

  9
$DIMALT
 70
     0
  9
$DIMALTD
 70
     2
  9
$DIMALTF
 40
25.4
  9
$DIMLFAC
 40
1.0
  9
$DIMTOFL
 70
     0
  9
$DIMTVP
 40
0.0
  9
$DIMTIX
 70
     0
  9
$DIMSOXD
 70
     0
  9
$DIMSAH
 70
     0
  9
$DIMBLK1
  1

  9
$DIMBLK2
  1

  9
$DIMSTYLE
  2
STANDARD
  9
$DIMCLRD
 70
     0
  9
$DIMCLRE
 70
     0
  9
$DIMCLRT
 70
     0
  9
$DIMTFAC
 40
0.65
  9
$DIMGAP
 40
0.09
  9
$LUNITS
 70
     2
  9
$LUPREC
 70
     4
  9
$SKETCHINC
 40
0.1
  9
$FILLETRAD
 40
0.5
  9
$AUNITS
 70
     0
  9
$AUPREC
 70
     0
  9
$MENU
  1
.
  9
$ELEVATION
 40
0.0
  9
$PELEVATION
 40
0.0
  9
$THICKNESS
 40
0.0
  9
$LIMCHECK
 70
     0
  9
$CHAMFERA
 40
0.0
  9
$CHAMFERB
 40
0.0
  9
$SKPOLY
 70
     0
  9
$TDCREATE
 40
2458152.693916389
  9
$TDUPDATE
 40
2458152.693916574
  9
$TDINDWG
 40
0.0000000116
  9
$TDUSRTIMER
 40
0.0000000116
  9
$USRTIMER
 70
     1
  9
$ANGBASE
 50
0.0
  9
$ANGDIR
 70
     0
  9
$PDMODE
 70
     0
  9
$PDSIZE
 40
1.0
  9
$PLINEWID
 40
0.0
  9
$COORDS
 70
     1
  9
$SPLFRAME
 70
     0
  9
$SPLINETYPE
 70
     6
  9
$SPLINESEGS
 70
     8
  9
$ATTDIA
 70
     0
  9
$ATTREQ
 70
     1
  9
$HANDLING
 70
     1
  9
$HANDSEED
  5
7DF
  9
$SURFTAB1
 70
     6
  9
$SURFTAB2
 70
     6
  9
$SURFTYPE
 70
     6
  9
$SURFU
 70
     6
  9
$SURFV
 70
     6
  9
$UCSNAME
  2

  9
$UCSORG
 10
0.0
 20
0.0
 30
0.0
  9
$UCSXDIR
 10
1.0
 20
0.0
 30
0.0
  9
$UCSYDIR
 10
0.0
 20
1.0
 30
0.0
  9
$PUCSNAME
  2

  9
$PUCSORG
 10
0.0
 20
0.0
 30
0.0
  9
$PUCSXDIR
 10
1.0
 20
0.0
 30
0.0
  9
$PUCSYDIR
 10
0.0
 20
1.0
 30
0.0
  9
$USERI1
 70
     0
  9
$USERI2
 70
     0
  9
$USERI3
 70
     0
  9
$USERI4
 70
     0
  9
$USERI5
 70
     0
  9
$USERR1
 40
0.0
  9
$USERR2
 40
0.0
  9
$USERR3
 40
0.0
  9
$USERR4
 40
0.0
  9
$USERR5
 40
0.0
  9
$WORLDVIEW
 70
     1
  9
$SHADEDGE
 70
     3
  9
$SHADEDIF
 70
    70
  9
$TILEMODE
 70
     1
  9
$MAXACTVP
 70
    64
  9
$PLIMCHECK
 70
     0
  9
$PEXTMIN
 10
1.000000000000000E+20
 20
1.000000000000000E+20
 30
1.000000000000000E+20
  9
$PEXTMAX
 10
-1.000000000000000E+20
 20
-1.000000000000000E+20
 30
-1.000000000000000E+20
  9
$PLIMMIN
 10
0.0
 20
0.0
  9
$PLIMMAX
 10
12.0
 20
9.0
  9
$UNITMODE
 70
     0
  9
$VISRETAIN
 70
     0
  9
$PLINEGEN
 70
     1
  9
$PSLTSCALE
 70
     0
  0
ENDSEC
  0
SECTION
  2
TABLES
  0
TABLE
  2
VPORT
 70
     1
  0
VPORT
  2
*ACTIVE
 70
     0
 10
0.0
 20
0.0
 11
1.0
 21
1.0
 12
-0.0002925089170311
 22
0.0
 13
0.0
 23
0.0
 14
0.5
 24
0.5
 15
0.5
 25
0.5
 16
0.0
 26
0.0
 36
1.0
 17
0.0
 27
0.0
 37
0.0
 40
395.76
 41
1.38659793814433
 42
50.0
 43
0.0
 44
0.0
 50
0.0
 51
0.0
 71
     0
 72
  1000
 73
     1
 74
     1
 75
     0
 76
     0
 77
     0
 78
     0
  0
ENDTAB
  0
TABLE
  2
LTYPE
 70
    67
  0
LTYPE
  2
CONTINUOUS
 70
     0
  3
Solid line
 72
    65
 73
     0
 40
0.0
  0
LTYPE
  2
HIDDENX2
 70
     0
  3
Hidden (2x) ____ ____ ____ ____ ____ ____ ____ 
 72
    65
 73
     2
 40
19.05
 49
12.7
 49
-6.35
  0
LTYPE
  2
HIDDEN
 70
     0
  3
Hidden __ __ __ __ __ __ __ __ __ __ __ __ __ __
 72
    65
 73
     2
 40
9.524999999999999
 49
6.35
 49
-3.175
  0
LTYPE
  2
HIDDEN2
 70
     0
  3
Hidden (.5x) _ _ _ _ _ _ _ _ _ _ _ _ _ _ _ _ _ 
 72
    65
 73
     2
 40
4.762499999999999
 49
3.175
 49
-1.5875
  0
LTYPE
  2
DASHED
 70
     0
  3
Dashed __ __ __ __ __ __ __ __ __ __ __ __ __ _
 72
    65
 73
     2
 40
19.05
 49
12.7
 49
-6.35
  0
LTYPE
  2
DASHED2
 70
     0
  3
Dashed (.5x) _ _ _ _ _ _ _ _ _ _ _ _ _ _ _ _ _ 
 72
    65
 73
     2
 40
9.524999999999999
 49
6.35
 49
-3.175
  0
LTYPE
  2
DASHEDX2
 70
     0
  3
Dashed (2x) ____  ____  ____  ____  ____  ___
 72
    65
 73
     2
 40
38.09999999999999
 49
25.4
 49
-12.7
  0
LTYPE
  2
DOTX2
 70
     0
  3
Dot (2x) .  .  .  .  .  .  .  .  .  .  .  .  .  .
 72
    65
 73
     2
 40
12.7
 49
0.0
 49
-12.7
  0
LTYPE
  2
DOT
 70
     0
  3
Dot . . . . . . . . . . . . . . . . . . . . . . . .
 72
    65
 73
     2
 40
6.35
 49
0.0
 49
-6.35
  0
LTYPE
  2
DOT2
 70
     0
  3
Dot (.5x) ........................................
 72
    65
 73
     2
 40
3.175
 49
0.0
 49
-3.175
  0
LTYPE
  2
CENTERX2
 70
     0
  3
Center (2x) ________  __  ________  __  _____
 72
    65
 73
     4
 40
101.6
 49
63.5
 49
-12.7
 49
12.7
 49
-12.7
  0
LTYPE
  2
CENTER
 70
     0
  3
Center ____ _ ____ _ ____ _ ____ _ ____ _ ____
 72
    65
 73
     4
 40
50.8
 49
31.75
 49
-6.35
 49
6.35
 49
-6.35
  0
LTYPE
  2
CENTER2
 70
     0
  3
Center (.5x) ___ _ ___ _ ___ _ ___ _ ___ _ ___
 72
    65
 73
     4
 40
28.575
 49
19.05
 49
-3.175
 49
3.175
 49
-3.175
  0
LTYPE
  2
DASHDOTX2
 70
     0
  3
Dash dot (2x) ____  .  ____  .  ____  .  ___
 72
    65
 73
     4
 40
50.8
 49
25.4
 49
-12.7
 49
0.0
 49
-12.7
  0
LTYPE
  2
DASHDOT
 70
     0
  3
Dash dot __ . __ . __ . __ . __ . __ . __ . __
 72
    65
 73
     4
 40
25.4
 49
12.7
 49
-6.35
 49
0.0
 49
-6.35
  0
LTYPE
  2
DASHDOT2
 70
     0
  3
Dash dot (.5x) _._._._._._._._._._._._._._._.
 72
    65
 73
     4
 40
12.7
 49
6.35
 49
-3.175
 49
0.0
 49
-3.175
  0
LTYPE
  2
DIVIDEX2
 70
     0
  3
Divide (2x) ________  .  .  ________  .  .  _
 72
    65
 73
     6
 40
63.5
 49
25.4
 49
-12.7
 49
0.0
 49
-12.7
 49
0.0
 49
-12.7
  0
LTYPE
  2
DIVIDE
 70
     0
  3
Divide ____ . . ____ . . ____ . . ____ . . ____
 72
    65
 73
     6
 40
31.75
 49
12.7
 49
-6.35
 49
0.0
 49
-6.35
 49
0.0
 49
-6.35
  0
LTYPE
  2
DIVIDE2
 70
     0
  3
Divide (.5x) __..__..__..__..__..__..__..__.._
 72
    65
 73
     6
 40
15.875
 49
6.35
 49
-3.175
 49
0.0
 49
-3.175
 49
0.0
 49
-3.175
  0
LTYPE
  2
BORDERX2
 70
     0
  3
Border (2x) ____  ____  .  ____  ____  .  ___
 72
    65
 73
     6
 40
88.89999999999999
 49
25.4
 49
-12.7
 49
25.4
 49
-12.7
 49
0.0
 49
-12.7
  0
LTYPE
  2
BORDER
 70
     0
  3
Border __ __ . __ __ . __ __ . __ __ . __ __ .
 72
    65
 73
     6
 40
44.45
 49
12.7
 49
-6.35
 49
12.7
 49
-6.35
 49
0.0
 49
-6.35
  0
LTYPE
  2
BORDER2
 70
     0
  3
Border (.5x) __.__.__.__.__.__.__.__.__.__.__.
 72
    65
 73
     6
 40
22.225
 49
6.35
 49
-3.175
 49
6.35
 49
-3.175
 49
0.0
 49
-3.175
  0
LTYPE
  2
PHANTOMX2
 70
     0
  3
Phantom (2x) ____________    ____    ____   _
 72
    65
 73
     6
 40
127.0
 49
63.5
 49
-12.7
 49
12.7
 49
-12.7
 49
12.7
 49
-12.7
  0
LTYPE
  2
PHANTOM
 70
     0
  3
Phantom ______  __  __  ______  __  __  ______ 
 72
    65
 73
     6
 40
63.5
 49
31.75
 49
-6.35
 49
6.35
 49
-6.35
 49
6.35
 49
-6.35
  0
LTYPE
  2
PHANTOM2
 70
     0
  3
Phantom (.5x) ___ _ _ ___ _ _ ___ _ _ ___ _ _
 72
    65
 73
     6
 40
31.75
 49
15.875
 49
-3.175
 49
3.175
 49
-3.175
 49
3.175
 49
-3.175
  0
LTYPE
  2
ACAD_ISO06W100
 70
     0
  3
ISO long-dash triple-dot ____ ... ____ ... ____
 72
    65
 73
     8
 40
36.0
 49
24.0
 49
-3.0
 49
0.0
 49
-3.0
 49
0.0
 49
-3.0
 49
0.0
 49
-3.0
  0
LTYPE
  2
ACAD_ISO13W100
 70
     0
  3
ISO double-dash double-dot __ __ . . __ __ . . _
 72
    65
 73
     8
 40
36.0
 49
12.0
 49
-3.0
 49
12.0
 49
-3.0
 49
0.0
 49
-3.0
 49
0.0
 49
-3.0
  0
LTYPE
  2
ACAD_ISO14W100
 70
     0
  3
ISO dash triple-dot __ . . . __ . . . __ . . . _
 72
    65
 73
     8
 40
24.0
 49
12.0
 49
-3.0
 49
0.0
 49
-3.0
 49
0.0
 49
-3.0
 49
0.0
 49
-3.0
  0
LTYPE
  2
ACAD_ISO02W100
 70
     0
  3
ISO dash __ __ __ __ __ __ __ __ __ __ __ __ __
 72
    65
 73
     2
 40
15.0
 49
12.0
 49
-3.0
  0
LTYPE
  2
ACAD_ISO03W100
 70
     0
  3
ISO dash space __    __    __    __    __    __
 72
    65
 73
     2
 40
30.0
 49
12.0
 49
-18.0
  0
LTYPE
  2
ACAD_ISO04W100
 70
     0
  3
ISO long-dash dot ____ . ____ . ____ . ____ . _
 72
    65
 73
     4
 40
30.0
 49
24.0
 49
-3.0
 49
0.0
 49
-3.0
  0
LTYPE
  2
ACAD_ISO05W100
 70
     0
  3
ISO long-dash double-dot ____ .. ____ .. ____ . 
 72
    65
 73
     6
 40
33.0
 49
24.0
 49
-3.0
 49
0.0
 49
-3.0
 49
0.0
 49
-3.0
  0
LTYPE
  2
ACAD_ISO07W100
 70
     0
  3
ISO dot . . . . . . . . . . . . . . . . . . . . 
 72
    65
 73
     2
 40
3.0
 49
0.0
 49
-3.0
  0
LTYPE
  2
ACAD_ISO08W100
 70
     0
  3
ISO long-dash short-dash ____ __ ____ __ ____ _
 72
    65
 73
     4
 40
36.0
 49
24.0
 49
-3.0
 49
6.0
 49
-3.0
  0
LTYPE
  2
ACAD_ISO09W100
 70
     0
  3
ISO long-dash double-short-dash ____ __ __ ____
 72
    65
 73
     6
 40
45.0
 49
24.0
 49
-3.0
 49
6.0
 49
-3.0
 49
6.0
 49
-3.0
  0
LTYPE
  2
ACAD_ISO10W100
 70
     0
  3
ISO dash dot __ . __ . __ . __ . __ . __ . __ . 
 72
    65
 73
     4
 40
18.0
 49
12.0
 49
-3.0
 49
0.0
 49
-3.0
  0
LTYPE
  2
ACAD_ISO11W100
 70
     0
  3
ISO double-dash dot __ __ . __ __ . __ __ . __ _
 72
    65
 73
     6
 40
33.0
 49
12.0
 49
-3.0
 49
12.0
 49
-3.0
 49
0.0
 49
-3.0
  0
LTYPE
  2
ACAD_ISO12W100
 70
     0
  3
ISO dash double-dot __ . . __ . . __ . . __ . . 
 72
    65
 73
     6
 40
21.0
 49
12.0
 49
-3.0
 49
0.0
 49
-3.0
 49
0.0
 49
-3.0
  0
LTYPE
  2
ACAD_ISO15W100
 70
     0
  3
ISO double-dash triple-dot __ __ . . . __ __ . .
 72
    65
 73
    10
 40
39.0
 49
12.0
 49
-3.0
 49
12.0
 49
-3.0
 49
0.0
 49
-3.0
 49
0.0
 49
-3.0
 49
0.0
 49
-3.0
  0
LTYPE
  2
JIS_02_0_7
 70
     0
  3
HIDDEN0.75 _ _ _ _ _ _ _ _ _ _ _ _ _ _ _ _ _ 
 72
    65
 73
     2
 40
1.35
 49
0.75
 49
-0.6
  0
LTYPE
  2
JIS_02_1_0
 70
     0
  3
HIDDEN01 _ _ _ _ _ _ _ _ _ _ _ _ _ _ _ _ _ 
 72
    65
 73
     2
 40
2.0
 49
1.0
 49
-1.0
  0
LTYPE
  2
JIS_02_1_2
 70
     0
  3
HIDDEN01.25  _ _ _ _ _ _ _ _ _ _ _ _ _ _ _ _ _ 
 72
    65
 73
     2
 40
2.5
 49
1.25
 49
-1.25
  0
LTYPE
  2
JIS_02_2_0
 70
     0
  3
HIDDEN02 __ __ __ __ __ __ __ __ __ __ __ 
 72
    65
 73
     2
 40
3.0
 49
2.0
 49
-1.0
  0
LTYPE
  2
JIS_02_4_0
 70
     0
  3
HIDDEN04 ____ ____ ____ ____ ____ ____ ____ 
 72
    65
 73
     2
 40
5.5
 49
4.0
 49
-1.5
  0
LTYPE
  2
JIS_08_11
 70
     0
  3
1SASEN11 ___ _ ___ _ ___ _ ___ _ ___ _ ___
 72
    65
 73
     4
 40
12.8
 49
11.0
 49
-0.6
 49
0.6
 49
-0.6
  0
LTYPE
  2
JIS_08_15
 70
     0
  3
1SASEN15 ____ _ ____ _ ____ _ ____ _ ____ 
 72
    65
 73
     4
 40
17.25
 49
15.0
 49
-0.75
 49
0.75
 49
-0.75
  0
LTYPE
  2
JIS_08_25
 70
     0
  3
1SASEN25 ________  __  ________  __  _____
 72
    65
 73
     4
 40
28.0
 49
25.0
 49
-1.125
 49
0.75
 49
-1.125
  0
LTYPE
  2
JIS_08_37
 70
     0
  3
1SASEN37 ________  __  ________  __  _____
 72
    65
 73
     4
 40
40.5
 49
37.5
 49
-1.125
 49
0.75
 49
-1.125
  0
LTYPE
  2
JIS_08_50
 70
     0
  3
1SASEN50 _______________  __  ____________
 72
    65
 73
     4
 40
53.0
 49
50.0
 49
-1.125
 49
0.75
 49
-1.125
  0
LTYPE
  2
JIS_09_08
 70
     0
  3
2SASEN8 __ _ _ __ _ _ __ _ _ __ _ _ __ _ _ 
 72
    65
 73
     6
 40
10.75
 49
8.0
 49
-0.55
 49
0.55
 49
-0.55
 49
0.55
 49
-0.55
  0
LTYPE
  2
JIS_09_15
 70
     0
  3
2SASEN15 ___ _ _ ___ _ _ ___ _ _ ___ _ _ ___ 
 72
    65
 73
     6
 40
18.9
 49
15.0
 49
-0.9
 49
0.6
 49
-0.9
 49
0.6
 49
-0.9
  0
LTYPE
  2
JIS_09_29
 70
     0
  3
2SASEN29 ______　__  __  ______　__  __  ___
 72
    65
 73
     6
 40
34.0
 49
29.0
 49
-1.2
 49
0.7
 49
-1.2
 49
0.7
 49
-1.2
  0
LTYPE
  2
JIS_09_50
 70
     0
  3
2SASEN50 ____________　__  __  _____________
 72
    65
 73
     6
 40
55.0
 49
50.0
 49
-1.2
 49
0.7
 49
-1.2
 49
0.7
 49
-1.2
  0
LTYPE
  2
SXF_破線
 70
     0
  3
02 dashed -- -- -- -- -- --
 72
    65
 73
     2
 40
7.5
 49
6.0
 49
-1.5
  0
LTYPE
  2
SXF_跳び破線
 70
     0
  3
03 dashed_spaced --  --  --  --
 72
    65
 73
     2
 40
12.0
 49
6.0
 49
-6.0
  0
LTYPE
  2
SXF_一点長鎖線
 70
     0
  3
04 long_dashed_dotted ---- . ---- . ----
 72
    65
 73
     4
 40
15.25
 49
12.0
 49
-1.5
 49
0.25
 49
-1.5
  0
LTYPE
  2
SXF_二点長鎖線
 70
     0
  3
05 long_dashed_double-dotted ---- . . ---- 
 72
    65
 73
     6
 40
17.0
 49
12.0
 49
-1.5
 49
0.25
 49
-1.5
 49
0.25
 49
-1.5
  0
LTYPE
  2
SXF_三点長鎖線
 70
     0
  3
06 long_dashed_triplicate-dotted ---- ... ---- 
 72
    65
 73
     8
 40
18.75
 49
12.0
 49
-1.5
 49
0.25
 49
-1.5
 49
0.25
 49
-1.5
 49
0.25
 49
-1.5
  0
LTYPE
  2
SXF_点線
 70
     0
  3
07 dotted . . . . . . . . . . . . 
 72
    65
 73
     2
 40
1.75
 49
0.25
 49
-1.5
  0
LTYPE
  2
SXF_一点鎖線
 70
     0
  3
08 chain ---- - --- - --- - ---
 72
    65
 73
     4
 40
18.5
 49
12.0
 49
-1.5
 49
3.5
 49
-1.5
  0
LTYPE
  2
SXF_二点鎖線
 70
     0
  3
09 chain_double_dash ---- - - ---- - - ----
 72
    65
 73
     6
 40
23.5
 49
12.0
 49
-1.5
 49
3.5
 49
-1.5
 49
3.5
 49
-1.5
  0
LTYPE
  2
SXF_一点短鎖線
 70
     0
  3
10 dashed_dotted -- . -- . -- . --
 72
    65
 73
     4
 40
9.25
 49
6.0
 49
-1.5
 49
0.25
 49
-1.5
  0
LTYPE
  2
SXF_一点二短鎖線
 70
     0
  3
11 double-dashed_dotted -- -- . -- --
 72
    65
 73
     6
 40
16.75
 49
6.0
 49
-1.5
 49
6.0
 49
-1.5
 49
0.25
 49
-1.5
  0
LTYPE
  2
SXF_二点短鎖線
 70
     0
  3
12 dashed_double_dotted -- . . -- . . --
 72
    65
 73
     6
 40
11.0
 49
6.0
 49
-1.5
 49
0.25
 49
-1.5
 49
0.25
 49
-1.5
  0
LTYPE
  2
SXF_二点二短鎖線
 70
     0
  3
13 double-dashed_double-dotted -- -- . . -- --
 72
    65
 73
     8
 40
18.5
 49
6.0
 49
-1.5
 49
6.0
 49
-1.5
 49
0.25
 49
-1.5
 49
0.25
 49
-1.5
  0
LTYPE
  2
SXF_三点短鎖線
 70
     0
  3
14 dashed triplicate-dotted -- . . . -- . . . --
 72
    65
 73
     8
 40
12.75
 49
6.0
 49
-1.5
 49
0.25
 49
-1.5
 49
0.25
 49
-1.5
 49
0.25
 49
-1.5
  0
LTYPE
  2
SXF_三点二短鎖線
 70
     0
  3
15 double-dashed triplicate-dotted -- -- . . . -- -- 
 72
    65
 73
    10
 40
20.25
 49
6.0
 49
-1.5
 49
6.0
 49
-1.5
 49
0.25
 49
-1.5
 49
0.25
 49
-1.5
 49
0.25
 49
-1.5
  0
ENDTAB
  0
TABLE
  2
LAYER
 70
     3
  0
LAYER
  2
0
 70
     0
 62
     7
  6
CONTINUOUS
  0
LAYER
  2
LAYER0015
 70
     0
 62
     7
  6
CONTINUOUS
  0
LAYER
  2
ZUWAKU
 70
     0
 62
     7
  6
CONTINUOUS
  0
ENDTAB
  0
TABLE
  2
STYLE
 70
     3
  0
STYLE
  2
STANDARD
 70
     0
 40
0.0
 41
1.0
 50
0.0
 71
     0
 42
0.2
  3
txt.shx
  4
bigfont.shx
  0
STYLE
  2
DCSTYLE0
 70
     0
 40
0.0
 41
0.7499999999999996
 50
0.0
 71
     0
 42
0.2
  3
txt.shx
  4
bigfont
  0
STYLE
  2
DCSTYLE1
 70
     0
 40
0.0
 41
0.8123476848090982
 50
0.0
 71
     0
 42
0.2
  3
ＭＳ 明朝
  4

  0
ENDTAB
  0
TABLE
  2
VIEW
 70
     0
  0
ENDTAB
  0
TABLE
  2
UCS
 70
     0
  0
ENDTAB
  0
TABLE
  2
APPID
 70
     2
  0
APPID
  2
ACAD
 70
     0
  0
APPID
  2
DAFUSIONOUT
 70
     0
  0
ENDTAB
  0
TABLE
  2
DIMSTYLE
 70
     1
  0
DIMSTYLE
  2
STANDARD
 70
     0
  3

  4

  5

  6

  7

 40
1.0
 41
0.18
 42
0.0625
 43
0.38
 44
0.18
 45
0.0
 46
0.0
 47
0.0
 48
0.0
140
0.18
141
0.09
142
0.0
143
25.4
144
1.0
145
0.0
146
1.0
147
0.09
 71
     0
 72
     0
 73
     1
 74
     1
 75
     0
 76
     0
 77
     0
 78
     0
170
     0
171
     2
172
     0
173
     0
174
     0
175
     0
176
     0
177
     0
178
     0
  0
ENDTAB
  0
ENDSEC
  0
SECTION
  2
BLOCKS
  0
BLOCK
  8
0
  2
$MODEL_SPACE
 70
     0
 10
0.0
 20
0.0
 30
0.0
  3
$MODEL_SPACE
  1

  0
ENDBLK
  5
21
  8
0
  0
BLOCK
 67
     1
  8
0
  2
$PAPER_SPACE
 70
     0
 10
0.0
 20
0.0
 30
0.0
  3
$PAPER_SPACE
  1

  0
ENDBLK
  5
1D
 67
     1
  8
0
  0
BLOCK
  8
0
  2
DC_GROUP_1
 70
     0
 10
0.0
 20
0.0
 30
0.0
  3
DC_GROUP_1
  1

  0
LINE
  5
16A
  8
0
  6
CONTINUOUS
 62
     3
 10
-209.6324004906524
 20
141.5983225702456
 30
0.0
 11
-205.4324004906525
 21
141.5983225702456
 31
0.0
  0
ENDBLK
  5
B2
  8
0
  0
BLOCK
  8
0
  2
DC_GROUP_2
 70
     0
 10
0.0
 20
0.0
 30
0.0
  3
DC_GROUP_2
  1

  0
LINE
  5
16B
  8
0
  6
CONTINUOUS
 62
     3
 10
-205.4324004906525
 20
141.5983225702456
 30
0.0
 11
-205.4324004906525
 21
-14.07667408235753
 31
0.0
  0
LINE
  5
16C
  8
0
  6
CONTINUOUS
 62
     3
 10
-205.4324004906525
 20
-26.07667247303218
 30
0.0
 11
-205.4324004906525
 21
-48.40167742975444
 31
0.0
  0
ENDBLK
  5
B5
  8
0
  0
BLOCK
  8
0
  2
DC_GROUP_3
 70
     0
 10
0.0
 20
0.0
 30
0.0
  3
DC_GROUP_3
  1

  0
LINE
  5
16D
  8
0
  6
CONTINUOUS
 62
     3
 10
-209.6324004906524
 20
-48.40167742975444
 30
0.0
 11
-205.4324004906525
 21
-48.40167742975444
 31
0.0
  0
ENDBLK
  5
B8
  8
0
  0
BLOCK
  8
0
  2
DA_IMAGEDIMGROUP_1
 70
     0
 10
0.0
 20
0.0
 30
0.0
  3
DA_IMAGEDIMGROUP_1
  1

  0
LINE
  5
16E
  8
0
  6
CONTINUOUS
 62
     7
 10
-127.1606347935755
 20
29.09832690648332
 30
0.0
 11
-127.1606347935755
 21
64.09831823400775
 31
0.0
  0
INSERT
  5
175
  8
0
 62
     7
  2
_OPEN30
 10
-127.1606347935755
 20
29.09832690648332
 30
0.0
 41
2.499995396844351
 42
2.500007167085477
 50
270.0
  0
INSERT
  5
176
  8
0
 62
     7
  2
_OPEN30
 10
-127.1606347935755
 20
64.09831823400775
 30
0.0
 41
2.499995396844351
 42
2.500007167085477
 50
90.0
  0
LINE
  5
177
  8
0
  6
CONTINUOUS
 62
     7
 10
-144.6323324253173
 20
29.09832690648332
 30
0.0
 11
-126.1606347935755
 21
29.09832690648332
 31
0.0
  0
LINE
  5
178
  8
0
  6
CONTINUOUS
 62
     7
 10
-144.6323324253173
 20
64.09831823400775
 30
0.0
 11
-126.1606347935755
 21
64.09831823400775
 31
0.0
  0
TEXT
  5
17A
  8
0
 62
     7
 10
-127.9106347712237
 20
41.79832257024555
 30
0.0
 40
4.0
  1
φ35
 50
90.0
 41
0.9163636363636359
  7
DCSTYLE0
 72
     5
 11
-127.9106347712237
 21
51.39832257024554
 31
0.0
  0
ENDBLK
  5
BB
  8
0
  0
BLOCK
  8
0
  2
DA_IMAGEDIMGROUP_2
 70
     0
 10
0.0
 20
0.0
 30
0.0
  3
DA_IMAGEDIMGROUP_2
  1

  0
LINE
  5
17B
  8
0
  6
CONTINUOUS
 62
     7
 10
-231.6352201305011
 20
9.598323196094302
 30
0.0
 11
-231.6352201305011
 21
83.59832337490825
 31
0.0
  0
INSERT
  5
17C
  8
0
 62
     7
  2
_OPEN30
 10
-231.6352201305011
 20
9.598323196094302
 30
0.0
 41
2.499995396844351
 42
2.500007167085477
 50
270.0
  0
INSERT
  5
17D
  8
0
 62
     7
  2
_OPEN30
 10
-231.6352201305011
 20
83.59832337490825
 30
0.0
 41
2.499995396844351
 42
2.500007167085477
 50
90.0
  0
LINE
  5
17E
  8
0
  6
CONTINUOUS
 62
     7
 10
-206.4324004906525
 20
9.598323196094299
 30
0.0
 11
-232.6352201305011
 21
9.598323196094302
 31
0.0
  0
LINE
  5
17F
  8
0
  6
CONTINUOUS
 62
     7
 10
-206.4324004906525
 20
83.59832337490825
 30
0.0
 11
-232.6352201305011
 21
83.59832337490825
 31
0.0
  0
TEXT
  5
180
  8
0
 62
     7
 10
-232.3852201081494
 20
41.79832328550125
 30
0.0
 40
4.0
  1
φ74
 50
90.0
 41
0.9000000000000021
  7
DCSTYLE0
 72
     5
 11
-232.3852201081494
 21
51.39832328550128
 31
0.0
  0
ENDBLK
  5
BE
  8
0
  0
BLOCK
  8
0
  2
DA_IMAGEDIMGROUP_3
 70
     0
 10
0.0
 20
0.0
 30
0.0
  3
DA_IMAGEDIMGROUP_3
  1

  0
LINE
  5
181
  8
0
  6
CONTINUOUS
 62
     7
 10
-221.704853583872
 20
22.59832042447841
 30
0.0
 11
-221.704853583872
 21
70.5983218549898
 31
0.0
  0
INSERT
  5
182
  8
0
 62
     7
  2
_OPEN30
 10
-221.704853583872
 20
22.59832042447841
 30
0.0
 41
2.499995396844351
 42
2.500007167085477
 50
270.0
  0
INSERT
  5
183
  8
0
 62
     7
  2
_OPEN30
 10
-221.704853583872
 20
70.5983218549898
 30
0.0
 41
2.499995396844351
 42
2.500007167085477
 50
90.0
  0
LINE
  5
184
  8
0
  6
CONTINUOUS
 62
     7
 10
-177.6323314418406
 20
22.5983204244784
 30
0.0
 11
-222.704853583872
 21
22.59832042447841
 31
0.0
  0
LINE
  5
185
  8
0
  6
CONTINUOUS
 62
     7
 10
-177.6323314418406
 20
70.5983218549898
 30
0.0
 11
-222.704853583872
 21
70.5983218549898
 31
0.0
  0
TEXT
  5
186
  8
0
 62
     7
 10
-222.4548535615203
 20
33.79832113973411
 30
0.0
 40
4.0
  1
M48×Ｐ1.5
 50
90.0
 41
0.9142857142857151
  7
DCSTYLE0
 72
     5
 11
-222.4548535615203
 21
59.39832113973413
 31
0.0
  0
ENDBLK
  5
C1
  8
0
  0
BLOCK
  8
0
  2
DA_IMAGEDIMGROUP_4
 70
     0
 10
0.0
 20
0.0
 30
0.0
  3
DA_IMAGEDIMGROUP_4
  1

  0
LINE
  5
187
  8
0
  6
CONTINUOUS
 62
     7
 10
-64.49395458360604
 20
26.09832066289692
 30
0.0
 11
-64.49395458360604
 21
67.09832447759418
 31
0.0
  0
INSERT
  5
188
  8
0
 62
     7
  2
_OPEN30
 10
-64.49395458360604
 20
26.09832066289692
 30
0.0
 41
2.499995396844351
 42
2.500007167085477
 50
270.0
  0
INSERT
  5
189
  8
0
 62
     7
  2
_OPEN30
 10
-64.49395458360604
 20
67.09832447759418
 30
0.0
 41
2.499995396844351
 42
2.500007167085477
 50
90.0
  0
LINE
  5
18A
  8
0
  6
CONTINUOUS
 62
     7
 10
-73.63241834541013
 20
26.09832066289692
 30
0.0
 11
-62.99395462830952
 21
26.09832066289692
 31
0.0
  0
LINE
  5
18B
  8
0
  6
CONTINUOUS
 62
     7
 10
-73.63241834541013
 20
67.09832447759418
 30
0.0
 11
-62.99395462830952
 21
67.09832447759418
 31
0.0
  0
TEXT
  5
18C
  8
0
 62
     7
 10
-65.2439545612543
 20
38.59832257024556
 30
0.0
 40
4.0
  1
φ41Ｈ7
 50
90.0
 41
0.9032258064516129
  7
DCSTYLE0
 72
     5
 11
-65.2439545612543
 21
54.59832257024556
 31
0.0
  0
ENDBLK
  5
C4
  8
0
  0
BLOCK
  8
0
  2
DA_IMAGEDIMGROUP_5
 70
     0
 10
0.0
 20
0.0
 30
0.0
  3
DA_IMAGEDIMGROUP_5
  1

  0
LINE
  5
18D
  8
0
  6
CONTINUOUS
 62
     7
 10
-176.1323314865441
 20
32.98388205463853
 30
0.0
 11
-160.132324333987
 21
32.98388205463853
 31
0.0
  0
INSERT
  5
18E
  8
0
 62
     7
  2
_OPEN30
 10
-176.1323314865441
 20
32.98388205463853
 30
0.0
 41
2.499995396844351
 42
2.500007167085477
 50
180.0
  0
INSERT
  5
18F
  8
0
 62
     7
  2
_OPEN30
 10
-160.132324333987
 20
32.98388205463853
 30
0.0
 41
2.499995396844351
 42
2.500007167085477
 50
360.0
  0
LINE
  5
190
  8
0
  6
CONTINUOUS
 62
     7
 10
-160.132324333987
 20
32.98388205463853
 30
0.0
 11
-156.1323168238019
 21
32.98388205463853
 31
0.0
  0
LINE
  5
191
  8
0
  6
CONTINUOUS
 62
     7
 10
-148.6812007629461
 20
32.98388205463853
 30
0.0
 11
-156.1323168238019
 21
32.98388205463853
 31
0.0
  0
INSERT
  5
192
  8
0
 62
     7
  2
_OPEN30
 10
-156.1323168238019
 20
32.98388205463853
 30
0.0
 41
2.499995396844351
 42
2.500007167085477
 50
180.0
  0
TEXT
  5
193
  8
0
 62
     7
 10
-171.3323279102655
 20
33.73388203228679
 30
0.0
 40
4.0
  1
16
 41
0.9081081081081049
  7
DCSTYLE0
 72
     5
 11
-164.9323279102655
 21
33.73388203228679
 31
0.0
  0
TEXT
  5
194
  8
0
 62
     7
 10
-152.8812007629461
 20
33.48388205463853
 30
0.0
 40
4.0
  1
4
 41
0.93333333333333
  7
DCSTYLE0
 72
     5
 11
-149.6812007629461
 21
33.48388205463853
 31
0.0
  0
ENDBLK
  5
C7
  8
0
  0
BLOCK
  8
0
  2
DA_IMAGEDIMGROUP_6
 70
     0
 10
0.0
 20
0.0
 30
0.0
  3
DA_IMAGEDIMGROUP_6
  1

  0
LINE
  5
195
  8
0
  6
CONTINUOUS
 62
     7
 10
-144.6323324253173
 20
42.59832078210627
 30
0.0
 11
-134.4396083429273
 21
42.59832078210627
 31
0.0
  0
LINE
  5
196
  8
0
  6
CONTINUOUS
 62
     7
 10
-144.6323324253173
 20
50.59832435838484
 30
0.0
 11
-134.4396083429273
 21
50.59832435838484
 31
0.0
  0
LINE
  5
197
  8
0
  6
CONTINUOUS
 62
     7
 10
-135.9396082982238
 20
42.59832078210627
 30
0.0
 11
-135.9396082982238
 21
50.59832435838484
 31
0.0
  0
INSERT
  5
198
  8
0
 62
     7
  2
_OPEN30
 10
-135.9396082982238
 20
42.59832078210627
 30
0.0
 41
2.499995396844351
 42
2.500007167085477
 50
270.0
  0
INSERT
  5
199
  8
0
 62
     7
  2
_OPEN30
 10
-135.9396082982238
 20
50.59832435838484
 30
0.0
 41
2.499995396844351
 42
2.500007167085477
 50
90.0
  0
TEXT
  5
19A
  8
0
 62
     7
 10
-136.4396082982238
 20
44.73697419194367
 30
0.0
 40
4.0
  1
8
 50
90.0
 41
0.9882352941176435
  7
DCSTYLE0
 72
     5
 11
-136.4396082982238
 21
47.93697419194365
 31
0.0
  0
ENDBLK
  5
CA
  8
0
  0
BLOCK
  8
0
  2
DA_IMAGEDIMGROUP_7
 70
     0
 10
0.0
 20
0.0
 30
0.0
  3
DA_IMAGEDIMGROUP_7
  1

  0
LINE
  5
19B
  8
0
  6
CONTINUOUS
 62
     7
 10
-150.1323170026159
 20
52.09832431368136
 30
0.0
 11
-150.1323170026159
 21
59.24533895907948
 31
0.0
  0
LINE
  5
19C
  8
0
  6
CONTINUOUS
 62
     7
 10
-150.1323170026159
 20
57.74533900378296
 30
0.0
 11
-146.1323323806138
 21
57.74533900378296
 31
0.0
  0
LINE
  5
19D
  8
0
  6
CONTINUOUS
 62
     7
 10
-139.4834423806138
 20
57.74533900378296
 30
0.0
 11
-146.1323323806138
 21
57.74533900378296
 31
0.0
  0
INSERT
  5
19E
  8
0
 62
     7
  2
_OPEN30
 10
-146.1323323806138
 20
57.74533900378296
 30
0.0
 41
2.499995396844351
 42
2.500007167085477
 50
180.0
  0
LINE
  5
19F
  8
0
  6
CONTINUOUS
 62
     7
 10
-155.1323170026159
 20
57.74533900378296
 30
0.0
 11
-150.1323170026159
 21
57.74533900378296
 31
0.0
  0
INSERT
  5
1A0
  8
0
 62
     7
  2
_OPEN30
 10
-150.1323170026159
 20
57.74533900378296
 30
0.0
 41
2.499995396844351
 42
2.500007167085477
 50
360.0
  0
TEXT
  5
1A1
  8
0
 62
     7
 10
-143.6834423806138
 20
58.24533900378296
 30
0.0
 40
4.0
  1
4
 41
0.93333333333333
  7
DCSTYLE0
 72
     5
 11
-140.4834423806138
 21
58.24533900378296
 31
0.0
  0
ENDBLK
  5
CD
  8
0
  0
BLOCK
  8
0
  2
DA_IMAGEDIMGROUP_8
 70
     0
 10
0.0
 20
0.0
 30
0.0
  3
DA_IMAGEDIMGROUP_8
  1

  0
LINE
  5
1A2
  8
0
  6
CONTINUOUS
 62
     7
 10
-136.1280012390921
 20
-30.07668016337239
 30
0.0
 11
-136.1280012390921
 21
-10.07668016337239
 31
0.0
  0
INSERT
  5
1A3
  8
0
 62
     7
  2
_OPEN30
 10
-136.1280012390921
 20
-30.07668016337239
 30
0.0
 41
2.499995396844351
 42
2.500007167085477
 50
270.0
  0
INSERT
  5
1A4
  8
0
 62
     7
  2
_OPEN30
 10
-136.1280012390921
 20
-10.07668016337239
 30
0.0
 41
2.499995396844351
 42
2.500007167085477
 50
90.0
  0
TEXT
  5
1A5
  8
0
 62
     7
 10
-136.8780012167403
 20
-24.8766801633724
 30
0.0
 40
4.0
  1
φ20
 50
90.0
 41
0.9163636363636387
  7
DCSTYLE0
 72
     5
 11
-136.8780012167403
 21
-15.27668016337238
 31
0.0
  0
ENDBLK
  5
D0
  8
0
  0
BLOCK
  8
0
  2
DA_IMAGEDIMGROUP_9
 70
     0
 10
0.0
 20
0.0
 30
0.0
  3
DA_IMAGEDIMGROUP_9
  1

  0
LINE
  5
1A6
  8
0
  6
CONTINUOUS
 62
     7
 10
-114.7976639905459
 20
-31.87667283066003
 30
0.0
 11
-114.7976639905459
 21
-8.27667408235753
 31
0.0
  0
INSERT
  5
1A7
  8
0
 62
     7
  2
_OPEN30
 10
-114.7976639905459
 20
-31.87667283066003
 30
0.0
 41
2.499995396844351
 42
2.500007167085477
 50
270.0
  0
INSERT
  5
1A8
  8
0
 62
     7
  2
_OPEN30
 10
-114.7976639905459
 20
-8.27667408235753
 30
0.0
 41
2.499995396844351
 42
2.500007167085477
 50
90.0
  0
LINE
  5
1A9
  8
0
  6
CONTINUOUS
 62
     7
 10
-106.1324182560032
 20
-31.87667283066003
 30
0.0
 11
-115.7976639905459
 21
-31.87667283066003
 31
0.0
  0
LINE
  5
1AA
  8
0
  6
CONTINUOUS
 62
     7
 10
-106.1324182560032
 20
-8.27667408235753
 30
0.0
 11
-115.7976639905459
 21
-8.27667408235753
 31
0.0
  0
TEXT
  5
1AB
  8
0
 62
     7
 10
-115.5476639681942
 20
-28.07667345650878
 30
0.0
 40
4.0
  1
φ23.6
 50
90.0
 41
0.9882352941176471
  7
DCSTYLE0
 72
     5
 11
-115.5476639681942
 21
-12.07667345650878
 31
0.0
  0
ENDBLK
  5
D3
  8
0
  0
BLOCK
  8
0
  2
DA_IMAGEDIMGROUP_10
 70
     0
 10
0.0
 20
0.0
 30
0.0
  3
DA_IMAGEDIMGROUP_10
  1

  0
LINE
  5
1AC
  8
0
  6
CONTINUOUS
 62
     7
 10
-84.63241830070665
 20
30.09582488212985
 30
0.0
 11
-74.63241830070665
 21
30.09582488212985
 31
0.0
  0
INSERT
  5
1AD
  8
0
 62
     7
  2
_OPEN30
 10
-84.63241830070665
 20
30.09582488212985
 30
0.0
 41
2.499995396844351
 42
2.500007167085477
 50
180.0
  0
INSERT
  5
1AE
  8
0
 62
     7
  2
_OPEN30
 10
-74.63241830070665
 20
30.09582488212985
 30
0.0
 41
2.499995396844351
 42
2.500007167085477
 50
360.0
  0
TEXT
  5
1AF
  8
0
 62
     7
 10
-82.83241830070665
 20
30.84582485977811
 30
0.0
 40
4.0
  1
10
 41
0.9081081081081089
  7
DCSTYLE0
 72
     5
 11
-76.43241830070664
 21
30.84582485977811
 31
0.0
  0
ENDBLK
  5
D6
  8
0
  0
BLOCK
  8
0
  2
DA_IMAGEDIMGROUP_11
 70
     0
 10
0.0
 20
0.0
 30
0.0
  3
DA_IMAGEDIMGROUP_11
  1

  0
LINE
  5
1B0
  8
0
  6
CONTINUOUS
 62
     7
 10
-240.6441112473806
 20
-48.40167742975444
 30
0.0
 11
-240.6441112473806
 21
141.5983225702456
 31
0.0
  0
INSERT
  5
1B1
  8
0
 62
     7
  2
_OPEN30
 10
-240.6441112473806
 20
-48.40167742975444
 30
0.0
 41
2.499995396844351
 42
2.500007167085477
 50
270.0
  0
INSERT
  5
1B2
  8
0
 62
     7
  2
_OPEN30
 10
-240.6441112473806
 20
141.5983225702456
 30
0.0
 41
2.499995396844351
 42
2.500007167085477
 50
90.0
  0
LINE
  5
1B3
  8
0
  6
CONTINUOUS
 62
     7
 10
-210.6324004906524
 20
-48.40167742975444
 30
0.0
 11
-241.6441112473806
 21
-48.40167742975444
 31
0.0
  0
LINE
  5
1B4
  8
0
  6
CONTINUOUS
 62
     7
 10
-210.6324004906524
 20
141.5983225702456
 30
0.0
 11
-241.6441112473806
 21
141.5983225702456
 31
0.0
  0
TEXT
  5
1B5
  8
0
 62
     7
 10
-241.1441112473806
 20
38.59832257024556
 30
0.0
 40
4.0
  1
φ190H
 50
90.0
 41
0.875
  7
DCSTYLE0
 72
     5
 11
-241.1441112473806
 21
54.59832257024556
 31
0.0
  0
ENDBLK
  5
D9
  8
0
  0
BLOCK
  8
0
  2
DA_IMAGEDIMGROUP_12
 70
     0
 10
0.0
 20
0.0
 30
0.0
  3
DA_IMAGEDIMGROUP_12
  1

  0
LINE
  5
1B6
  8
0
  6
CONTINUOUS
 62
     7
 10
-218.0208385660689
 20
-26.07667247303218
 30
0.0
 11
-218.0208385660689
 21
-14.07667408235753
 31
0.0
  0
INSERT
  5
1B7
  8
0
 62
     7
  2
_OPEN30
 10
-218.0208385660689
 20
-26.07667247303218
 30
0.0
 41
2.499995396844351
 42
2.500007167085477
 50
270.0
  0
INSERT
  5
1B8
  8
0
 62
     7
  2
_OPEN30
 10
-218.0208385660689
 20
-14.07667408235753
 30
0.0
 41
2.499995396844351
 42
2.500007167085477
 50
90.0
  0
LINE
  5
1B9
  8
0
  6
CONTINUOUS
 62
     7
 10
-218.0208385660689
 20
-1.027784082357504
 30
0.0
 11
-218.0208385660689
 21
-14.07667408235753
 31
0.0
  0
TEXT
  5
1BA
  8
0
 62
     7
 10
-218.5208385660689
 20
-11.62778408235753
 30
0.0
 40
4.0
  1
M12
 50
90.0
 41
0.826229508196721
  7
DCSTYLE0
 72
     5
 11
-218.5208385660689
 21
-2.027784082357533
 31
0.0
  0
ENDBLK
  5
DC
  8
0
  0
BLOCK
  8
0
  2
DA_IMAGEDIMGROUP_13
 70
     0
 10
0.0
 20
0.0
 30
0.0
  3
DA_IMAGEDIMGROUP_13
  1

  0
LINE
  5
1BB
  8
0
  6
CONTINUOUS
 62
     7
 10
-250.6441106513342
 20
-55.9017125219878
 30
0.0
 11
-250.6441106513342
 21
149.0983355340476
 31
0.0
  0
INSERT
  5
1BC
  8
0
 62
     7
  2
_OPEN30
 10
-250.6441106513342
 20
-55.9017125219878
 30
0.0
 41
2.499995396844351
 42
2.500007167085477
 50
270.0
  0
INSERT
  5
1BD
  8
0
 62
     7
  2
_OPEN30
 10
-250.6441106513342
 20
149.0983355340476
 30
0.0
 41
2.499995396844351
 42
2.500007167085477
 50
90.0
  0
LINE
  5
1BE
  8
0
  6
CONTINUOUS
 62
     7
 10
-209.6323700028774
 20
-55.9017125219878
 30
0.0
 11
-251.6441106513342
 21
-55.9017125219878
 31
0.0
  0
LINE
  5
1BF
  8
0
  6
CONTINUOUS
 62
     7
 10
-209.6323713577995
 20
149.0983355340476
 30
0.0
 11
-251.6441106513342
 21
149.0983355340476
 31
0.0
  0
TEXT
  5
1C0
  8
0
 62
     7
 10
-251.1441106513342
 20
40.19831150602988
 30
0.0
 40
4.0
  1
φ205
 50
90.0
 41
0.8960000000000009
  7
DCSTYLE0
 72
     5
 11
-251.1441106513342
 21
52.99831150602989
 31
0.0
  0
ENDBLK
  5
DF
  8
0
  0
BLOCK
  8
0
  2
DA_IMAGEDIMGROUP_14
 70
     0
 10
0.0
 20
0.0
 30
0.0
  3
DA_IMAGEDIMGROUP_14
  1

  0
LINE
  5
1C1
  8
0
  6
CONTINUOUS
 62
     7
 10
-260.6441100552877
 20
-60.90167613335345
 30
0.0
 11
-260.6441100552877
 21
154.0983223020248
 31
0.0
  0
INSERT
  5
1C2
  8
0
 62
     7
  2
_OPEN30
 10
-260.6441100552877
 20
-60.90167613335345
 30
0.0
 41
2.499995396844351
 42
2.500007167085477
 50
270.0
  0
INSERT
  5
1C3
  8
0
 62
     7
  2
_OPEN30
 10
-260.6441100552877
 20
154.0983223020248
 30
0.0
 41
2.499995396844351
 42
2.500007167085477
 50
90.0
  0
LINE
  5
1C4
  8
0
  6
CONTINUOUS
 62
     7
 10
-201.6323856938
 20
-60.90170474358182
 30
0.0
 11
-261.6441100552876
 21
-60.90167564853066
 31
0.0
  0
LINE
  5
1C5
  8
0
  6
CONTINUOUS
 62
     7
 10
-201.6323856938
 20
154.0983498840729
 30
0.0
 11
-261.6441100552876
 21
154.0983218346254
 31
0.0
  0
TEXT
  5
1C6
  8
0
 62
     7
 10
-261.1441100552877
 20
40.19832308433571
 30
0.0
 40
4.0
  1
φ215
 50
90.0
 41
0.8959999999999989
  7
DCSTYLE0
 72
     5
 11
-261.1441100552877
 21
52.99832308433569
 31
0.0
  0
ENDBLK
  5
E2
  8
0
  0
BLOCK
  8
0
  2
DA_IMAGEDIMGROUP_15
 70
     0
 10
0.0
 20
0.0
 30
0.0
  3
DA_IMAGEDIMGROUP_15
  1

  0
LINE
  5
1C7
  8
0
  6
CONTINUOUS
 62
     7
 10
-224.6324035424103
 20
-27.07667247303218
 30
0.0
 11
-224.6324035424103
 21
-39.51900013108243
 31
0.0
  0
LINE
  5
1C8
  8
0
  6
CONTINUOUS
 62
     7
 10
-224.6324035424103
 20
-38.51900013108243
 30
0.0
 11
-205.4324004906525
 21
-38.51900013108243
 31
0.0
  0
INSERT
  5
1C9
  8
0
 62
     7
  2
_OPEN30
 10
-224.6324035424103
 20
-38.51900013108243
 30
0.0
 41
2.499995396844351
 42
2.500007167085477
 50
180.0
  0
INSERT
  5
1CA
  8
0
 62
     7
  2
_OPEN30
 10
-205.4324004906525
 20
-38.51900013108243
 30
0.0
 41
2.499995396844351
 42
2.500007167085477
 50
360.0
  0
TEXT
  5
1CB
  8
0
 62
     7
 10
-218.2324020165314
 20
-38.01900013108243
 30
0.0
 40
4.0
  1
19
 41
0.93333333333333
  7
DCSTYLE0
 72
     5
 11
-211.8324020165314
 21
-38.01900013108243
 31
0.0
  0
ENDBLK
  5
E5
  8
0
  0
BLOCK
  8
0
  2
DA_IMAGEDIMGROUP_16
 70
     0
 10
0.0
 20
0.0
 30
0.0
  3
DA_IMAGEDIMGROUP_16
  1

  0
LINE
  5
1CC
  8
0
  6
CONTINUOUS
 62
     7
 10
-71.6324259897056
 20
91.59832695118682
 30
0.0
 11
-39.90539529793942
 21
91.59832695118682
 31
0.0
  0
LINE
  5
1CD
  8
0
  6
CONTINUOUS
 62
     7
 10
-45.81159164570106
 20
104.0983189492635
 30
0.0
 11
-39.90539529793942
 21
104.0983189492635
 31
0.0
  0
LINE
  5
1CE
  8
0
  6
CONTINUOUS
 62
     7
 10
-40.90539529793942
 20
91.59832695118682
 30
0.0
 11
-40.90539529793942
 21
104.0983189492635
 31
0.0
  0
LINE
  5
1CF
  8
0
  6
CONTINUOUS
 62
     7
 10
-45.63298371035016
 20
134.0983180551939
 30
0.0
 11
-39.90539529793942
 21
134.0983180551939
 31
0.0
  0
LINE
  5
1D0
  8
0
  6
CONTINUOUS
 62
     7
 10
-40.90539529793942
 20
72.14943695118681
 30
0.0
 11
-40.90539529793942
 21
91.59832695118682
 31
0.0
  0
INSERT
  5
1D1
  8
0
 62
     7
  2
_OPEN30
 10
-40.90539529793942
 20
91.59832695118682
 30
0.0
 41
2.499995396844351
 42
2.500007167085477
 50
90.0
  0
LINE
  5
1D2
  8
0
  6
CONTINUOUS
 62
     7
 10
-40.90539529793942
 20
104.0983189492635
 30
0.0
 11
-40.90539529793942
 21
134.0983180551939
 31
0.0
  0
INSERT
  5
1D3
  8
0
 62
     7
  2
_OPEN30
 10
-40.90539529793942
 20
104.0983189492635
 30
0.0
 41
2.499995396844351
 42
2.500007167085477
 50
270.0
  0
INSERT
  5
1D4
  8
0
 62
     7
  2
_OPEN30
 10
-40.90539529793942
 20
134.0983180551939
 30
0.0
 41
2.499995396844351
 42
2.500007167085477
 50
90.0
  0
TEXT
  5
1D5
  8
0
 62
     7
 10
-41.40539529793942
 20
73.14943695118681
 30
0.0
 40
4.0
  1
MIN10
 50
90.0
 41
0.9230769230769231
  7
DCSTYLE0
 72
     5
 11
-41.40539529793942
 21
89.14943695118681
 31
0.0
  0
TEXT
  5
1D6
  8
0
 62
     7
 10
-41.40539529793942
 20
115.8983185022287
 30
0.0
 40
4.0
  1
30
 50
90.0
 41
0.9081081081081089
  7
DCSTYLE0
 72
     5
 11
-41.40539529793942
 21
122.2983185022287
 31
0.0
  0
ENDBLK
  5
E8
  8
0
  0
BLOCK
  8
0
  2
DA_IMAGEDIMGROUP_17
 70
     0
 10
0.0
 20
0.0
 30
0.0
  3
DA_IMAGEDIMGROUP_17
  1

  0
LINE
  5
1D7
  8
0
  6
CONTINUOUS
 62
     7
 10
-73.94268776101038
 20
-4.401677429754443
 30
0.0
 11
-10.9707639037166
 21
-4.401677429754443
 31
0.0
  0
LINE
  5
1D8
  8
0
  6
CONTINUOUS
 62
     7
 10
-11.9707639037166
 20
-4.401677429754443
 30
0.0
 11
-11.9707639037166
 21
85.66122533173481
 31
0.0
  0
INSERT
  5
1D9
  8
0
 62
     7
  2
_OPEN30
 10
-11.9707639037166
 20
-4.401677429754443
 30
0.0
 41
2.499995396844351
 42
2.500007167085477
 50
270.0
  0
TEXT
  5
1DA
  8
0
 62
     7
 10
-12.4707639037166
 20
21.19832476071619
 30
0.0
 40
4.0
  1
φ102H7(ﾁｬｯｸ本体）
 50
90.0
 41
0.9151750972762644
  7
DCSTYLE0
 72
     5
 11
-12.4707639037166
 21
65.99832476071619
 31
0.0
  0
ENDBLK
  5
EB
  8
0
  0
BLOCK
  8
0
  2
DA_IMAGEDIMGROUP_18
 70
     0
 10
0.0
 20
0.0
 30
0.0
  3
DA_IMAGEDIMGROUP_18
  1

  0
LINE
  5
1DB
  8
0
  6
CONTINUOUS
 62
     7
 10
-74.63241830070665
 20
154.1811917845756
 30
0.0
 11
-74.63241830070665
 21
170.1782117135362
 31
0.0
  0
LINE
  5
1DC
  8
0
  6
CONTINUOUS
 62
     7
 10
-72.6324259897056
 20
155.5983250736406
 30
0.0
 11
-72.6324259897056
 21
170.1782117135362
 31
0.0
  0
LINE
  5
1DD
  8
0
  6
CONTINUOUS
 62
     7
 10
-74.63241830070665
 20
169.1782117135362
 30
0.0
 11
-72.6324259897056
 21
169.1782117135362
 31
0.0
  0
LINE
  5
1DE
  8
0
  6
CONTINUOUS
 62
     7
 10
-113.2813083007067
 20
169.1782117135362
 30
0.0
 11
-74.63241830070665
 21
169.1782117135362
 31
0.0
  0
INSERT
  5
1DF
  8
0
 62
     7
  2
_OPEN30
 10
-74.63241830070665
 20
169.1782117135362
 30
0.0
 41
2.499995396844351
 42
2.500007167085477
 50
360.0
  0
LINE
  5
1E0
  8
0
  6
CONTINUOUS
 62
     7
 10
-67.6324259897056
 20
169.1782117135362
 30
0.0
 11
-72.6324259897056
 21
169.1782117135362
 31
0.0
  0
INSERT
  5
1E1
  8
0
 62
     7
  2
_OPEN30
 10
-72.6324259897056
 20
169.1782117135362
 30
0.0
 41
2.499995396844351
 42
2.500007167085477
 50
180.0
  0
TEXT
  5
1E2
  8
0
 62
     7
 10
-112.2813083007067
 20
169.6782117135362
 30
0.0
 40
4.0
  1
2(チャック上面から）
 41
0.957512953367876
  7
DCSTYLE0
 72
     5
 11
-77.08130830070665
 21
169.6782117135362
 31
0.0
  0
ENDBLK
  5
EE
  8
0
  0
BLOCK
  8
0
  2
DC_GROUP_4
 70
     0
 10
0.0
 20
0.0
 30
0.0
  3
DC_GROUP_4
  1

  0
LINE
  5
1E3
  8
0
  6
CONTINUOUS
 62
     7
 10
-72.75212571317554
 20
149.6637570520691
 30
0.0
 11
-56.93692087575432
 21
173.9137378027816
 31
0.0
  0
INSERT
  5
1E4
  8
0
 62
     7
  2
_OPEN30
 10
-72.75212571317554
 20
149.6637570520691
 30
0.0
 41
2.499995396844351
 42
2.500007167085477
 50
236.888658039628
  0
LINE
  5
1E5
  8
0
  6
CONTINUOUS
 62
     7
 10
-56.93692087575432
 20
173.9137378027816
 30
0.0
 11
-12.13692087575432
 21
173.9137378027816
 31
0.0
  0
TEXT
  5
1E6
  8
0
 62
     7
 10
-56.93692087575432
 20
174.4137378027816
 30
0.0
 40
4.0
  1
セレーションP1.5山60°
 41
0.9719008264462811
  7
DCSTYLE0
 72
     5
 11
-12.13692087575432
 21
174.4137378027816
 31
0.0
  0
ENDBLK
  5
F1
  8
0
  0
BLOCK
  8
0
  2
DC_GROUP_5
 70
     0
 10
0.0
 20
0.0
 30
0.0
  3
DC_GROUP_5
  1

  0
LINE
  5
1E7
  8
0
  6
CONTINUOUS
 62
     7
 10
-205.4324004906525
 20
142.5983225702456
 30
0.0
 11
-205.4324004906525
 21
169.6782117135362
 31
0.0
  0
LINE
  5
1E8
  8
0
  6
CONTINUOUS
 62
     7
 10
-176.1323314865441
 20
83.598321497362
 30
0.0
 11
-176.1323314865441
 21
110.8934850500752
 31
0.0
  0
LINE
  5
1E9
  8
0
  6
CONTINUOUS
 62
     7
 10
-176.1323314865441
 20
108.2200802020488
 30
0.0
 11
-176.1323314865441
 21
169.6782117135362
 31
0.0
  0
LINE
  5
1EA
  8
0
  6
CONTINUOUS
 62
     7
 10
-205.4324004906525
 20
168.6782117135362
 30
0.0
 11
-176.1323314865441
 21
168.6782117135362
 31
0.0
  0
INSERT
  5
1EB
  8
0
 62
     7
  2
_OPEN30
 10
-205.4324004906525
 20
168.6782117135362
 30
0.0
 41
2.499995396844351
 42
2.500007167085477
 50
180.0
  0
INSERT
  5
1EC
  8
0
 62
     7
  2
_OPEN30
 10
-176.1323314865441
 20
168.6782117135362
 30
0.0
 41
2.499995396844351
 42
2.500007167085477
 50
360.0
  0
TEXT
  5
1ED
  8
0
 62
     7
 10
-201.9823659885983
 20
169.1782117135362
 30
0.0
 40
4.0
  1
MAX41.1
 41
0.9560975609756087
  7
DCSTYLE0
 72
     5
 11
-179.5823659885983
 21
169.1782117135362
 31
0.0
  0
ENDBLK
  5
F4
  8
0
  0
BLOCK
  8
0
  2
DA_IMAGEDIMGROUP_19
 70
     0
 10
0.0
 20
0.0
 30
0.0
  3
DA_IMAGEDIMGROUP_19
  1

  0
LINE
  5
1EE
  8
0
  6
CONTINUOUS
 62
     7
 10
-139.6324183007066
 20
-64.91947200119965
 30
0.0
 11
-139.6324183007066
 21
-71.90167553730704
 31
0.0
  0
LINE
  5
1EF
  8
0
  6
CONTINUOUS
 62
     7
 10
-74.63241830070665
 20
-59.90167810030668
 30
0.0
 11
-74.63241830070665
 21
-71.90167553730704
 31
0.0
  0
LINE
  5
1F0
  8
0
  6
CONTINUOUS
 62
     7
 10
-139.6324183007066
 20
-70.90167553730704
 30
0.0
 11
-74.63241830070665
 21
-70.90167553730704
 31
0.0
  0
INSERT
  5
1F1
  8
0
 62
     7
  2
_OPEN30
 10
-139.6324183007066
 20
-70.90167553730704
 30
0.0
 41
2.499995396844351
 42
2.500007167085477
 50
180.0
  0
INSERT
  5
1F2
  8
0
 62
     7
  2
_OPEN30
 10
-74.63241830070665
 20
-70.90167553730704
 30
0.0
 41
2.499995396844351
 42
2.500007167085477
 50
360.0
  0
TEXT
  5
1F3
  8
0
 62
     7
 10
-110.3324183007066
 20
-70.40167553730704
 30
0.0
 40
4.0
  1
65
 41
0.9081081081081089
  7
DCSTYLE0
 72
     5
 11
-103.9324183007066
 21
-70.40167553730704
 31
0.0
  0
ENDBLK
  5
F7
  8
0
  0
BLOCK
  8
0
  2
DA_IMAGEDIMGROUP_20
 70
     0
 10
0.0
 20
0.0
 30
0.0
  3
DA_IMAGEDIMGROUP_20
  1

  0
LINE
  5
1F4
  8
0
  6
CONTINUOUS
 62
     7
 10
-156.1324035424103
 20
-64.76499990003379
 30
0.0
 11
-156.1324035424103
 21
-81.90167494126062
 31
0.0
  0
LINE
  5
1F5
  8
0
  6
CONTINUOUS
 62
     7
 10
-74.63241830070665
 20
-59.90167810030668
 30
0.0
 11
-74.63241830070665
 21
-81.90167494126062
 31
0.0
  0
LINE
  5
1F6
  8
0
  6
CONTINUOUS
 62
     7
 10
-156.1324035424103
 20
-80.90167494126062
 30
0.0
 11
-74.63241830070665
 21
-80.90167494126062
 31
0.0
  0
INSERT
  5
1F7
  8
0
 62
     7
  2
_OPEN30
 10
-156.1324035424103
 20
-80.90167494126062
 30
0.0
 41
2.499995396844351
 42
2.500007167085477
 50
180.0
  0
INSERT
  5
1F8
  8
0
 62
     7
  2
_OPEN30
 10
-74.63241830070665
 20
-80.90167494126062
 30
0.0
 41
2.499995396844351
 42
2.500007167085477
 50
360.0
  0
TEXT
  5
1F9
  8
0
 62
     7
 10
-121.7824109215585
 20
-80.40167494126062
 30
0.0
 40
4.0
  1
81.5
 41
1.002985074626866
  7
DCSTYLE0
 72
     5
 11
-108.9824109215585
 21
-80.40167494126062
 31
0.0
  0
ENDBLK
  5
FA
  8
0
  0
BLOCK
  8
0
  2
DA_IMAGEDIMGROUP_21
 70
     0
 10
0.0
 20
0.0
 30
0.0
  3
DA_IMAGEDIMGROUP_21
  1

  0
LINE
  5
1FA
  8
0
  6
CONTINUOUS
 62
     7
 10
-201.6323749406878
 20
-60.90170937746846
 30
0.0
 11
-201.6323749406878
 21
-91.9016743452142
 31
0.0
  0
LINE
  5
1FB
  8
0
  6
CONTINUOUS
 62
     7
 10
-209.6324004906524
 20
-55.90166126070346
 30
0.0
 11
-209.6324004906524
 21
-91.9016743452142
 31
0.0
  0
LINE
  5
1FC
  8
0
  6
CONTINUOUS
 62
     7
 10
-209.6324004906524
 20
-90.9016743452142
 30
0.0
 11
-201.6323749406878
 21
-90.9016743452142
 31
0.0
  0
LINE
  5
1FD
  8
0
  6
CONTINUOUS
 62
     7
 10
-74.63241830070665
 20
-59.90167810030668
 30
0.0
 11
-74.63241830070665
 21
-91.9016743452142
 31
0.0
  0
LINE
  5
1FE
  8
0
  6
CONTINUOUS
 62
     7
 10
-201.6323749406878
 20
-90.9016743452142
 30
0.0
 11
-74.63241830070665
 21
-90.9016743452142
 31
0.0
  0
INSERT
  5
1FF
  8
0
 62
     7
  2
_OPEN30
 10
-201.6323749406878
 20
-90.9016743452142
 30
0.0
 41
2.499995396844351
 42
2.500007167085477
 50
180.0
  0
INSERT
  5
200
  8
0
 62
     7
  2
_OPEN30
 10
-74.63241830070665
 20
-90.9016743452142
 30
0.0
 41
2.499995396844351
 42
2.500007167085477
 50
360.0
  0
LINE
  5
201
  8
0
  6
CONTINUOUS
 62
     7
 10
-216.2812904906524
 20
-90.9016743452142
 30
0.0
 11
-209.6324004906524
 21
-90.9016743452142
 31
0.0
  0
INSERT
  5
202
  8
0
 62
     7
  2
_OPEN30
 10
-209.6324004906524
 20
-90.9016743452142
 30
0.0
 41
2.499995396844351
 42
2.500007167085477
 50
360.0
  0
TEXT
  5
203
  8
0
 62
     7
 10
-215.2812904906524
 20
-90.4016743452142
 30
0.0
 40
4.0
  1
8
 41
0.9882352941176435
  7
DCSTYLE0
 72
     5
 11
-212.0812904906524
 21
-90.4016743452142
 31
0.0
  0
TEXT
  5
204
  8
0
 62
     7
 10
-142.9323966206972
 20
-90.4016743452142
 30
0.0
 40
4.0
  1
127
 41
0.8842105263157916
  7
DCSTYLE0
 72
     5
 11
-133.3323966206972
 21
-90.4016743452142
 31
0.0
  0
ENDBLK
  5
FD
  8
0
  0
BLOCK
  8
0
  2
DA_IMAGEDIMGROUP_22
 70
     0
 10
0.0
 20
0.0
 30
0.0
  3
DA_IMAGEDIMGROUP_22
  1

  0
LINE
  5
205
  8
0
  6
CONTINUOUS
 62
     7
 10
-209.6324004906524
 20
-55.90169575301985
 30
0.0
 11
-209.6324004906524
 21
-101.9016737491678
 31
0.0
  0
LINE
  5
206
  8
0
  6
CONTINUOUS
 62
     7
 10
-205.4324004906525
 20
-49.40167742975444
 30
0.0
 11
-205.4324004906525
 21
-101.9016737491678
 31
0.0
  0
LINE
  5
207
  8
0
  6
CONTINUOUS
 62
     7
 10
-209.6324004906524
 20
-100.9016737491678
 30
0.0
 11
-205.4324004906525
 21
-100.9016737491678
 31
0.0
  0
LINE
  5
208
  8
0
  6
CONTINUOUS
 62
     7
 10
-74.63241830070665
 20
-59.90167810030668
 30
0.0
 11
-74.63241830070665
 21
-101.9016737491678
 31
0.0
  0
LINE
  5
209
  8
0
  6
CONTINUOUS
 62
     7
 10
-222.6812904906524
 20
-100.9016737491678
 30
0.0
 11
-209.6324004906524
 21
-100.9016737491678
 31
0.0
  0
INSERT
  5
20A
  8
0
 62
     7
  2
_OPEN30
 10
-209.6324004906524
 20
-100.9016737491678
 30
0.0
 41
2.499995396844351
 42
2.500007167085477
 50
360.0
  0
LINE
  5
20B
  8
0
  6
CONTINUOUS
 62
     7
 10
-205.4324004906525
 20
-100.9016737491678
 30
0.0
 11
-74.63241830070665
 21
-100.9016737491678
 31
0.0
  0
INSERT
  5
20C
  8
0
 62
     7
  2
_OPEN30
 10
-205.4324004906525
 20
-100.9016737491678
 30
0.0
 41
2.499995396844351
 42
2.500007167085477
 50
180.0
  0
INSERT
  5
20D
  8
0
 62
     7
  2
_OPEN30
 10
-74.63241830070665
 20
-100.9016737491678
 30
0.0
 41
2.499995396844351
 42
2.500007167085477
 50
360.0
  0
TEXT
  5
20E
  8
0
 62
     7
 10
-221.6812904906524
 20
-100.4016737491678
 30
0.0
 40
4.0
  1
4.2
 41
1.072340425531914
  7
DCSTYLE0
 72
     5
 11
-212.0812904906524
 21
-100.4016737491678
 31
0.0
  0
TEXT
  5
20F
  8
0
 62
     7
 10
-148.0324093956796
 20
-100.4016737491678
 30
0.0
 40
4.0
  1
130.8
 41
0.9655172413793105
  7
DCSTYLE0
 72
     5
 11
-132.0324093956796
 21
-100.4016737491678
 31
0.0
  0
ENDBLK
  5
100
  8
0
  0
BLOCK
  8
0
  2
DA_IMAGEDIMGROUP_23
 70
     0
 10
0.0
 20
0.0
 30
0.0
  3
DA_IMAGEDIMGROUP_23
  1

  0
LINE
  5
210
  8
0
  6
CONTINUOUS
 62
     7
 10
-74.63241830070665
 20
-59.90167810030668
 30
0.0
 11
-74.63241830070665
 21
-111.4016731531214
 31
0.0
  0
LINE
  5
211
  8
0
  6
CONTINUOUS
 62
     7
 10
-209.6324004906524
 20
-55.90166126070346
 30
0.0
 11
-209.6324004906524
 21
-111.4016731531214
 31
0.0
  0
LINE
  5
212
  8
0
  6
CONTINUOUS
 62
     7
 10
-209.6324004906524
 20
-110.4016731531214
 30
0.0
 11
-74.63241830070665
 21
-110.4016731531214
 31
0.0
  0
INSERT
  5
213
  8
0
 62
     7
  2
_OPEN30
 10
-209.6324004906524
 20
-110.4016731531214
 30
0.0
 41
2.499995396844351
 42
2.500007167085477
 50
180.0
  0
INSERT
  5
214
  8
0
 62
     7
  2
_OPEN30
 10
-74.63241830070665
 20
-110.4016731531214
 30
0.0
 41
2.499995396844351
 42
2.500007167085477
 50
360.0
  0
TEXT
  5
215
  8
0
 62
     7
 10
-146.9324093956795
 20
-109.9016731531214
 30
0.0
 40
4.0
  1
135
 41
0.8842105263157916
  7
DCSTYLE0
 72
     5
 11
-137.3324093956795
 21
-109.9016731531214
 31
0.0
  0
ENDBLK
  5
103
  8
0
  0
BLOCK
  8
0
  2
DA_IMAGEDIMGROUP_24
 70
     0
 10
0.0
 20
0.0
 30
0.0
  3
DA_IMAGEDIMGROUP_24
  1

  0
LINE
  5
216
  8
0
  6
CONTINUOUS
 62
     7
 10
-148.1324035424103
 20
-61.90167613335345
 30
0.0
 11
-148.1324035424103
 21
-71.90167553730704
 31
0.0
  0
LINE
  5
217
  8
0
  6
CONTINUOUS
 62
     7
 10
-164.1324035424103
 20
-61.90167613335345
 30
0.0
 11
-164.1324035424103
 21
-71.90167553730704
 31
0.0
  0
LINE
  5
218
  8
0
  6
CONTINUOUS
 62
     7
 10
-190.1710072682301
 20
-70.90167553730704
 30
0.0
 11
-164.1324035424103
 21
-70.90167553730704
 31
0.0
  0
LINE
  5
219
  8
0
  6
CONTINUOUS
 62
     7
 10
-164.1324035424103
 20
-70.90167553730704
 30
0.0
 11
-148.1324035424103
 21
-70.90167553730704
 31
0.0
  0
INSERT
  5
21A
  8
0
 62
     7
  2
_OPEN30
 10
-164.1324035424103
 20
-70.90167553730704
 30
0.0
 41
2.499995396844351
 42
2.500007167085477
 50
180.0
  0
INSERT
  5
21B
  8
0
 62
     7
  2
_OPEN30
 10
-148.1324035424103
 20
-70.90167553730704
 30
0.0
 41
2.499995396844351
 42
2.500007167085477
 50
360.0
  0
TEXT
  5
21C
  8
0
 62
     7
 10
-192.1812935424103
 20
-70.40167553730704
 30
0.0
 40
4.0
  1
　　3-φ16　
 41
0.8670967741935481
  7
DCSTYLE0
 72
     5
 11
-166.5812935424103
 21
-70.40167553730704
 31
0.0
  0
ENDBLK
  5
106
  8
0
  0
BLOCK
  8
0
  2
DC_GROUP_6
 70
     0
 10
0.0
 20
0.0
 30
0.0
  3
DC_GROUP_6
  1

  0
LINE
  5
21D
  8
0
  6
CONTINUOUS
 62
     7
 10
-71.6324259897056
 20
91.59832695118682
 30
0.0
 11
-29.90539589398585
 21
91.59832695118682
 31
0.0
  0
LINE
  5
21E
  8
0
  6
CONTINUOUS
 62
     7
 10
-71.6324259897056
 20
154.5983250736406
 30
0.0
 11
-29.90539589398585
 21
154.5983250736406
 31
0.0
  0
LINE
  5
21F
  8
0
  6
CONTINUOUS
 62
     7
 10
-72.36137197861255
 20
46.59832257024556
 30
0.0
 11
-70.30152730596743
 21
46.59832257024556
 31
0.0
  0
LINE
  5
220
  8
0
  6
CONTINUOUS
 62
     7
 10
-63.18565944525497
 20
46.59832257024556
 30
0.0
 11
-29.90539589398585
 21
46.59832257024556
 31
0.0
  0
LINE
  5
221
  8
0
  6
CONTINUOUS
 62
     7
 10
-30.90539589398585
 20
46.59832257024556
 30
0.0
 11
-30.90539589398585
 21
91.59832695118682
 31
0.0
  0
INSERT
  5
222
  8
0
 62
     7
  2
_OPEN30
 10
-30.90539589398585
 20
46.59832257024556
 30
0.0
 41
2.499995396844351
 42
2.500007167085477
 50
270.0
  0
INSERT
  5
223
  8
0
 62
     7
  2
_OPEN30
 10
-30.90539589398585
 20
91.59832695118682
 30
0.0
 41
2.499995396844351
 42
2.500007167085477
 50
90.0
  0
LINE
  5
224
  8
0
  6
CONTINUOUS
 62
     7
 10
-30.90539589398585
 20
91.59832695118682
 30
0.0
 11
-30.90539589398585
 21
154.5983250736406
 31
0.0
  0
INSERT
  5
225
  8
0
 62
     7
  2
_OPEN30
 10
-30.90539589398585
 20
91.59832695118682
 30
0.0
 41
2.499995396844351
 42
2.500007167085477
 50
270.0
  0
INSERT
  5
226
  8
0
 62
     7
  2
_OPEN30
 10
-30.90539589398585
 20
154.5983250736406
 30
0.0
 41
2.499995396844351
 42
2.500007167085477
 50
90.0
  0
TEXT
  5
227
  8
0
 62
     7
 10
-31.40539589398585
 20
65.89832476071619
 30
0.0
 40
4.0
  1
45
 50
90.0
 41
0.9081081081081089
  7
DCSTYLE0
 72
     5
 11
-31.40539589398585
 21
72.2983247607162
 31
0.0
  0
TEXT
  5
228
  8
0
 62
     7
 10
-31.40539589398585
 20
119.8983260124137
 30
0.0
 40
4.0
  1
63
 50
90.0
 41
0.9081081081081089
  7
DCSTYLE0
 72
     5
 11
-31.40539589398585
 21
126.2983260124137
 31
0.0
  0
ENDBLK
  5
109
  8
0
  0
BLOCK
  8
0
  2
DA_IMAGEDIMGROUP_25
 70
     0
 10
0.0
 20
0.0
 30
0.0
  3
DA_IMAGEDIMGROUP_25
  1

  0
TEXT
  5
229
  8
0
 62
     7
 10
-6.345578109519488
 20
21.21521447328459
 30
0.0
 40
4.0
  1
φ102
 50
90.0
 41
0.8959999999999999
  7
DCSTYLE0
 72
     5
 11
-6.345578109519488
 21
34.01521447328459
 31
0.0
  0
TEXT
  5
22A
  8
0
 62
     7
 10
-8.845578109519488
 20
34.51521447328459
 30
0.0
 40
2.6
  1
-0.1
 50
90.0
 41
1.002985074626866
  7
DCSTYLE0
 72
     5
 11
-8.845578109519488
 21
42.83521447328459
 31
0.0
  0
TEXT
  5
22B
  8
0
 62
     7
 10
-6.145578109519487
 20
34.51521447328459
 30
0.0
 40
2.6
  1
-0.2
 50
90.0
 41
0.9205479452054794
  7
DCSTYLE0
 72
     5
 11
-6.145578109519487
 21
42.83521447328459
 31
0.0
  0
ENDBLK
  5
10C
  8
0
  0
BLOCK
  8
0
  2
DC_GROUP_7
 70
     0
 10
0.0
 20
0.0
 30
0.0
  3
DC_GROUP_7
  1

  0
LINE
  5
22C
  8
0
  6
CONTINUOUS
 62
     7
 10
-77.43820179785158
 20
23.51875356566896
 30
0.0
 11
-61.23677165884155
 21
7.095386027494412
 31
0.0
  0
INSERT
  5
22D
  8
0
 62
     7
  2
_OPEN30
 10
-77.43820179785158
 20
23.51875356566896
 30
0.0
 41
2.499995396844351
 42
2.500007167085477
 50
134.6102388046819
  0
LINE
  5
22E
  8
0
  6
CONTINUOUS
 62
     7
 10
-61.23677165884155
 20
7.095386027494412
 30
0.0
 11
-42.03677165884154
 21
7.095386027494412
 31
0.0
  0
TEXT
  5
22F
  8
0
 62
     7
 10
-61.23677165884155
 20
7.595386027494412
 30
0.0
 40
4.0
  1
防塵ｶﾊﾞｰ
 41
0.9600000000000002
  7
DCSTYLE0
 72
     5
 11
-42.03677165884154
 21
7.595386027494412
 31
0.0
  0
ENDBLK
  5
10F
  8
0
  0
BLOCK
  8
0
  2
DA_IMAGEDIMGROUP_26
 70
     0
 10
0.0
 20
0.0
 30
0.0
  3
DA_IMAGEDIMGROUP_26
  1

  0
LINE
  5
230
  8
0
  6
CONTINUOUS
 62
     7
 10
-98.07837992015203
 20
23.09832136325153
 30
0.0
 11
-98.07837992015203
 21
70.09832377723954
 31
0.0
  0
INSERT
  5
231
  8
0
 62
     7
  2
_OPEN30
 10
-98.07837992015203
 20
23.09832136325153
 30
0.0
 41
2.499995396844351
 42
2.500007167085477
 50
270.0
  0
INSERT
  5
232
  8
0
 62
     7
  2
_OPEN30
 10
-98.07837992015203
 20
70.09832377723954
 30
0.0
 41
2.499995396844351
 42
2.500007167085477
 50
90.0
  0
TEXT
  5
233
  8
0
 62
     7
 10
-98.57837992015203
 20
38.59832257024554
 30
0.0
 40
4.0
  1
φ47H7
 50
90.0
 41
0.865979381443299
  7
DCSTYLE0
 72
     5
 11
-98.57837992015203
 21
54.59832257024554
 31
0.0
  0
ENDBLK
  5
112
  8
0
  0
BLOCK
  8
0
  2
DA_IMAGEDIMGROUP_27
 70
     0
 10
0.0
 20
0.0
 30
0.0
  3
DA_IMAGEDIMGROUP_27
  1

  0
TEXT
  5
234
  8
0
 62
     7
 10
-86.98150996192598
 20
35.80793330133707
 30
0.0
 40
4.0
  1
φ47
 50
90.0
 41
0.9163636363636359
  7
DCSTYLE0
 72
     5
 11
-86.98150996192598
 21
45.40793330133707
 31
0.0
  0
TEXT
  5
235
  8
0
 62
     7
 10
-89.48150996192598
 20
45.90793330133707
 30
0.0
 40
2.6
  1
-0.03
 50
90.0
 41
0.9032258064516134
  7
DCSTYLE0
 72
     5
 11
-89.48150996192598
 21
56.30793330133707
 31
0.0
  0
TEXT
  5
236
  8
0
 62
     7
 10
-86.78150996192598
 20
45.90793330133707
 30
0.0
 40
2.6
  1
-0.05
 50
90.0
 41
0.9032258064516134
  7
DCSTYLE0
 72
     5
 11
-86.78150996192598
 21
56.30793330133707
 31
0.0
  0
ENDBLK
  5
115
  8
0
  0
BLOCK
  8
0
  2
DA_IMAGEDIMGROUP_28
 70
     0
 10
0.0
 20
0.0
 30
0.0
  3
DA_IMAGEDIMGROUP_28
  1

  0
LINE
  5
237
  8
0
  6
CONTINUOUS
 62
     7
 10
-121.1324247380082
 20
22.09832136325153
 30
0.0
 11
-121.1324247380082
 21
-40.95534259538404
 31
0.0
  0
LINE
  5
238
  8
0
  6
CONTINUOUS
 62
     7
 10
-121.1324247380082
 20
-39.95534259538404
 30
0.0
 11
-74.63241830070665
 21
-39.95534259538404
 31
0.0
  0
INSERT
  5
239
  8
0
 62
     7
  2
_OPEN30
 10
-121.1324247380082
 20
-39.95534259538404
 30
0.0
 41
2.499995396844351
 42
2.500007167085477
 50
180.0
  0
INSERT
  5
23A
  8
0
 62
     7
  2
_OPEN30
 10
-74.63241830070665
 20
-39.95534259538404
 30
0.0
 41
2.499995396844351
 42
2.500007167085477
 50
360.0
  0
TEXT
  5
23B
  8
0
 62
     7
 10
-104.2824215193574
 20
-39.45534259538404
 30
0.0
 40
4.0
  1
46.5
 41
1.002985074626866
  7
DCSTYLE0
 72
     5
 11
-91.4824215193574
 21
-39.45534259538404
 31
0.0
  0
ENDBLK
  5
118
  8
0
  0
BLOCK
  8
0
  2
DC_GROUP_8
 70
     0
 10
0.0
 20
0.0
 30
0.0
  3
DC_GROUP_8
  1

  0
LINE
  5
23C
  8
0
  6
CONTINUOUS
 62
     7
 10
-109.4711664105974
 20
15.84958343898387
 30
0.0
 11
-62.91363200808456
 21
-35.83717085533124
 31
0.0
  0
INSERT
  5
23D
  8
0
 62
     7
  2
_OPEN30
 10
-109.4711664105974
 20
15.84958343898387
 30
0.0
 41
2.499995396844351
 42
2.500007167085477
 50
132.0113675447706
  0
LINE
  5
23E
  8
0
  6
CONTINUOUS
 62
     7
 10
-62.91363200808456
 20
-35.83717085533124
 30
0.0
 11
-46.91363200808456
 21
-35.83717085533124
 31
0.0
  0
TEXT
  5
23F
  8
0
 62
     7
 10
-62.91363200808456
 20
-35.33717085533124
 30
0.0
 40
4.0
  1
ﾋﾟｽﾄﾝ
 41
0.9655172413793105
  7
DCSTYLE0
 72
     5
 11
-46.91363200808456
 21
-35.33717085533124
 31
0.0
  0
ENDBLK
  5
11B
  8
0
  0
BLOCK
  8
0
  2
DC_GROUP_9
 70
     0
 10
0.0
 20
0.0
 30
0.0
  3
DC_GROUP_9
  1

  0
LINE
  5
240
  8
0
  6
CONTINUOUS
 62
     7
 10
-78.1324011293513
 20
85.79832042920543
 30
0.0
 11
-52.72155330907727
 21
85.79832042920543
 31
0.0
  0
LINE
  5
241
  8
0
  6
CONTINUOUS
 62
     7
 10
-72.36137197861255
 20
46.59832257024556
 30
0.0
 11
-70.30152730596743
 21
46.59832257024556
 31
0.0
  0
LINE
  5
242
  8
0
  6
CONTINUOUS
 62
     7
 10
-63.18565944525497
 20
46.59832257024556
 30
0.0
 11
-52.72155330907727
 21
46.59832257024556
 31
0.0
  0
LINE
  5
243
  8
0
  6
CONTINUOUS
 62
     7
 10
-53.72155330907727
 20
46.59832257024556
 30
0.0
 11
-53.72155330907727
 21
85.79832042920543
 31
0.0
  0
INSERT
  5
244
  8
0
 62
     7
  2
_OPEN30
 10
-53.72155330907727
 20
46.59832257024556
 30
0.0
 41
2.499995396844351
 42
2.500007167085477
 50
270.0
  0
INSERT
  5
245
  8
0
 62
     7
  2
_OPEN30
 10
-53.72155330907727
 20
85.79832042920543
 30
0.0
 41
2.499995396844351
 42
2.500007167085477
 50
90.0
  0
TEXT
  5
246
  8
0
 62
     7
 10
-54.22155330907727
 20
59.7983214997255
 30
0.0
 40
4.0
  1
39.2
 50
90.0
 41
1.002985074626866
  7
DCSTYLE0
 72
     5
 11
-54.22155330907727
 21
72.5983214997255
 31
0.0
  0
ENDBLK
  5
11E
  8
0
  0
BLOCK
  8
0
  2
DC_GROUP_10
 70
     0
 10
0.0
 20
0.0
 30
0.0
  3
DC_GROUP_10
  1

  0
LINE
  5
247
  8
0
  6
CONTINUOUS
 62
     7
 10
-82.43241803248573
 20
85.67641185410979
 30
0.0
 11
-81.63241803248575
 21
86.47641185410974
 31
0.0
  0
LINE
  5
248
  8
0
  6
CONTINUOUS
 62
     7
 10
-82.43241803248573
 20
86.73707199427945
 30
0.0
 11
-81.63241803248575
 21
87.53707199427943
 31
0.0
  0
LINE
  5
249
  8
0
  6
CONTINUOUS
 62
     7
 10
-82.43241803248573
 20
87.7977321344491
 30
0.0
 11
-81.63241803248575
 21
88.59773213444912
 31
0.0
  0
LINE
  5
24A
  8
0
  6
CONTINUOUS
 62
     7
 10
-82.43241803248573
 20
88.8583922746188
 30
0.0
 11
-81.63241803248575
 21
89.65839227461878
 31
0.0
  0
LINE
  5
24B
  8
0
  6
CONTINUOUS
 62
     7
 10
-82.43241803248573
 20
89.91905241478848
 30
0.0
 11
-81.63241803248575
 21
90.71905241478844
 31
0.0
  0
LINE
  5
24C
  8
0
  6
CONTINUOUS
 62
     7
 10
-82.43241803248573
 20
90.97971255495814
 30
0.0
 11
-81.81380363625705
 21
91.59832695118682
 31
0.0
  0
LINE
  5
24D
  8
0
  6
CONTINUOUS
 62
     7
 10
-82.43241803248573
 20
84.6157517139401
 30
0.0
 11
-81.63241803248575
 21
85.41575171394008
 31
0.0
  0
LINE
  5
24E
  8
0
  6
CONTINUOUS
 62
     7
 10
-82.43241803248573
 20
83.55509157377041
 30
0.0
 11
-81.63241803248575
 21
84.35509157377042
 31
0.0
  0
LINE
  5
24F
  8
0
  6
CONTINUOUS
 62
     7
 10
-82.43241803248573
 20
82.49443143360075
 30
0.0
 11
-81.63241803248575
 21
83.29443143360074
 31
0.0
  0
LINE
  5
250
  8
0
  6
CONTINUOUS
 62
     7
 10
-82.43241803248573
 20
81.43377129343109
 30
0.0
 11
-81.63241803248575
 21
82.23377129343105
 31
0.0
  0
LINE
  5
251
  8
0
  6
CONTINUOUS
 62
     7
 10
-82.2510324287144
 20
80.55449675703274
 30
0.0
 11
-81.63241803248575
 21
81.17311115326139
 31
0.0
  0
LINE
  5
252
  8
0
  6
CONTINUOUS
 62
     7
 10
-82.43241803248573
 20
86.47641185410974
 30
0.0
 11
-81.63241803248575
 21
85.67641185410979
 31
0.0
  0
LINE
  5
253
  8
0
  6
CONTINUOUS
 62
     7
 10
-82.43241803248573
 20
87.53707199427943
 30
0.0
 11
-81.63241803248575
 21
86.73707199427945
 31
0.0
  0
LINE
  5
254
  8
0
  6
CONTINUOUS
 62
     7
 10
-82.43241803248573
 20
88.59773213444912
 30
0.0
 11
-81.63241803248575
 21
87.7977321344491
 31
0.0
  0
LINE
  5
255
  8
0
  6
CONTINUOUS
 62
     7
 10
-82.43241803248573
 20
89.65839227461878
 30
0.0
 11
-81.63241803248575
 21
88.8583922746188
 31
0.0
  0
LINE
  5
256
  8
0
  6
CONTINUOUS
 62
     7
 10
-82.43241803248573
 20
90.71905241478844
 30
0.0
 11
-81.63241803248575
 21
89.91905241478848
 31
0.0
  0
LINE
  5
257
  8
0
  6
CONTINUOUS
 62
     7
 10
-82.25103242871442
 20
91.59832695118682
 30
0.0
 11
-81.63241803248575
 21
90.97971255495814
 31
0.0
  0
LINE
  5
258
  8
0
  6
CONTINUOUS
 62
     7
 10
-82.43241803248573
 20
85.41575171394008
 30
0.0
 11
-81.63241803248575
 21
84.6157517139401
 31
0.0
  0
LINE
  5
259
  8
0
  6
CONTINUOUS
 62
     7
 10
-82.43241803248573
 20
84.35509157377042
 30
0.0
 11
-81.63241803248575
 21
83.55509157377041
 31
0.0
  0
LINE
  5
25A
  8
0
  6
CONTINUOUS
 62
     7
 10
-82.43241803248573
 20
83.29443143360074
 30
0.0
 11
-81.63241803248575
 21
82.49443143360075
 31
0.0
  0
LINE
  5
25B
  8
0
  6
CONTINUOUS
 62
     7
 10
-82.43241803248573
 20
82.23377129343105
 30
0.0
 11
-81.63241803248575
 21
81.43377129343109
 31
0.0
  0
LINE
  5
25C
  8
0
  6
CONTINUOUS
 62
     7
 10
-82.43241803248573
 20
81.17311115326139
 30
0.0
 11
-81.81380363625708
 21
80.55449675703274
 31
0.0
  0
ENDBLK
  5
121
  8
0
  0
BLOCK
  8
0
  2
DC_GROUP_11
 70
     0
 10
0.0
 20
0.0
 30
0.0
  3
DC_GROUP_11
  1

  0
LINE
  5
25D
  8
0
  6
CONTINUOUS
 62
     7
 10
-84.78241803248572
 20
78.05449675703274
 30
0.0
 11
-82.28241803248572
 21
80.55449675703274
 31
0.0
  0
LINE
  5
25E
  8
0
  6
CONTINUOUS
 62
     7
 10
-85.4324180324857
 20
78.46515689720245
 30
0.0
 11
-83.3430781726554
 21
80.55449675703274
 31
0.0
  0
LINE
  5
25F
  8
0
  6
CONTINUOUS
 62
     7
 10
-85.4324180324857
 20
79.52581703737211
 30
0.0
 11
-84.40373831282507
 21
80.55449675703274
 31
0.0
  0
LINE
  5
260
  8
0
  6
CONTINUOUS
 62
     7
 10
-83.72175789231605
 20
78.05449675703274
 30
0.0
 11
-81.63241803248575
 21
80.14383661686303
 31
0.0
  0
LINE
  5
261
  8
0
  6
CONTINUOUS
 62
     7
 10
-82.66109775214638
 20
78.05449675703274
 30
0.0
 11
-81.63241803248575
 21
79.08317647669337
 31
0.0
  0
ENDBLK
  5
124
  8
0
  0
BLOCK
  8
0
  2
DC_GROUP_12
 70
     0
 10
0.0
 20
0.0
 30
0.0
  3
DC_GROUP_12
  1

  0
LINE
  5
262
  8
0
  6
CONTINUOUS
 62
     7
 10
-82.93241803248576
 20
73.92641026713613
 30
0.0
 11
-81.63241803248575
 21
75.22641026713615
 31
0.0
  0
LINE
  5
263
  8
0
  6
CONTINUOUS
 62
     7
 10
-82.93241803248576
 20
74.63351704832269
 30
0.0
 11
-81.63241803248575
 21
75.9335170483227
 31
0.0
  0
LINE
  5
264
  8
0
  6
CONTINUOUS
 62
     7
 10
-82.93241803248576
 20
75.34062382950924
 30
0.0
 11
-81.63241803248575
 21
76.64062382950925
 31
0.0
  0
LINE
  5
265
  8
0
  6
CONTINUOUS
 62
     7
 10
-82.93241803248576
 20
76.0477306106958
 30
0.0
 11
-81.63241803248575
 21
77.3477306106958
 31
0.0
  0
LINE
  5
266
  8
0
  6
CONTINUOUS
 62
     7
 10
-82.43241803248574
 20
77.25483739188236
 30
0.0
 11
-81.63275866733537
 21
78.05449675703274
 31
0.0
  0
LINE
  5
267
  8
0
  6
CONTINUOUS
 62
     7
 10
-82.43241803248574
 20
77.96194417306891
 30
0.0
 11
-82.33986544852192
 21
78.05449675703274
 31
0.0
  0
LINE
  5
268
  8
0
  6
CONTINUOUS
 62
     7
 10
-82.93241803248576
 20
73.21930348594958
 30
0.0
 11
-81.63241803248575
 21
74.51930348594959
 31
0.0
  0
LINE
  5
269
  8
0
  6
CONTINUOUS
 62
     7
 10
-82.93241803248576
 20
72.51219670476303
 30
0.0
 11
-81.63241803248575
 21
73.81219670476304
 31
0.0
  0
LINE
  5
26A
  8
0
  6
CONTINUOUS
 62
     7
 10
-82.93241803248576
 20
71.80508992357647
 30
0.0
 11
-81.63241803248575
 21
73.10508992357649
 31
0.0
  0
LINE
  5
26B
  8
0
  6
CONTINUOUS
 62
     7
 10
-82.93207739763614
 20
71.09832377723954
 30
0.0
 11
-81.63241803248575
 21
72.39798314238993
 31
0.0
  0
LINE
  5
26C
  8
0
  6
CONTINUOUS
 62
     7
 10
-82.22497061644958
 20
71.09832377723954
 30
0.0
 11
-81.63241803248575
 21
71.69087636120338
 31
0.0
  0
LINE
  5
26D
  8
0
  6
CONTINUOUS
 62
     7
 10
-82.93241803248576
 20
75.22641026713615
 30
0.0
 11
-81.63241803248575
 21
73.92641026713613
 31
0.0
  0
LINE
  5
26E
  8
0
  6
CONTINUOUS
 62
     7
 10
-82.93241803248576
 20
75.9335170483227
 30
0.0
 11
-81.63241803248575
 21
74.63351704832269
 31
0.0
  0
LINE
  5
26F
  8
0
  6
CONTINUOUS
 62
     7
 10
-82.89011775669869
 20
76.59832355372218
 30
0.0
 11
-81.63241803248575
 21
75.34062382950924
 31
0.0
  0
LINE
  5
270
  8
0
  6
CONTINUOUS
 62
     7
 10
-82.43241803248574
 20
76.84773061069579
 30
0.0
 11
-81.63241803248575
 21
76.0477306106958
 31
0.0
  0
LINE
  5
271
  8
0
  6
CONTINUOUS
 62
     7
 10
-82.43241803248574
 20
77.55483739188234
 30
0.0
 11
-81.63241803248575
 21
76.75483739188235
 31
0.0
  0
LINE
  5
272
  8
0
  6
CONTINUOUS
 62
     7
 10
-82.22497061644958
 20
78.05449675703274
 30
0.0
 11
-81.63241803248575
 21
77.4619441730689
 31
0.0
  0
LINE
  5
273
  8
0
  6
CONTINUOUS
 62
     7
 10
-82.93241803248576
 20
74.51930348594959
 30
0.0
 11
-81.63241803248575
 21
73.21930348594958
 31
0.0
  0
LINE
  5
274
  8
0
  6
CONTINUOUS
 62
     7
 10
-82.93241803248576
 20
73.81219670476304
 30
0.0
 11
-81.63241803248575
 21
72.51219670476303
 31
0.0
  0
LINE
  5
275
  8
0
  6
CONTINUOUS
 62
     7
 10
-82.93241803248576
 20
73.10508992357649
 30
0.0
 11
-81.63241803248575
 21
71.80508992357647
 31
0.0
  0
LINE
  5
276
  8
0
  6
CONTINUOUS
 62
     7
 10
-82.93241803248576
 20
72.39798314238993
 30
0.0
 11
-81.63275866733537
 21
71.09832377723954
 31
0.0
  0
LINE
  5
277
  8
0
  6
CONTINUOUS
 62
     7
 10
-82.93241803248576
 20
71.69087636120338
 30
0.0
 11
-82.33986544852192
 21
71.09832377723954
 31
0.0
  0
ENDBLK
  5
127
  8
0
  0
BLOCK
  8
0
  2
DC_GROUP_13
 70
     0
 10
0.0
 20
0.0
 30
0.0
  3
DC_GROUP_13
  1

  0
LINE
  5
278
  8
0
  6
CONTINUOUS
 62
     7
 10
-82.78241803248575
 20
-4.401677429754443
 30
0.0
 11
-81.78241803248575
 21
-3.401677429754443
 31
0.0
  0
LINE
  5
279
  8
0
  6
CONTINUOUS
 62
     7
 10
-82.93241803248576
 20
-3.844570648567899
 30
0.0
 11
-82.4895248136723
 21
-3.401677429754443
 31
0.0
  0
LINE
  5
27A
  8
0
  6
CONTINUOUS
 62
     7
 10
-82.0753112512992
 20
-4.401677429754443
 30
0.0
 11
-81.63241803248575
 21
-3.958784210940987
 31
0.0
  0
LINE
  5
27B
  8
0
  6
CONTINUOUS
 62
     7
 10
-82.78241803248575
 20
-3.401677429754443
 30
0.0
 11
-81.78241803248575
 21
-4.401677429754443
 31
0.0
  0
LINE
  5
27C
  8
0
  6
CONTINUOUS
 62
     7
 10
-82.0753112512992
 20
-3.401677429754443
 30
0.0
 11
-81.63241803248575
 21
-3.844570648567899
 31
0.0
  0
LINE
  5
27D
  8
0
  6
CONTINUOUS
 62
     7
 10
-82.93241803248576
 20
-3.958784210940989
 30
0.0
 11
-82.4895248136723
 21
-4.401677429754443
 31
0.0
  0
ENDBLK
  5
12A
  8
0
  0
BLOCK
  8
0
  2
DC_GROUP_14
 70
     0
 10
0.0
 20
0.0
 30
0.0
  3
DC_GROUP_14
  1

  0
LINE
  5
27E
  8
0
  6
CONTINUOUS
 62
     7
 10
-82.93241803248576
 20
15.19832227967291
 30
0.0
 11
-81.63241803248575
 21
16.49832227967292
 31
0.0
  0
LINE
  5
27F
  8
0
  6
CONTINUOUS
 62
     7
 10
-82.93241803248576
 20
15.90542906085946
 30
0.0
 11
-81.63241803248575
 21
17.20542906085947
 31
0.0
  0
LINE
  5
280
  8
0
  6
CONTINUOUS
 62
     7
 10
-82.93241803248576
 20
16.61253584204601
 30
0.0
 11
-81.63241803248575
 21
17.91253584204602
 31
0.0
  0
LINE
  5
281
  8
0
  6
CONTINUOUS
 62
     7
 10
-82.93241803248576
 20
17.31964262323256
 30
0.0
 11
-81.63241803248575
 21
18.61964262323257
 31
0.0
  0
LINE
  5
282
  8
0
  6
CONTINUOUS
 62
     7
 10
-82.93241803248576
 20
18.02674940441911
 30
0.0
 11
-81.63241803248575
 21
19.32674940441912
 31
0.0
  0
LINE
  5
283
  8
0
  6
CONTINUOUS
 62
     7
 10
-82.93241803248576
 20
18.73385618560566
 30
0.0
 11
-81.63241803248575
 21
20.03385618560567
 31
0.0
  0
LINE
  5
284
  8
0
  6
CONTINUOUS
 62
     7
 10
-82.93241803248576
 20
19.44096296679221
 30
0.0
 11
-81.63241803248575
 21
20.74096296679222
 31
0.0
  0
LINE
  5
285
  8
0
  6
CONTINUOUS
 62
     7
 10
-82.93241803248576
 20
20.14806974797876
 30
0.0
 11
-81.63241803248575
 21
21.44806974797877
 31
0.0
  0
LINE
  5
286
  8
0
  6
CONTINUOUS
 62
     7
 10
-82.93241803248576
 20
20.85517652916531
 30
0.0
 11
-81.68927319839953
 21
22.09832136325153
 31
0.0
  0
LINE
  5
287
  8
0
  6
CONTINUOUS
 62
     7
 10
-82.93241803248576
 20
21.56228331035186
 30
0.0
 11
-82.39637997958609
 21
22.09832136325153
 31
0.0
  0
LINE
  5
288
  8
0
  6
CONTINUOUS
 62
     7
 10
-82.93241803248576
 20
14.49121549848636
 30
0.0
 11
-81.63241803248575
 21
15.79121549848637
 31
0.0
  0
LINE
  5
289
  8
0
  6
CONTINUOUS
 62
     7
 10
-82.93241803248576
 20
13.78410871729981
 30
0.0
 11
-81.63241803248575
 21
15.08410871729982
 31
0.0
  0
LINE
  5
28A
  8
0
  6
CONTINUOUS
 62
     7
 10
-82.93241803248576
 20
13.07700193611326
 30
0.0
 11
-81.63241803248575
 21
14.37700193611327
 31
0.0
  0
LINE
  5
28B
  8
0
  6
CONTINUOUS
 62
     7
 10
-82.93241803248576
 20
12.36989515492671
 30
0.0
 11
-81.63241803248575
 21
13.66989515492672
 31
0.0
  0
LINE
  5
28C
  8
0
  6
CONTINUOUS
 62
     7
 10
-82.93241803248576
 20
11.66278837374016
 30
0.0
 11
-81.63241803248575
 21
12.96278837374017
 31
0.0
  0
LINE
  5
28D
  8
0
  6
CONTINUOUS
 62
     7
 10
-82.93241803248576
 20
10.95568159255361
 30
0.0
 11
-81.63241803248575
 21
12.25568159255362
 31
0.0
  0
LINE
  5
28E
  8
0
  6
CONTINUOUS
 62
     7
 10
-82.93241803248576
 20
10.24857481136706
 30
0.0
 11
-81.63241803248575
 21
11.54857481136707
 31
0.0
  0
LINE
  5
28F
  8
0
  6
CONTINUOUS
 62
     7
 10
-82.87556286657197
 20
9.598323196094299
 30
0.0
 11
-81.63241803248575
 21
10.84146803018052
 31
0.0
  0
LINE
  5
290
  8
0
  6
CONTINUOUS
 62
     7
 10
-82.16845608538542
 20
9.598323196094299
 30
0.0
 11
-81.63241803248575
 21
10.13436124899397
 31
0.0
  0
LINE
  5
291
  8
0
  6
CONTINUOUS
 62
     7
 10
-82.93241803248576
 20
16.49832227967292
 30
0.0
 11
-81.63241803248575
 21
15.19832227967291
 31
0.0
  0
LINE
  5
292
  8
0
  6
CONTINUOUS
 62
     7
 10
-82.93241803248576
 20
17.20542906085947
 30
0.0
 11
-81.63241803248575
 21
15.90542906085946
 31
0.0
  0
LINE
  5
293
  8
0
  6
CONTINUOUS
 62
     7
 10
-82.93241803248576
 20
17.91253584204602
 30
0.0
 11
-81.63241803248575
 21
16.61253584204601
 31
0.0
  0
LINE
  5
294
  8
0
  6
CONTINUOUS
 62
     7
 10
-82.93241803248576
 20
18.61964262323257
 30
0.0
 11
-81.63241803248575
 21
17.31964262323256
 31
0.0
  0
LINE
  5
295
  8
0
  6
CONTINUOUS
 62
     7
 10
-82.93241803248576
 20
19.32674940441912
 30
0.0
 11
-81.63241803248575
 21
18.02674940441911
 31
0.0
  0
LINE
  5
296
  8
0
  6
CONTINUOUS
 62
     7
 10
-82.93241803248576
 20
20.03385618560567
 30
0.0
 11
-81.63241803248575
 21
18.73385618560566
 31
0.0
  0
LINE
  5
297
  8
0
  6
CONTINUOUS
 62
     7
 10
-82.93241803248576
 20
20.74096296679222
 30
0.0
 11
-81.63241803248575
 21
19.44096296679221
 31
0.0
  0
LINE
  5
298
  8
0
  6
CONTINUOUS
 62
     7
 10
-82.93241803248576
 20
21.44806974797877
 30
0.0
 11
-81.63241803248575
 21
20.14806974797876
 31
0.0
  0
LINE
  5
299
  8
0
  6
CONTINUOUS
 62
     7
 10
-82.87556286657197
 20
22.09832136325153
 30
0.0
 11
-81.63241803248575
 21
20.85517652916531
 31
0.0
  0
LINE
  5
29A
  8
0
  6
CONTINUOUS
 62
     7
 10
-82.16845608538542
 20
22.09832136325153
 30
0.0
 11
-81.63241803248575
 21
21.56228331035186
 31
0.0
  0
LINE
  5
29B
  8
0
  6
CONTINUOUS
 62
     7
 10
-82.93241803248576
 20
15.79121549848637
 30
0.0
 11
-81.63241803248575
 21
14.49121549848636
 31
0.0
  0
LINE
  5
29C
  8
0
  6
CONTINUOUS
 62
     7
 10
-82.93241803248576
 20
15.08410871729982
 30
0.0
 11
-81.63241803248575
 21
13.78410871729981
 31
0.0
  0
LINE
  5
29D
  8
0
  6
CONTINUOUS
 62
     7
 10
-82.93241803248576
 20
14.37700193611327
 30
0.0
 11
-81.63241803248575
 21
13.07700193611326
 31
0.0
  0
LINE
  5
29E
  8
0
  6
CONTINUOUS
 62
     7
 10
-82.93241803248576
 20
13.66989515492672
 30
0.0
 11
-81.63241803248575
 21
12.36989515492671
 31
0.0
  0
LINE
  5
29F
  8
0
  6
CONTINUOUS
 62
     7
 10
-82.93241803248576
 20
12.96278837374017
 30
0.0
 11
-81.63241803248575
 21
11.66278837374016
 31
0.0
  0
LINE
  5
2A0
  8
0
  6
CONTINUOUS
 62
     7
 10
-82.93241803248576
 20
12.25568159255362
 30
0.0
 11
-81.63241803248575
 21
10.95568159255361
 31
0.0
  0
LINE
  5
2A1
  8
0
  6
CONTINUOUS
 62
     7
 10
-82.93241803248576
 20
11.54857481136707
 30
0.0
 11
-81.63241803248575
 21
10.24857481136706
 31
0.0
  0
LINE
  5
2A2
  8
0
  6
CONTINUOUS
 62
     7
 10
-82.93241803248576
 20
10.84146803018051
 30
0.0
 11
-81.68927319839955
 21
9.598323196094299
 31
0.0
  0
LINE
  5
2A3
  8
0
  6
CONTINUOUS
 62
     7
 10
-82.93241803248576
 20
10.13436124899396
 30
0.0
 11
-82.3963799795861
 21
9.598323196094299
 31
0.0
  0
ENDBLK
  5
12D
  8
0
  0
BLOCK
  8
0
  2
DC_GROUP_15
 70
     0
 10
0.0
 20
0.0
 30
0.0
  3
DC_GROUP_15
  1

  0
LINE
  5
2A4
  8
0
  6
CONTINUOUS
 62
     7
 10
-93.13241830070665
 20
11.74832122914108
 30
0.0
 11
-82.93241803248576
 21
21.94832149736197
 31
0.0
  0
LINE
  5
2A5
  8
0
  6
CONTINUOUS
 62
     7
 10
-93.13241830070665
 20
13.16253479151418
 30
0.0
 11
-83.69663172896931
 21
22.59832136325153
 31
0.0
  0
LINE
  5
2A6
  8
0
  6
CONTINUOUS
 62
     7
 10
-93.13241830070665
 20
14.57674835388729
 30
0.0
 11
-85.1108452913424
 21
22.59832136325153
 31
0.0
  0
LINE
  5
2A7
  8
0
  6
CONTINUOUS
 62
     7
 10
-93.13241830070665
 20
15.99096191626039
 30
0.0
 11
-86.5250588537155
 21
22.59832136325153
 31
0.0
  0
LINE
  5
2A8
  8
0
  6
CONTINUOUS
 62
     7
 10
-93.13241830070665
 20
17.40517547863347
 30
0.0
 11
-87.93927241608858
 21
22.59832136325153
 31
0.0
  0
LINE
  5
2A9
  8
0
  6
CONTINUOUS
 62
     7
 10
-93.13241830070665
 20
18.81938904100659
 30
0.0
 11
-89.3534859784617
 21
22.59832136325153
 31
0.0
  0
LINE
  5
2AA
  8
0
  6
CONTINUOUS
 62
     7
 10
-93.13241830070665
 20
20.23360260337969
 30
0.0
 11
-90.76769954083481
 21
22.59832136325153
 31
0.0
  0
LINE
  5
2AB
  8
0
  6
CONTINUOUS
 62
     7
 10
-93.13241830070665
 20
21.64781616575278
 30
0.0
 11
-92.18191310320789
 21
22.59832136325153
 31
0.0
  0
LINE
  5
2AC
  8
0
  6
CONTINUOUS
 62
     7
 10
-92.3682046042231
 20
11.09832136325153
 30
0.0
 11
-82.93241803248576
 21
20.53410793498887
 31
0.0
  0
LINE
  5
2AD
  8
0
  6
CONTINUOUS
 62
     7
 10
-90.95399104185
 20
11.09832136325153
 30
0.0
 11
-82.93241803248576
 21
19.11989437261577
 31
0.0
  0
LINE
  5
2AE
  8
0
  6
CONTINUOUS
 62
     7
 10
-89.5397774794769
 20
11.09832136325153
 30
0.0
 11
-82.93241803248576
 21
17.70568081024268
 31
0.0
  0
LINE
  5
2AF
  8
0
  6
CONTINUOUS
 62
     7
 10
-88.1255639171038
 20
11.09832136325153
 30
0.0
 11
-82.93241803248576
 21
16.29146724786958
 31
0.0
  0
LINE
  5
2B0
  8
0
  6
CONTINUOUS
 62
     7
 10
-86.71135035473071
 20
11.09832136325153
 30
0.0
 11
-82.93241803248576
 21
14.87725368549648
 31
0.0
  0
LINE
  5
2B1
  8
0
  6
CONTINUOUS
 62
     7
 10
-85.2971367923576
 20
11.09832136325153
 30
0.0
 11
-82.93241803248576
 21
13.46304012312338
 31
0.0
  0
LINE
  5
2B2
  8
0
  6
CONTINUOUS
 62
     7
 10
-83.8829232299845
 20
11.09832136325153
 30
0.0
 11
-82.93241803248576
 21
12.04882656075027
 31
0.0
  0
ENDBLK
  5
130
  8
0
  0
BLOCK
  8
0
  2
DC_GROUP_16
 70
     0
 10
0.0
 20
0.0
 30
0.0
  3
DC_GROUP_16
  1

  0
LINE
  5
2B3
  8
0
  6
CONTINUOUS
 62
     7
 10
-57.11264537394788
 20
139.2960116586485
 30
0.0
 11
-40.94599154013953
 21
162.1401964238125
 31
0.0
  0
INSERT
  5
2B4
  8
0
 62
     7
  2
_OPEN30
 10
-57.11264537394788
 20
139.2960116586485
 30
0.0
 41
2.499995396844351
 42
2.500007167085477
 50
234.7132510249403
  0
LINE
  5
2B5
  8
0
  6
CONTINUOUS
 62
     7
 10
-40.94599154013953
 20
162.1401964238125
 30
0.0
 11
13.45400845986048
 21
162.1401964238125
 31
0.0
  0
TEXT
  5
2B6
  8
0
 62
     6
 10
-40.94599154013953
 20
162.6401964238125
 30
0.0
 40
4.0
  1
標準生爪（SJ8A・B・C）使用時
 41
0.9183279742765273
  7
DCSTYLE0
 72
     5
 11
13.45400845986047
 21
162.6401964238125
 31
0.0
  0
TEXT
  5
2B7
  8
0
 62
     6
 10
-40.94599154013953
 20
167.1401964238125
 30
0.0
 40
4.0
  1
爪取り付けボルトM10
 41
0.9014634146341465
  7
DCSTYLE0
 72
     5
 11
-5.745991540139528
 21
167.1401964238125
 31
0.0
  0
ENDBLK
  5
133
  8
0
  0
BLOCK
  8
0
  2
DC_GROUP_17
 70
     0
 10
0.0
 20
0.0
 30
0.0
  3
DC_GROUP_17
  1

  0
CIRCLE
  5
2B8
  8
0
  6
CONTINUOUS
 62
     3
 10
131.2953041642404
 20
103.9027466926466
 30
0.0
 40
8.0
  0
LINE
  5
2B9
  8
0
  6
CONTINUOUS
 62
     3
 10
131.2953041642404
 20
108.5215488461636
 30
0.0
 11
127.2953041642404
 21
106.2121477694051
 31
0.0
  0
LINE
  5
2BA
  8
0
  6
CONTINUOUS
 62
     3
 10
127.2953041642404
 20
106.2121477694051
 30
0.0
 11
127.2953041642404
 21
101.5933456158881
 31
0.0
  0
LINE
  5
2BB
  8
0
  6
CONTINUOUS
 62
     3
 10
127.2953041642404
 20
101.5933456158881
 30
0.0
 11
131.2953041642404
 21
99.28394453912958
 31
0.0
  0
LINE
  5
2BC
  8
0
  6
CONTINUOUS
 62
     3
 10
131.2953041642404
 20
99.28394453912958
 30
0.0
 11
135.2953041642404
 21
101.5933456158881
 31
0.0
  0
LINE
  5
2BD
  8
0
  6
CONTINUOUS
 62
     3
 10
135.2953041642404
 20
101.5933456158881
 30
0.0
 11
135.2953041642404
 21
106.2121477694051
 31
0.0
  0
LINE
  5
2BE
  8
0
  6
CONTINUOUS
 62
     3
 10
135.2953041642404
 20
106.2121477694051
 30
0.0
 11
131.2953041642404
 21
108.5215488461636
 31
0.0
  0
ENDBLK
  5
136
  8
0
  0
BLOCK
  8
0
  2
DA_IMAGEDIMGROUP_29
 70
     0
 10
0.0
 20
0.0
 30
0.0
  3
DA_IMAGEDIMGROUP_29
  1

  0
LINE
  5
2BF
  8
0
  6
CONTINUOUS
 62
     7
 10
124.2949097224387
 20
160.0873778915579
 30
0.0
 11
138.2949073978576
 21
160.0873778915579
 31
0.0
  0
INSERT
  5
2C0
  8
0
 62
     7
  2
_OPEN30
 10
124.2949097224387
 20
160.0873778915579
 30
0.0
 41
2.499995396844351
 42
2.500007167085477
 50
180.0
  0
INSERT
  5
2C1
  8
0
 62
     7
  2
_OPEN30
 10
138.2949073978576
 20
160.0873778915579
 30
0.0
 41
2.499995396844351
 42
2.500007167085477
 50
360.0
  0
LINE
  5
2C2
  8
0
  6
CONTINUOUS
 62
     7
 10
124.2949097224387
 20
155.5984332959784
 30
0.0
 11
124.2949097224387
 21
161.0873778915579
 31
0.0
  0
LINE
  5
2C3
  8
0
  6
CONTINUOUS
 62
     7
 10
138.2949073978576
 20
155.5984332959784
 30
0.0
 11
138.2949073978576
 21
161.0873778915579
 31
0.0
  0
TEXT
  5
2C4
  8
0
 62
     7
 10
125.1948223105674
 20
160.5873778915579
 30
0.0
 40
4.0
  1
14H8
 41
0.8506329113924058
  7
DCSTYLE0
 72
     5
 11
137.9948223105675
 21
160.5873778915579
 31
0.0
  0
ENDBLK
  5
139
  8
0
  0
BLOCK
  8
0
  2
DA_IMAGEDIMGROUP_30
 70
     0
 10
0.0
 20
0.0
 30
0.0
  3
DA_IMAGEDIMGROUP_30
  1

  0
LINE
  5
2C5
  8
0
  6
CONTINUOUS
 62
     7
 10
111.2949082025202
 20
167.8036085192927
 30
0.0
 11
151.2949031957303
 21
167.8036085192927
 31
0.0
  0
INSERT
  5
2C6
  8
0
 62
     7
  2
_OPEN30
 10
111.2949082025202
 20
167.8036085192927
 30
0.0
 41
2.499995396844351
 42
2.500007167085477
 50
180.0
  0
INSERT
  5
2C7
  8
0
 62
     7
  2
_OPEN30
 10
151.2949031957303
 20
167.8036085192927
 30
0.0
 41
2.499995396844351
 42
2.500007167085477
 50
360.0
  0
LINE
  5
2C8
  8
0
  6
CONTINUOUS
 62
     7
 10
111.2949082025202
 20
154.9285521272458
 30
0.0
 11
111.2949082025202
 21
168.8036085192927
 31
0.0
  0
LINE
  5
2C9
  8
0
  6
CONTINUOUS
 62
     7
 10
151.2949031957303
 20
154.928564298558
 30
0.0
 11
151.2949031957303
 21
168.8036085192927
 31
0.0
  0
TEXT
  5
2CA
  8
0
 62
     7
 10
128.0949056991253
 20
168.3036085192927
 30
0.0
 40
4.0
  1
40
 41
0.9081081081081049
  7
DCSTYLE0
 72
     5
 11
134.4949056991252
 21
168.3036085192927
 31
0.0
  0
ENDBLK
  5
13C
  8
0
  0
BLOCK
  8
0
  2
DA_IMAGEDIMGROUP_31
 70
     0
 10
0.0
 20
0.0
 30
0.0
  3
DA_IMAGEDIMGROUP_31
  1

  0
LINE
  5
2CB
  8
0
  6
CONTINUOUS
 62
     7
 10
151.7949031957303
 20
94.19708300099535
 30
0.0
 11
151.7949031957303
 21
176.1558660042099
 31
0.0
  0
LINE
  5
2CC
  8
0
  6
CONTINUOUS
 62
     7
 10
110.7949082025202
 20
94.29693293814677
 30
0.0
 11
110.7949082025202
 21
176.1558660042099
 31
0.0
  0
LINE
  5
2CD
  8
0
  6
CONTINUOUS
 62
     7
 10
110.7949082025202
 20
175.1558660042099
 30
0.0
 11
151.7949031957303
 21
175.1558660042099
 31
0.0
  0
INSERT
  5
2CE
  8
0
 62
     7
  2
_OPEN30
 10
110.7949082025202
 20
175.1558660042099
 30
0.0
 41
2.499995396844351
 42
2.500007167085477
 50
180.0
  0
INSERT
  5
2CF
  8
0
 62
     7
  2
_OPEN30
 10
151.7949031957303
 20
175.1558660042099
 30
0.0
 41
2.499995396844351
 42
2.500007167085477
 50
360.0
  0
TEXT
  5
2D0
  8
0
 62
     7
 10
123.6849056991253
 20
175.6558660042099
 30
0.0
 40
4.0
  1
40
 41
0.9081081081081069
  7
DCSTYLE0
 72
     5
 11
130.0849056991253
 21
175.6558660042099
 31
0.0
  0
TEXT
  5
2D1
  8
0
 62
     7
 10
130.5849056991252
 20
178.1558660042099
 30
0.0
 40
2.6
  1
+0.3
 41
0.9205479452054787
  7
DCSTYLE0
 72
     5
 11
138.9049056991252
 21
178.1558660042099
 31
0.0
  0
TEXT
  5
2D2
  8
0
 62
     7
 10
130.5849056991252
 20
175.4558660042099
 30
0.0
 40
2.6
  1
+0.2
 41
0.9205479452054787
  7
DCSTYLE0
 72
     5
 11
138.9049056991252
 21
175.4558660042099
 31
0.0
  0
ENDBLK
  5
13F
  8
0
  0
BLOCK
  8
0
  2
DC_GROUP_18
 70
     0
 10
0.0
 20
0.0
 30
0.0
  3
DC_GROUP_18
  1

  0
CIRCLE
  5
2D3
  8
0
  6
CONTINUOUS
 62
     3
 10
131.2953041642404
 20
133.902745798577
 30
0.0
 40
8.0
  0
LINE
  5
2D4
  8
0
  6
CONTINUOUS
 62
     3
 10
131.2953041642404
 20
138.521547952094
 30
0.0
 11
127.2953041642404
 21
136.2121468753355
 31
0.0
  0
LINE
  5
2D5
  8
0
  6
CONTINUOUS
 62
     3
 10
127.2953041642404
 20
136.2121468753355
 30
0.0
 11
127.2953041642404
 21
131.5933447218185
 31
0.0
  0
LINE
  5
2D6
  8
0
  6
CONTINUOUS
 62
     3
 10
127.2953041642404
 20
131.5933447218185
 30
0.0
 11
131.2953041642404
 21
129.28394364506
 31
0.0
  0
LINE
  5
2D7
  8
0
  6
CONTINUOUS
 62
     3
 10
131.2953041642404
 20
129.28394364506
 30
0.0
 11
135.2953041642404
 21
131.5933447218185
 31
0.0
  0
LINE
  5
2D8
  8
0
  6
CONTINUOUS
 62
     3
 10
135.2953041642404
 20
131.5933447218185
 30
0.0
 11
135.2953041642404
 21
136.2121468753355
 31
0.0
  0
LINE
  5
2D9
  8
0
  6
CONTINUOUS
 62
     3
 10
135.2953041642404
 20
136.2121468753355
 30
0.0
 11
131.2953041642404
 21
138.521547952094
 31
0.0
  0
ENDBLK
  5
142
  8
0
  0
BLOCK
  8
0
  2
DA_IMAGEDIMGROUP_32
 70
     0
 10
0.0
 20
0.0
 30
0.0
  3
DA_IMAGEDIMGROUP_32
  1

  0
LINE
  5
2DA
  8
0
  6
CONTINUOUS
 62
     7
 10
11.07694268989758
 20
46.59832257024557
 30
0.0
 11
19.48534639322331
 21
46.59832257024556
 31
0.0
  0
ARC
  5
2DB
  8
0
  6
CONTINUOUS
 62
     7
 10
131.2948432169293
 20
46.59832257024556
 30
0.0
 40
119.2179005270317
 50
150.0
 51
180.0
  0
INSERT
  5
2DC
  8
0
 62
     7
  2
_OPEN30
 10
28.0491127746736
 20
106.2072728337614
 30
0.0
 41
2.499995396844351
 42
2.500007167085477
 50
60.60074548194291
  0
INSERT
  5
2DD
  8
0
 62
     7
  2
_OPEN30
 10
12.07694268989758
 20
46.59832257024557
 30
0.0
 41
2.499995396844351
 42
2.500007167085477
 50
269.3992545180573
  0
TEXT
  5
2DE
  8
0
 62
     7
 10
14.41389981227161
 20
72.94715130014296
 30
0.0
 40
4.0
  1
30°
 50
75.0
 41
1.12
  7
DCSTYLE0
 72
     5
 11
16.89856264525582
 21
82.22003923251802
 31
0.0
  0
ENDBLK
  5
145
  8
0
  0
BLOCK
  8
0
  2
DC_GROUP_19
 70
     0
 10
0.0
 20
0.0
 30
0.0
  3
DC_GROUP_19
  1

  0
LINE
  5
2DF
  8
0
  6
CONTINUOUS
 62
     7
 10
127.6586043075068
 20
-0.0707084630434889
 30
0.0
 11
72.05207834490278
 21
-65.64569610737438
 31
0.0
  0
INSERT
  5
2E0
  8
0
 62
     7
  2
_OPEN30
 10
127.6586043075068
 20
-0.0707084630434889
 30
0.0
 41
2.499995396844351
 42
2.500007167085477
 50
49.70259598797361
  0
LINE
  5
2E1
  8
0
  6
CONTINUOUS
 62
     7
 10
72.05207834490278
 20
-65.64569610737438
 30
0.0
 11
40.05207834490278
 21
-65.64569610737438
 31
0.0
  0
TEXT
  5
2E2
  8
0
 62
     7
 10
40.05207834490278
 20
-65.14569610737438
 30
0.0
 40
4.0
  1
3-M6 PCD85
 41
0.7962085308056872
  7
DCSTYLE0
 72
     5
 11
72.05207834490278
 21
-65.14569610737438
 31
0.0
  0
ENDBLK
  5
148
  8
0
  0
BLOCK
  8
0
  2
DA_IMAGEDIMGROUP_33
 70
     0
 10
0.0
 20
0.0
 30
0.0
  3
DA_IMAGEDIMGROUP_33
  1

  0
LINE
  5
2E3
  8
0
  6
CONTINUOUS
 62
     7
 10
99.53114114158892
 20
-71.94542741140572
 30
0.0
 11
108.9679207651215
 21
-36.72688639655168
 31
0.0
  0
LINE
  5
2E4
  8
0
  6
CONTINUOUS
 62
     7
 10
131.2948432169293
 20
-76.12719812224623
 30
0.0
 11
131.2948432169293
 21
-74.58209841746185
 31
0.0
  0
ARC
  5
2E5
  8
0
  6
CONTINUOUS
 62
     7
 10
131.2948432169293
 20
46.59832257024561
 30
0.0
 40
121.7255206924918
 50
255.0
 51
270.0
  0
INSERT
  5
2E6
  8
0
 62
     7
  2
_OPEN30
 10
99.78996018669146
 20
-70.97950158511665
 30
0.0
 41
2.499995396844351
 42
2.500007167085477
 50
165.5883697576388
  0
INSERT
  5
2E7
  8
0
 62
     7
  2
_OPEN30
 10
131.2948432169293
 20
-75.12719812224623
 30
0.0
 41
2.499995396844351
 42
2.500007167085477
 50
359.4116302423613
  0
TEXT
  5
2E8
  8
0
 62
     7
 10
110.712802266451
 20
-72.96357126503369
 30
0.0
 40
4.0
  1
15°
 50
352.5000000000001
 41
1.12
  7
DCSTYLE0
 72
     5
 11
120.2306729356396
 21
-74.21662271034619
 31
0.0
  0
ENDBLK
  5
14B
  8
0
  0
BLOCK
  8
0
  2
DA_IMAGEDIMGROUP_34
 70
     0
 10
0.0
 20
0.0
 30
0.0
  3
DA_IMAGEDIMGROUP_34
  1

  0
LINE
  5
2E9
  8
0
  6
CONTINUOUS
 62
     7
 10
163.058435576072
 20
-71.9450179449821
 30
0.0
 11
153.6217656687371
 21
-36.72688639655168
 31
0.0
  0
ARC
  5
2EA
  8
0
  6
CONTINUOUS
 62
     7
 10
131.2948432169315
 20
46.59832257024578
 30
0.0
 40
121.7250967816563
 50
269.999999999999
 51
284.9999999999989
  0
INSERT
  5
2EB
  8
0
 62
     7
  2
_OPEN30
 10
131.2948432169293
 20
-75.12677421141055
 30
0.0
 41
2.499995396844351
 42
2.500007167085477
 50
180.5883718066509
  0
INSERT
  5
2EC
  8
0
 62
     7
  2
_OPEN30
 10
162.7996165309695
 20
-70.97909211869302
 30
0.0
 41
2.499995396844351
 42
2.500007167085477
 50
14.41162819334691
  0
TEXT
  5
2ED
  8
0
 62
     7
 10
142.3589581667518
 20
-74.21620242612669
 30
0.0
 40
4.0
  1
15°
 50
7.499999999998989
 41
1.120000000000006
  7
DCSTYLE0
 72
     5
 11
151.8768288359405
 21
-72.96315098081435
 31
0.0
  0
ENDBLK
  5
14E
  8
0
  0
BLOCK
  8
0
  2
DC_GROUP_20
 70
     0
 10
0.0
 20
0.0
 30
0.0
  3
DC_GROUP_20
  1

  0
LINE
  5
2EE
  8
0
  6
CONTINUOUS
 62
     7
 10
133.2642580713223
 20
14.49832449943885
 30
0.0
 11
201.3772527498985
 21
-51.13783400900716
 31
0.0
  0
INSERT
  5
2EF
  8
0
 62
     7
  2
_OPEN30
 10
133.2642580713223
 20
14.49832449943885
 30
0.0
 41
2.499995396844351
 42
2.500007167085477
 50
136.0609116902643
  0
LINE
  5
2F0
  8
0
  6
CONTINUOUS
 62
     7
 10
201.3772527498985
 20
-51.13783400900716
 30
0.0
 11
233.3772527498985
 21
-51.13783400900716
 31
0.0
  0
TEXT
  5
2F1
  8
0
 62
     7
 10
201.3772527498985
 20
-50.63783400900716
 30
0.0
 40
4.0
  1
3-M6 PCD60
 41
0.7962085308056872
  7
DCSTYLE0
 72
     5
 11
233.3772527498985
 21
-50.63783400900716
 31
0.0
  0
ENDBLK
  5
151
  8
0
  0
BLOCK
  8
0
  2
DC_GROUP_21
 70
     0
 10
0.0
 20
0.0
 30
0.0
  3
DC_GROUP_21
  1

  0
LINE
  5
2F2
  8
0
  6
CONTINUOUS
 62
     7
 10
158.0563147982504
 20
-26.99399567420623
 30
0.0
 11
190.2081177881465
 21
-70.0402112474556
 31
0.0
  0
INSERT
  5
2F3
  8
0
 62
     7
  2
_OPEN30
 10
158.0563147982504
 20
-26.99399567420623
 30
0.0
 41
2.499995396844351
 42
2.500007167085477
 50
126.7565530271057
  0
LINE
  5
2F4
  8
0
  6
CONTINUOUS
 62
     7
 10
190.2081177881465
 20
-70.0402112474556
 30
0.0
 11
219.0081177881465
 21
-70.0402112474556
 31
0.0
  0
TEXT
  5
2F5
  8
0
 62
     7
 10
190.2081177881465
 20
-69.5402112474556
 30
0.0
 40
4.0
  1
PCD133.35
 41
0.8894117647058826
  7
DCSTYLE0
 72
     5
 11
219.0081177881465
 21
-69.5402112474556
 31
0.0
  0
ENDBLK
  5
154
  8
0
  0
BLOCK
  8
0
  2
DA_IMAGEDIMGROUP_35
 70
     0
 10
0.0
 20
0.0
 30
0.0
  3
DA_IMAGEDIMGROUP_35
  1

  0
LINE
  5
2F6
  8
0
  6
CONTINUOUS
 62
     7
 10
237.1727312692618
 20
107.7274436827235
 30
0.0
 11
236.2401385389238
 21
107.1890110188185
 31
0.0
  0
ARC
  5
2F7
  8
0
  6
CONTINUOUS
 62
     7
 10
131.2939876804187
 20
46.59832257024556
 30
0.0
 40
121.2582422249559
 50
0.0
 51
30.0
  0
INSERT
  5
2F8
  8
0
 62
     7
  2
_OPEN30
 10
252.5522299053745
 20
46.59832257024556
 30
0.0
 41
2.499995396844351
 42
2.500007167085477
 50
270.5906370882024
  0
INSERT
  5
2F9
  8
0
 62
     7
  2
_OPEN30
 10
236.3067058654773
 20
107.2274436827235
 30
0.0
 41
2.499995396844351
 42
2.500007167085477
 50
119.4093629117976
  0
TEXT
  5
2FA
  8
0
 62
     7
 10
246.9548396702285
 20
81.64344180605957
 30
0.0
 40
4.0
  1
30°
 50
109.1329970437699
 41
1.120000000000003
  7
DCSTYLE0
 72
     5
 11
243.8083240148791
 21
90.7131407663692
 31
0.0
  0
ENDBLK
  5
157
  8
0
  0
BLOCK
  8
0
  2
DA_IMAGEDIMGROUP_36
 70
     0
 10
0.0
 20
0.0
 30
0.0
  3
DA_IMAGEDIMGROUP_36
  1

  0
LINE
  5
2FB
  8
0
  6
CONTINUOUS
 62
     7
 10
263.8993078899939
 20
46.59832257024556
 30
0.0
 11
258.7250620598361
 21
46.59832257024556
 31
0.0
  0
LINE
  5
2FC
  8
0
  6
CONTINUOUS
 62
     7
 10
259.3809203258788
 20
80.91888349325913
 30
0.0
 11
214.6200521837265
 21
68.92524502205343
 31
0.0
  0
ARC
  5
2FD
  8
0
  6
CONTINUOUS
 62
     7
 10
131.2948432169295
 20
46.59832257024556
 30
0.0
 40
131.6044646730644
 50
0.0
 51
15.00000000000004
  0
INSERT
  5
2FE
  8
0
 62
     7
  2
_OPEN30
 10
262.8993078899939
 20
46.59832257024556
 30
0.0
 41
2.499995396844351
 42
2.500007167085477
 50
270.5442035366077
  0
INSERT
  5
2FF
  8
0
 62
     7
  2
_OPEN30
 10
258.4149944995897
 20
80.6600644481566
 30
0.0
 41
2.499995396844351
 42
2.500007167085477
 50
104.4557964633925
  0
TEXT
  5
300
  8
0
 62
     7
 10
261.9042167428597
 20
58.95195379247467
 30
0.0
 40
4.0
  1
15°
 50
97.50000000000006
 41
1.120000000000004
  7
DCSTYLE0
 72
     5
 11
260.6511652975472
 21
68.46982446166328
 31
0.0
  0
ENDBLK
  5
15A
  8
0
  0
BLOCK
  8
0
  2
DA_IMAGEDIMGROUP_37
 70
     0
 10
0.0
 20
0.0
 30
0.0
  3
DA_IMAGEDIMGROUP_37
  1

  0
LINE
  5
301
  8
0
  6
CONTINUOUS
 62
     7
 10
225.0550028423723
 20
140.3584821956885
 30
0.0
 11
192.2931297319187
 21
107.5966090852349
 31
0.0
  0
ARC
  5
302
  8
0
  6
CONTINUOUS
 62
     7
 10
131.2948432169293
 20
46.59832257024551
 30
0.0
 40
131.5968893525678
 50
15.00000000000004
 51
45.0
  0
INSERT
  5
303
  8
0
 62
     7
  2
_OPEN30
 10
258.4076773018793
 20
80.65810381093925
 30
0.0
 41
2.499995396844351
 42
2.500007167085477
 50
285.5442348634582
  0
INSERT
  5
304
  8
0
 62
     7
  2
_OPEN30
 10
224.3478960611857
 20
139.651375414502
 30
0.0
 41
2.499995396844351
 42
2.500007167085477
 50
134.4557651365417
  0
TEXT
  5
305
  8
0
 62
     7
 10
250.4607458379894
 20
101.4519646592392
 30
0.0
 40
4.0
  1
30°
 50
116.8141401845528
 41
1.120000000000001
  7
DCSTYLE0
 72
     5
 11
246.1302068553695
 21
110.0197200315645
 31
0.0
  0
ENDBLK
  5
15D
  8
0
  0
BLOCK
  8
0
  2
DC_GROUP_22
 70
     0
 10
0.0
 20
0.0
 30
0.0
  3
DC_GROUP_22
  1

  0
CIRCLE
  5
306
  8
0
  6
CONTINUOUS
 62
     3
 10
81.6654145574131
 20
17.94868448163614
 30
0.0
 40
7.999999999999999
  0
LINE
  5
307
  8
0
  6
CONTINUOUS
 62
     3
 10
77.6654145574131
 20
15.63928340487764
 30
0.0
 11
81.6654145574131
 21
13.32988232811915
 31
0.0
  0
LINE
  5
308
  8
0
  6
CONTINUOUS
 62
     3
 10
81.6654145574131
 20
13.32988232811915
 30
0.0
 11
85.66541455741307
 21
15.63928340487764
 31
0.0
  0
LINE
  5
309
  8
0
  6
CONTINUOUS
 62
     3
 10
85.66541455741307
 20
15.63928340487764
 30
0.0
 11
85.6654145574131
 21
20.25808555839465
 31
0.0
  0
LINE
  5
30A
  8
0
  6
CONTINUOUS
 62
     3
 10
85.6654145574131
 20
20.25808555839465
 30
0.0
 11
81.66541455741307
 21
22.56748663515314
 31
0.0
  0
LINE
  5
30B
  8
0
  6
CONTINUOUS
 62
     3
 10
81.66541455741307
 20
22.56748663515314
 30
0.0
 11
77.6654145574131
 21
20.25808555839465
 31
0.0
  0
LINE
  5
30C
  8
0
  6
CONTINUOUS
 62
     3
 10
77.6654145574131
 20
20.25808555839465
 30
0.0
 11
77.6654145574131
 21
15.63928340487764
 31
0.0
  0
ENDBLK
  5
160
  8
0
  0
BLOCK
  8
0
  2
DC_GROUP_23
 70
     0
 10
0.0
 20
0.0
 30
0.0
  3
DC_GROUP_23
  1

  0
CIRCLE
  5
30D
  8
0
  6
CONTINUOUS
 62
     3
 10
55.68465321816694
 20
2.948684928670957
 30
0.0
 40
7.999999999999999
  0
LINE
  5
30E
  8
0
  6
CONTINUOUS
 62
     3
 10
51.68465321816689
 20
0.6392838519124382
 30
0.0
 11
55.68465321816694
 21
-1.670117224846038
 31
0.0
  0
LINE
  5
30F
  8
0
  6
CONTINUOUS
 62
     3
 10
55.68465321816694
 20
-1.670117224846038
 30
0.0
 11
59.68465321816691
 21
0.6392838519124524
 31
0.0
  0
LINE
  5
310
  8
0
  6
CONTINUOUS
 62
     3
 10
59.68465321816691
 20
0.6392838519124524
 30
0.0
 11
59.68465321816689
 21
5.258086005429448
 31
0.0
  0
LINE
  5
311
  8
0
  6
CONTINUOUS
 62
     3
 10
59.68465321816689
 20
5.258086005429448
 30
0.0
 11
55.68465321816691
 21
7.567487082187952
 31
0.0
  0
LINE
  5
312
  8
0
  6
CONTINUOUS
 62
     3
 10
55.68465321816691
 20
7.567487082187952
 30
0.0
 11
51.68465321816694
 21
5.258086005429462
 31
0.0
  0
LINE
  5
313
  8
0
  6
CONTINUOUS
 62
     3
 10
51.68465321816694
 20
5.258086005429462
 30
0.0
 11
51.68465321816689
 21
0.6392838519124382
 31
0.0
  0
ENDBLK
  5
163
  8
0
  0
BLOCK
  8
0
  2
DC_GROUP_24
 70
     0
 10
0.0
 20
0.0
 30
0.0
  3
DC_GROUP_24
  1

  0
CIRCLE
  5
314
  8
0
  6
CONTINUOUS
 62
     3
 10
180.9187607940298
 20
17.94497040061162
 30
0.0
 40
7.999999999999999
  0
LINE
  5
315
  8
0
  6
CONTINUOUS
 62
     3
 10
184.9187607940298
 20
15.63556932385313
 30
0.0
 11
184.9187607940298
 21
20.25437147737014
 31
0.0
  0
LINE
  5
316
  8
0
  6
CONTINUOUS
 62
     3
 10
184.9187607940298
 20
20.25437147737014
 30
0.0
 11
180.9187607940299
 21
22.56377255412863
 31
0.0
  0
LINE
  5
317
  8
0
  6
CONTINUOUS
 62
     3
 10
180.9187607940299
 20
22.56377255412863
 30
0.0
 11
176.9187607940298
 21
20.25437147737014
 31
0.0
  0
LINE
  5
318
  8
0
  6
CONTINUOUS
 62
     3
 10
176.9187607940298
 20
20.25437147737014
 30
0.0
 11
176.9187607940299
 21
15.63556932385313
 31
0.0
  0
LINE
  5
319
  8
0
  6
CONTINUOUS
 62
     3
 10
176.9187607940299
 20
15.63556932385313
 30
0.0
 11
180.9187607940298
 21
13.32616824709464
 31
0.0
  0
LINE
  5
31A
  8
0
  6
CONTINUOUS
 62
     3
 10
180.9187607940298
 20
13.32616824709464
 30
0.0
 11
184.9187607940298
 21
15.63556932385313
 31
0.0
  0
ENDBLK
  5
166
  8
0
  0
BLOCK
  8
0
  2
DC_GROUP_25
 70
     0
 10
0.0
 20
0.0
 30
0.0
  3
DC_GROUP_25
  1

  0
CIRCLE
  5
31B
  8
0
  6
CONTINUOUS
 62
     3
 10
206.899522133276
 20
2.944970847646459
 30
0.0
 40
7.999999999999999
  0
LINE
  5
31C
  8
0
  6
CONTINUOUS
 62
     3
 10
210.899522133276
 20
0.635569770887912
 30
0.0
 11
210.899522133276
 21
5.25437192440495
 31
0.0
  0
LINE
  5
31D
  8
0
  6
CONTINUOUS
 62
     3
 10
210.899522133276
 20
5.25437192440495
 30
0.0
 11
206.899522133276
 21
7.56377300116344
 31
0.0
  0
LINE
  5
31E
  8
0
  6
CONTINUOUS
 62
     3
 10
206.899522133276
 20
7.56377300116344
 30
0.0
 11
202.899522133276
 21
5.25437192440495
 31
0.0
  0
LINE
  5
31F
  8
0
  6
CONTINUOUS
 62
     3
 10
202.899522133276
 20
5.25437192440495
 30
0.0
 11
202.899522133276
 21
0.6355697708879404
 31
0.0
  0
LINE
  5
320
  8
0
  6
CONTINUOUS
 62
     3
 10
202.899522133276
 20
0.6355697708879404
 30
0.0
 11
206.899522133276
 21
-1.67383130587055
 31
0.0
  0
LINE
  5
321
  8
0
  6
CONTINUOUS
 62
     3
 10
206.899522133276
 20
-1.67383130587055
 30
0.0
 11
210.899522133276
 21
0.635569770887912
 31
0.0
  0
ENDBLK
  5
169
  8
0
  0
BLOCK
  8
0
  2
_OPEN30
 70
     0
 10
0.0
 20
0.0
 30
0.0
  3
_OPEN30
  1

  0
LINE
  5
172
  8
0
  6
BYBLOCK
 62
     0
 10
-1.0
 20
0.267949
 30
0.0
 11
0.0
 21
0.0
 31
0.0
  0
LINE
  5
173
  8
0
  6
BYBLOCK
 62
     0
 10
0.0
 20
0.0
 30
0.0
 11
-1.0
 21
-0.267949
 31
0.0
  0
LINE
  5
174
  8
0
  6
BYBLOCK
 62
     0
 10
0.0
 20
0.0
 30
0.0
 11
-1.0
 21
0.0
 31
0.0
  0
ENDBLK
  5
171
  8
0
  0
ENDSEC
  0
SECTION
  2
ENTITIES
  0
LINE
  5
322
  8
0
  6
CONTINUOUS
 62
     3
 10
-269.000292508917
 20
194.0
 30
0.0
 11
268.999707491083
 21
194.0
 31
0.0
  0
LINE
  5
323
  8
0
  6
CONTINUOUS
 62
     3
 10
-269.000292508917
 20
-194.0
 30
0.0
 11
268.999707491083
 21
-194.0
 31
0.0
  0
LINE
  5
324
  8
0
  6
CONTINUOUS
 62
     3
 10
88.99972274987203
 20
-180.0
 30
0.0
 11
268.999707491083
 21
-180.0
 31
0.0
  0
LINE
  5
325
  8
0
  6
CONTINUOUS
 62
     3
 10
137.999722749872
 20
-166.0
 30
0.0
 11
268.6717655965517
 21
-166.0
 31
0.0
  0
LINE
  5
326
  8
0
  6
CONTINUOUS
 62
     3
 10
137.999722749872
 20
-152.0
 30
0.0
 11
246.999722749872
 21
-152.0
 31
0.0
  0
LINE
  5
327
  8
0
  6
CONTINUOUS
 62
     3
 10
137.999722749872
 20
-142.0
 30
0.0
 11
268.999707491083
 21
-142.0
 31
0.0
  0
LINE
  5
328
  8
0
  6
CONTINUOUS
 62
     3
 10
88.99972274987203
 20
-134.0
 30
0.0
 11
268.999707491083
 21
-134.0
 31
0.0
  0
LINE
  5
329
  8
0
  6
CONTINUOUS
 62
     3
 10
137.999722749872
 20
-134.0
 30
0.0
 11
137.999722749872
 21
-180.0
 31
0.0
  0
LINE
  5
32A
  8
0
  6
CONTINUOUS
 62
     3
 10
219.999722749872
 20
-152.0
 30
0.0
 11
219.999722749872
 21
-180.0
 31
0.0
  0
LINE
  5
32B
  8
0
  6
CONTINUOUS
 62
     3
 10
246.999722749872
 20
-134.0
 30
0.0
 11
246.999722749872
 21
-180.0
 31
0.0
  0
LINE
  5
32C
  8
0
  6
CONTINUOUS
 62
     3
 10
162.999722749872
 20
-180.0
 30
0.0
 11
162.999722749872
 21
-194.0
 31
0.0
  0
LINE
  5
32D
  8
0
  6
CONTINUOUS
 62
     3
 10
268.999707491083
 20
194.0
 30
0.0
 11
268.999707491083
 21
-194.0
 31
0.0
  0
LINE
  5
32E
  8
0
  6
CONTINUOUS
 62
     3
 10
-269.000292508917
 20
194.0
 30
0.0
 11
-269.000292508917
 21
-194.0
 31
0.0
  0
LINE
  5
32F
  8
0
  6
CONTINUOUS
 62
     3
 10
88.99972274987203
 20
-134.0
 30
0.0
 11
88.99972274987203
 21
-194.0
 31
0.0
  0
LINE
  5
330
  8
0
  6
CONTINUOUS
 62
     3
 10
-80.63241812189271
 20
154.5983250736406
 30
0.0
 11
-80.63241812189271
 21
144.098325386565
 31
0.0
  0
LINE
  5
331
  8
0
  6
CONTINUOUS
 62
     3
 10
-82.43241803248574
 20
91.59832695118682
 30
0.0
 11
-72.6324259897056
 21
91.59832695118682
 31
0.0
  0
LINE
  5
332
  8
0
  6
CONTINUOUS
 62
     3
 10
-81.63241803248575
 20
91.59832695118682
 30
0.0
 11
-81.63241803248575
 21
70.09832377723954
 31
0.0
  0
LINE
  5
333
  8
0
  6
CONTINUOUS
 62
     3
 10
-205.4324004906525
 20
9.598323196094299
 30
0.0
 11
-131.6323251833532
 21
9.598323196094299
 31
0.0
  0
LINE
  5
334
  8
0
  6
CONTINUOUS
 62
     3
 10
-205.4324004906525
 20
83.59832337490825
 30
0.0
 11
-127.6323176731682
 21
83.59832337490825
 31
0.0
  0
LINE
  5
335
  8
0
  6
CONTINUOUS
 62
     3
 10
-127.6323176731682
 20
83.59832337490825
 30
0.0
 11
-117.6323103417971
 21
83.59832337490825
 31
0.0
  0
LINE
  5
336
  8
0
  6
CONTINUOUS
 62
     3
 10
-156.1323168238019
 20
80.84832536421321
 30
0.0
 11
-156.1323168238019
 21
79.0983235090187
 31
0.0
  0
LINE
  5
337
  8
0
  6
CONTINUOUS
 62
     3
 10
-158.132309134803
 20
14.09832163147243
 30
0.0
 11
-151.1323246022079
 21
14.09832163147243
 31
0.0
  0
LINE
  5
338
  8
0
  6
CONTINUOUS
 62
     3
 10
-158.1323320229859
 20
79.0983235090187
 30
0.0
 11
-151.1323246022079
 21
79.0983235090187
 31
0.0
  0
LINE
  5
339
  8
0
  6
CONTINUOUS
 62
     3
 10
-159.132316734395
 20
80.84832536421321
 30
0.0
 11
-156.1323168238019
 21
80.84832536421321
 31
0.0
  0
LINE
  5
33A
  8
0
  6
CONTINUOUS
 62
     3
 10
-159.132316734395
 20
12.34831977627792
 30
0.0
 11
-156.1323168238019
 21
12.34831977627792
 31
0.0
  0
LINE
  5
33B
  8
0
  6
CONTINUOUS
 62
     3
 10
-176.1323314865441
 20
80.59832346431521
 30
0.0
 11
-159.132316734395
 21
80.59832346431521
 31
0.0
  0
LINE
  5
33C
  8
0
  6
CONTINUOUS
 62
     3
 10
-156.1323168238019
 20
14.09832163147243
 30
0.0
 11
-156.1323168238019
 21
12.34831977627792
 31
0.0
  0
LINE
  5
33D
  8
0
  6
CONTINUOUS
 62
     3
 10
-151.1323246022079
 20
79.0983235090187
 30
0.0
 11
-151.1323246022079
 21
70.09832377723954
 31
0.0
  0
LINE
  5
33E
  8
0
  6
CONTINUOUS
 62
     3
 10
-131.6323251833532
 20
9.598323196094299
 30
0.0
 11
-81.63241803248575
 21
9.598323196094299
 31
0.0
  0
LINE
  5
33F
  8
0
  6
CONTINUOUS
 62
     3
 10
-160.132324333987
 20
70.8483237548878
 30
0.0
 11
-160.132324333987
 21
22.34832138560327
 31
0.0
  0
LINE
  5
340
  8
0
  6
CONTINUOUS
 62
     3
 10
-156.1323168238019
 20
70.8483237548878
 30
0.0
 11
-156.1323168238019
 21
22.34832138560327
 31
0.0
  0
LINE
  5
341
  8
0
  6
CONTINUOUS
 62
     3
 10
-160.132324333987
 20
70.8483237548878
 30
0.0
 11
-156.1323168238019
 21
70.8483237548878
 31
0.0
  0
LINE
  5
342
  8
0
  6
CONTINUOUS
 62
     3
 10
-160.132324333987
 20
22.34832138560327
 30
0.0
 11
-156.1323168238019
 21
22.34832138560327
 31
0.0
  0
LINE
  5
343
  8
0
  6
CONTINUOUS
 62
     3
 10
-176.1323314865441
 20
69.79831691972537
 30
0.0
 11
-160.132324333987
 21
69.79831691972537
 31
0.0
  0
LINE
  5
344
  8
0
  6
CONTINUOUS
 62
     3
 10
-176.1323314865441
 20
23.39831963769711
 30
0.0
 11
-160.132324333987
 21
23.39831963769711
 31
0.0
  0
LINE
  5
345
  8
0
  6
CONTINUOUS
 62
     3
 10
-176.1322857101783
 20
18.59832149736198
 30
0.0
 11
-159.132316734395
 21
18.59832149736198
 31
0.0
  0
LINE
  5
346
  8
0
  6
CONTINUOUS
 62
     3
 10
-176.1323314865441
 20
74.59832364312909
 30
0.0
 11
-159.132316734395
 21
74.59832364312909
 31
0.0
  0
LINE
  5
347
  8
0
  6
CONTINUOUS
 62
     3
 10
-159.132316734395
 20
80.84832536421321
 30
0.0
 11
-159.132316734395
 21
74.59832364312909
 31
0.0
  0
LINE
  5
348
  8
0
  6
CONTINUOUS
 62
     3
 10
-159.132316734395
 20
18.59832149736198
 30
0.0
 11
-159.132316734395
 21
12.34831977627792
 31
0.0
  0
LINE
  5
349
  8
0
  6
CONTINUOUS
 62
     3
 10
-159.1323108498626
 20
78.09832338188225
 30
0.0
 11
-158.1323098180754
 21
79.09832441366937
 31
0.0
  0
LINE
  5
34A
  8
0
  6
CONTINUOUS
 62
     3
 10
-152.1323036273524
 20
79.09832441366937
 30
0.0
 11
-151.1323025955654
 21
78.09832338188225
 31
0.0
  0
LINE
  5
34B
  8
0
  6
CONTINUOUS
 62
     3
 10
-151.1323106877597
 20
15.09831502465369
 30
0.0
 11
-152.1323117195469
 21
14.09831399286654
 31
0.0
  0
LINE
  5
34C
  8
0
  6
CONTINUOUS
 62
     3
 10
-158.1323066806871
 20
14.09831971833583
 30
0.0
 11
-159.1323057737171
 21
15.09832268888005
 31
0.0
  0
LINE
  5
34D
  8
0
  6
CONTINUOUS
 62
     3
 10
-152.6007186541696
 20
18.59833351547736
 30
0.0
 11
-151.1322972390061
 21
20.34832979451545
 31
0.0
  0
LINE
  5
34E
  8
0
  6
CONTINUOUS
 62
     3
 10
-152.6007057807068
 20
18.59831483209911
 30
0.0
 11
-151.1322917216638
 21
16.84832731974294
 31
0.0
  0
LINE
  5
34F
  8
0
  6
CONTINUOUS
 62
     3
 10
-151.1323246022079
 20
21.09832333020475
 30
0.0
 11
-143.7543188406443
 21
21.09832333020475
 31
0.0
  0
LINE
  5
350
  8
0
  6
CONTINUOUS
 62
     3
 10
-151.1323246022079
 20
16.09832252554207
 30
0.0
 11
-144.2899480971422
 21
16.09832252554207
 31
0.0
  0
LINE
  5
351
  8
0
  6
CONTINUOUS
 62
     3
 10
-147.3675552077642
 20
16.09832275760475
 30
0.0
 11
-146.0278093315691
 21
21.09832181915223
 31
0.0
  0
LINE
  5
352
  8
0
  6
CONTINUOUS
 62
     3
 10
-146.027799071186
 20
21.09833060960982
 30
0.0
 11
-144.6880517140161
 21
16.09832602099067
 31
0.0
  0
LINE
  5
353
  8
0
  6
CONTINUOUS
 62
     3
 10
-144.5930144650214
 20
16.09832402293718
 30
0.0
 11
-143.5489770033731
 21
19.9947243934969
 31
0.0
  0
LINE
  5
354
  8
0
  6
CONTINUOUS
 62
     3
 10
-176.1323314865441
 20
12.59832167617591
 30
0.0
 11
-171.1323163767671
 21
12.59832167617591
 31
0.0
  0
LINE
  5
355
  8
0
  6
CONTINUOUS
 62
     3
 10
-81.63241803248575
 20
85.79831953040878
 30
0.0
 11
-79.13240283330178
 21
85.79831953040878
 31
0.0
  0
LINE
  5
356
  8
0
  6
CONTINUOUS
 62
     3
 10
-86.63241794307878
 20
144.098325386565
 30
0.0
 11
-86.63241794307878
 21
94.09832306198386
 31
0.0
  0
LINE
  5
357
  8
0
  6
CONTINUOUS
 62
     3
 10
-80.63241812189271
 20
94.09832306198386
 30
0.0
 11
-80.63241812189271
 21
91.59832695118682
 31
0.0
  0
LINE
  5
358
  8
0
  6
CONTINUOUS
 62
     3
 10
-74.63241830070665
 20
91.5129654730179
 30
0.0
 11
-74.63241830070665
 21
-58.90167810030668
 31
0.0
  0
LINE
  5
359
  8
0
  6
CONTINUOUS
 62
     3
 10
-176.1323314865441
 20
82.598321497362
 30
0.0
 11
-176.1323314865441
 21
10.59832936517486
 31
0.0
  0
LINE
  5
35A
  8
0
  6
CONTINUOUS
 62
     3
 10
-176.1323041136606
 20
10.59831038161151
 30
0.0
 11
-175.1323030818734
 21
9.598309349824376
 31
0.0
  0
LINE
  5
35B
  8
0
  6
CONTINUOUS
 62
     3
 10
-176.1323122058551
 20
82.59831184053535
 30
0.0
 11
-175.132311174068
 21
83.59831287232247
 31
0.0
  0
LINE
  5
35C
  8
0
  6
CONTINUOUS
 62
     3
 10
-119.1324247380082
 20
154.7648594925056
 30
0.0
 11
-119.1324247380082
 21
136.901857247765
 31
0.0
  0
LINE
  5
35D
  8
0
  6
CONTINUOUS
 62
     3
 10
-146.1323323806138
 20
70.09832377723954
 30
0.0
 11
-146.1323323806138
 21
50.59832435838484
 31
0.0
  0
LINE
  5
35E
  8
0
  6
CONTINUOUS
 62
     3
 10
-151.1323246022079
 20
23.09832136325153
 30
0.0
 11
-151.1323246022079
 21
20.33832693866984
 31
0.0
  0
LINE
  5
35F
  8
0
  6
CONTINUOUS
 62
     3
 10
-146.1323323806138
 20
42.59832078210627
 30
0.0
 11
-146.1323323806138
 21
23.09832136325153
 31
0.0
  0
LINE
  5
360
  8
0
  6
CONTINUOUS
 62
     3
 10
-119.1324247380082
 20
136.901857247765
 30
0.0
 11
-119.1324247380082
 21
97.59832654885547
 31
0.0
  0
LINE
  5
361
  8
0
  6
CONTINUOUS
 62
     3
 10
-86.63241794307878
 20
144.098325386565
 30
0.0
 11
-71.63241839011361
 21
144.098325386565
 31
0.0
  0
LINE
  5
362
  8
0
  6
CONTINUOUS
 62
     3
 10
-86.63241794307878
 20
94.09832306198386
 30
0.0
 11
-71.63241839011361
 21
94.09832306198386
 31
0.0
  0
LINE
  5
363
  8
0
  6
CONTINUOUS
 62
     3
 10
-76.54955696063477
 20
154.6143307870158
 30
0.0
 11
-76.70008796336428
 21
154.7648617897453
 31
0.0
  0
LINE
  5
364
  8
0
  6
CONTINUOUS
 62
     3
 10
-119.1324247380082
 20
154.7648594925056
 30
0.0
 11
-106.1324174960439
 21
154.7648594925056
 31
0.0
  0
LINE
  5
365
  8
0
  6
CONTINUOUS
 62
     3
 10
-89.63243314226274
 20
154.7648594925056
 30
0.0
 11
-76.70008716878151
 21
154.7648594925056
 31
0.0
  0
LINE
  5
366
  8
0
  6
CONTINUOUS
 62
     3
 10
-87.63243698676233
 20
154.5983250736406
 30
0.0
 11
-87.63243698676233
 21
86.59832328550128
 31
0.0
  0
LINE
  5
367
  8
0
  6
CONTINUOUS
 62
     3
 10
-81.63241803248575
 20
23.09832136325153
 30
0.0
 11
-81.63241803248575
 21
7.098319753926177
 31
0.0
  0
LINE
  5
368
  8
0
  6
CONTINUOUS
 62
     3
 10
-81.63241803248575
 20
1.098321363251529
 30
0.0
 11
-81.63241803248575
 21
-4.401677429754443
 31
0.0
  0
LINE
  5
369
  8
0
  6
CONTINUOUS
 62
     3
 10
-151.1323246022079
 20
16.85831319503126
 30
0.0
 11
-151.1323246022079
 21
14.09832163147243
 31
0.0
  0
LINE
  5
36A
  8
0
  6
CONTINUOUS
 62
     3
 10
-176.6324493461255
 20
154.0983223020248
 30
0.0
 11
-119.1324247380082
 21
154.0983212738446
 31
0.0
  0
LINE
  5
36B
  8
0
  6
CONTINUOUS
 62
     3
 10
-167.132331754765
 20
18.59832149736198
 30
0.0
 11
-167.132331754765
 21
9.598323196094299
 31
0.0
  0
LINE
  5
36C
  8
0
  6
CONTINUOUS
 62
     3
 10
-171.1323163767671
 20
18.59832149736198
 30
0.0
 11
-171.1323163767671
 21
9.598323196094299
 31
0.0
  0
LINE
  5
36D
  8
0
  6
CONTINUOUS
 62
     3
 10
-167.132331754765
 20
12.59832167617591
 30
0.0
 11
-159.132316734395
 21
12.59832167617591
 31
0.0
  0
LINE
  5
36E
  8
0
  6
CONTINUOUS
 62
     3
 10
-171.1323163767671
 20
10.59832221261769
 30
0.0
 11
-167.132331754765
 21
10.59832221261769
 31
0.0
  0
LINE
  5
36F
  8
0
  6
CONTINUOUS
 62
     3
 10
-171.1323163767671
 20
16.5983234643152
 30
0.0
 11
-167.132331754765
 21
16.5983234643152
 31
0.0
  0
LINE
  5
370
  8
0
  6
CONTINUOUS
 62
     3
 10
-89.63243314226274
 20
154.7648594925056
 30
0.0
 11
-89.63243314226274
 21
154.5983250736406
 31
0.0
  0
LINE
  5
371
  8
0
  6
CONTINUOUS
 62
     3
 10
-106.1324174960439
 20
154.7648594925056
 30
0.0
 11
-106.1324174960439
 21
154.5983250736406
 31
0.0
  0
LINE
  5
372
  8
0
  6
CONTINUOUS
 62
     3
 10
-79.1324011293513
 20
85.79832042920543
 30
0.0
 11
-74.63241830070665
 21
83.20025408510807
 31
0.0
  0
LINE
  5
373
  8
0
  6
CONTINUOUS
 62
     3
 10
-150.1323170026159
 20
50.59832435838484
 30
0.0
 11
-146.1323323806138
 21
50.59832435838484
 31
0.0
  0
LINE
  5
374
  8
0
  6
CONTINUOUS
 62
     3
 10
-150.1323170026159
 20
42.59832078210627
 30
0.0
 11
-146.1323323806138
 21
42.59832078210627
 31
0.0
  0
LINE
  5
375
  8
0
  6
CONTINUOUS
 62
     3
 10
-156.1323168238019
 20
64.09831823400775
 30
0.0
 11
-146.1323323806138
 21
64.09831823400775
 31
0.0
  0
LINE
  5
376
  8
0
  6
CONTINUOUS
 62
     3
 10
-156.1323168238019
 20
29.09832690648332
 30
0.0
 11
-146.1323323806138
 21
29.09832690648332
 31
0.0
  0
LINE
  5
377
  8
0
  6
CONTINUOUS
 62
     3
 10
-151.1323246022079
 20
23.09832136325153
 30
0.0
 11
-81.63241803248575
 21
23.09832136325153
 31
0.0
  0
LINE
  5
378
  8
0
  6
CONTINUOUS
 62
     3
 10
-121.1324247380082
 20
70.09832377723954
 30
0.0
 11
-121.1324247380082
 21
23.09832136325153
 31
0.0
  0
LINE
  5
379
  8
0
  6
CONTINUOUS
 62
     3
 10
-151.1323246022079
 20
70.09832377723954
 30
0.0
 11
-81.63241803248575
 21
70.09832377723954
 31
0.0
  0
LINE
  5
37A
  8
0
  6
CONTINUOUS
 62
     3
 10
-98.13242174287488
 20
76.59832355372218
 30
0.0
 11
-82.43241803248574
 21
76.59832355372218
 31
0.0
  0
LINE
  5
37B
  8
0
  6
CONTINUOUS
 62
     3
 10
-87.63243698676233
 20
86.59832328550128
 30
0.0
 11
-82.43241803248574
 21
86.59832328550128
 31
0.0
  0
LINE
  5
37C
  8
0
  6
CONTINUOUS
 62
     3
 10
-150.1323170026159
 20
50.59832435838484
 30
0.0
 11
-150.1323170026159
 21
42.59832078210627
 31
0.0
  0
CIRCLE
  5
37D
  8
0
  6
CONTINUOUS
 62
     3
 10
-149.3372273046317
 20
18.59832149736198
 30
0.0
 40
2.500000044703482
  0
LINE
  5
37E
  8
0
  6
CONTINUOUS
 62
     3
 10
-84.63241830070665
 20
67.09832447759418
 30
0.0
 11
-75.13241830070665
 21
67.09832447759418
 31
0.0
  0
LINE
  5
37F
  8
0
  6
CONTINUOUS
 62
     3
 10
-111.1324183007066
 20
67.59832447759418
 30
0.0
 11
-84.63241830070665
 21
67.59832447759418
 31
0.0
  0
LINE
  5
380
  8
0
  6
CONTINUOUS
 62
     3
 10
-75.13241830070665
 20
67.09832447759418
 30
0.0
 11
-74.63241830070665
 21
67.59832447759418
 31
0.0
  0
LINE
  5
381
  8
0
  6
CONTINUOUS
 62
     3
 10
-111.1324183007066
 20
25.59832257024556
 30
0.0
 11
-84.63241830070665
 21
25.59832257024556
 31
0.0
  0
LINE
  5
382
  8
0
  6
CONTINUOUS
 62
     3
 10
-84.63241830070665
 20
26.09832066289692
 30
0.0
 11
-75.13241830070665
 21
26.09832066289692
 31
0.0
  0
LINE
  5
383
  8
0
  6
CONTINUOUS
 62
     3
 10
-75.13241830070665
 20
26.09832066289692
 30
0.0
 11
-74.63241830070665
 21
25.59832066289692
 31
0.0
  0
LINE
  5
384
  8
0
  6
CONTINUOUS
 62
     3
 10
-96.33243734737066
 20
151.7983906864335
 30
0.0
 11
-102.9324129333081
 21
151.7983906864335
 31
0.0
  0
LINE
  5
385
  8
0
  6
CONTINUOUS
 62
     3
 10
-97.23246176143316
 20
154.0983784794023
 30
0.0
 11
-102.0324495544019
 21
154.0983784794023
 31
0.0
  0
ARC
  5
386
  8
0
  6
CONTINUOUS
 62
     3
 10
-99.63242514033941
 20
153.6205037235429
 30
0.0
 40
1.200000047683716
 50
23.46796137491541
 51
156.5320077755478
  0
LINE
  5
387
  8
0
  6
CONTINUOUS
 62
     3
 10
-97.23234226609479
 20
154.098464199187
 30
0.0
 11
-96.33234216577334
 21
151.7984639509884
 31
0.0
  0
LINE
  5
388
  8
0
  6
CONTINUOUS
 62
     3
 10
-102.9323760885573
 20
151.7983940681977
 30
0.0
 11
-102.0323762826611
 21
154.0983944636089
 31
0.0
  0
ARC
  5
389
  8
0
  6
CONTINUOUS
 62
     3
 10
-99.63242514033941
 20
151.7983906864335
 30
0.0
 40
3.299999952316284
 50
179.9999776881997
 51
197.6396788801879
  0
ARC
  5
38A
  8
0
  6
CONTINUOUS
 62
     3
 10
-99.63242514033941
 20
151.7983906864335
 30
0.0
 40
3.299999952316284
 50
342.3602834400861
 51
359.9999710095899
  0
ARC
  5
38B
  8
0
  6
CONTINUOUS
 62
     3
 10
-93.83646566768316
 20
149.3938496708085
 30
0.0
 40
3.0
 50
152.1068511557016
 51
216.7619682541759
  0
LINE
  5
38C
  8
0
  6
CONTINUOUS
 62
     3
 10
-97.01938803096441
 20
150.7983906864335
 30
0.0
 11
-102.3113802184644
 21
150.7983906864335
 31
0.0
  0
LINE
  5
38D
  8
0
  6
CONTINUOUS
 62
     3
 10
-101.6324251403394
 20
146.8344700931718
 30
0.0
 11
-101.6324251403394
 21
145.362332642
 31
0.0
  0
LINE
  5
38E
  8
0
  6
CONTINUOUS
 62
     3
 10
-97.63242514033941
 20
146.8344700931718
 30
0.0
 11
-97.63242514033941
 21
145.362332642
 31
0.0
  0
LINE
  5
38F
  8
0
  6
CONTINUOUS
 62
     3
 10
-96.23984701533941
 20
147.5983861087968
 30
0.0
 11
-103.0250643004956
 21
147.5983861087968
 31
0.0
  0
LINE
  5
390
  8
0
  6
CONTINUOUS
 62
     3
 10
-95.68241293330816
 20
146.9753087162187
 30
0.0
 11
-95.68241293330816
 21
145.2890904545
 31
0.0
  0
LINE
  5
391
  8
0
  6
CONTINUOUS
 62
     3
 10
-103.5824373473706
 20
146.9753087162187
 30
0.0
 11
-103.5824373473706
 21
145.2890599369218
 31
0.0
  0
ARC
  5
392
  8
0
  6
CONTINUOUS
 62
     3
 10
-96.63242514033941
 20
145.6012852787187
 30
0.0
 40
1.0
 50
179.9999776881997
 51
341.8082382956906
  0
ARC
  5
393
  8
0
  6
CONTINUOUS
 62
     3
 10
-102.6324251403394
 20
145.6012852787187
 30
0.0
 40
1.0
 50
198.1988974307592
 51
359.9999710095899
  0
ARC
  5
394
  8
0
  6
CONTINUOUS
 62
     3
 10
-102.6324251403394
 20
146.6630528568437
 30
0.0
 40
1.0
 50
110.7154403325607
 51
161.805091399716
  0
ARC
  5
395
  8
0
  6
CONTINUOUS
 62
     3
 10
-102.6324251403394
 20
146.6630528568437
 30
0.0
 40
1.0
 50
359.9999710095899
 51
69.28452369526056
  0
ARC
  5
396
  8
0
  6
CONTINUOUS
 62
     3
 10
-96.63242514033941
 20
146.6630528568437
 30
0.0
 40
1.0
 50
18.19486409036881
 51
69.28452369526056
  0
ARC
  5
397
  8
0
  6
CONTINUOUS
 62
     3
 10
-96.63242514033941
 20
146.6630528568437
 30
0.0
 40
1.0
 50
110.7154403325607
 51
179.9999776881997
  0
ARC
  5
398
  8
0
  6
CONTINUOUS
 62
     3
 10
-105.4284456481519
 20
149.3938801883867
 30
0.0
 40
3.0
 50
323.2379957736454
 51
27.88981901339249
  0
ARC
  5
399
  8
0
  6
CONTINUOUS
 62
     3
 10
-99.63242514033941
 20
147.5983861087968
 30
0.0
 40
3.0
 50
228.1896706800166
 51
269.9999701747652
  0
ARC
  5
39A
  8
0
  6
CONTINUOUS
 62
     3
 10
-99.63242514033941
 20
144.5983861087968
 30
0.0
 40
3.0
 50
48.18968934935128
 51
131.81027467847
  0
ARC
  5
39B
  8
0
  6
CONTINUOUS
 62
     3
 10
-99.63242514033941
 20
147.5983861087968
 30
0.0
 40
3.0
 50
269.9999906653327
 51
311.8103038204596
  0
LINE
  5
39C
  8
0
  6
CONTINUOUS
 62
     3
 10
-102.1824129333081
 20
134.4851430057695
 30
0.0
 11
-102.1824129333081
 21
144.5983861087968
 31
0.0
  0
LINE
  5
39D
  8
0
  6
CONTINUOUS
 62
     3
 10
-102.6324251403394
 20
137.485135376375
 30
0.0
 11
-96.63242514033941
 21
137.485135376375
 31
0.0
  0
LINE
  5
39E
  8
0
  6
CONTINUOUS
 62
     3
 10
-97.08237631221441
 20
134.4851430057695
 30
0.0
 11
-97.08237631221441
 21
144.5983861087968
 31
0.0
  0
LINE
  5
39F
  8
0
  6
CONTINUOUS
 62
     3
 10
-102.1824129333081
 20
134.4851430057695
 30
0.0
 11
-97.08237631221441
 21
134.4851430057695
 31
0.0
  0
LINE
  5
3A0
  8
0
  6
CONTINUOUS
 62
     3
 10
-101.1324251403394
 20
127.8629364949294
 30
0.0
 11
-101.1324251403394
 21
134.4851430057695
 31
0.0
  0
LINE
  5
3A1
  8
0
  6
CONTINUOUS
 62
     3
 10
-98.13242514033941
 20
127.8629364949294
 30
0.0
 11
-98.13242514033941
 21
134.4851430057695
 31
0.0
  0
LINE
  5
3A2
  8
0
  6
CONTINUOUS
 62
     3
 10
-107.6328935278181
 20
144.5983250736406
 30
0.0
 11
-107.6328935278181
 21
154.598073303621
 31
0.0
  0
LINE
  5
3A3
  8
0
  6
CONTINUOUS
 62
     3
 10
-91.63195675286072
 20
144.5983250736406
 30
0.0
 11
-107.6328935278181
 21
144.5983250736406
 31
0.0
  0
LINE
  5
3A4
  8
0
  6
CONTINUOUS
 62
     3
 10
-119.1324247380082
 20
154.5983250736406
 30
0.0
 11
-101.421060236459
 21
154.5983250736406
 31
0.0
  0
LINE
  5
3A5
  8
0
  6
CONTINUOUS
 62
     3
 10
-97.66124482183336
 20
154.5983250736406
 30
0.0
 11
-72.6324259897056
 21
154.5983250736406
 31
0.0
  0
LINE
  5
3A6
  8
0
  6
CONTINUOUS
 62
     3
 10
-117.6323246760577
 20
83.59833714890605
 30
0.0
 11
-111.6323100973974
 21
77.59832257024554
 31
0.0
  0
LINE
  5
3A7
  8
0
  6
CONTINUOUS
 62
     3
 10
-208.6324157792436
 20
149.0983347742959
 30
0.0
 11
-201.6323704052089
 21
149.0983347742959
 31
0.0
  0
LINE
  5
3A8
  8
0
  6
CONTINUOUS
 62
     3
 10
-208.6323713577995
 20
149.0983355340476
 30
0.0
 11
-209.6324004906524
 21
148.0983064011946
 31
0.0
  0
LINE
  5
3A9
  8
0
  6
CONTINUOUS
 62
     3
 10
-91.63195675286072
 20
144.5983250736406
 30
0.0
 11
-91.63195675286072
 21
154.598073303621
 31
0.0
  0
LINE
  5
3AA
  8
0
  6
CONTINUOUS
 62
     3
 10
-174.6324035424103
 20
-10.07668016337239
 30
0.0
 11
-174.6324035424103
 21
-30.07668016337239
 31
0.0
  0
LINE
  5
3AB
  8
0
  6
CONTINUOUS
 62
     3
 10
-74.63242656565687
 20
-58.90168445174717
 30
0.0
 11
-76.63241824726322
 21
-60.90167613335346
 31
0.0
  0
LINE
  5
3AC
  8
0
  6
CONTINUOUS
 62
     3
 10
-176.6324322748283
 20
-60.90167613335345
 30
0.0
 11
-76.63241824726322
 21
-60.90167613335346
 31
0.0
  0
LINE
  5
3AD
  8
0
  6
CONTINUOUS
 62
     3
 10
-208.6323700028774
 20
-55.9017125219878
 30
0.0
 11
-201.6323704052089
 21
-55.9017125219878
 31
0.0
  0
LINE
  5
3AE
  8
0
  6
CONTINUOUS
 62
     3
 10
-208.6323713577995
 20
-55.90169039355646
 30
0.0
 11
-209.6324004906524
 21
-54.90166126070346
 31
0.0
  0
LINE
  5
3AF
  8
0
  6
CONTINUOUS
 62
     3
 10
-82.43241803248574
 20
91.59832695118682
 30
0.0
 11
-82.43241803248574
 21
80.55449675703274
 31
0.0
  0
LINE
  5
3B0
  8
0
  6
CONTINUOUS
 62
     3
 10
-82.43241803248574
 20
78.05449675703274
 30
0.0
 11
-82.43241803248574
 21
76.59832355372218
 31
0.0
  0
LINE
  5
3B1
  8
0
  6
CONTINUOUS
 62
     3
 10
-71.63241839011361
 20
144.098325386565
 30
0.0
 11
-71.63241839011361
 21
139.09831787638
 31
0.0
  0
LINE
  5
3B2
  8
0
  6
CONTINUOUS
 62
     3
 10
-86.63241794307878
 20
139.09831787638
 30
0.0
 11
-63.6324262579265
 21
139.09831787638
 31
0.0
  0
LINE
  5
3B3
  8
0
  6
CONTINUOUS
 62
     3
 10
-83.63241803248575
 20
139.09831787638
 30
0.0
 11
-83.63241803248575
 21
129.0983182340078
 31
0.0
  0
LINE
  5
3B4
  8
0
  6
CONTINUOUS
 62
     3
 10
-86.63241794307878
 20
129.0983182340078
 30
0.0
 11
-63.6324262579265
 21
129.0983182340078
 31
0.0
  0
LINE
  5
3B5
  8
0
  6
CONTINUOUS
 62
     3
 10
-63.6324262579265
 20
142.098317786973
 30
0.0
 11
-63.6324262579265
 21
126.0983183234147
 31
0.0
  0
LINE
  5
3B6
  8
0
  6
CONTINUOUS
 62
     3
 10
-71.63241839011361
 20
129.0983182340078
 30
0.0
 11
-71.63241839011361
 21
109.0983187704496
 31
0.0
  0
LINE
  5
3B7
  8
0
  6
CONTINUOUS
 62
     3
 10
-86.63241794307878
 20
109.0983187704496
 30
0.0
 11
-63.6324262579265
 21
109.0983187704496
 31
0.0
  0
LINE
  5
3B8
  8
0
  6
CONTINUOUS
 62
     3
 10
-83.63241803248575
 20
109.0983187704496
 30
0.0
 11
-83.63241803248575
 21
99.09831912807742
 31
0.0
  0
LINE
  5
3B9
  8
0
  6
CONTINUOUS
 62
     3
 10
-63.6324262579265
 20
112.0983186810426
 30
0.0
 11
-63.6324262579265
 21
96.09831921748439
 31
0.0
  0
LINE
  5
3BA
  8
0
  6
CONTINUOUS
 62
     3
 10
-86.63241794307878
 20
99.09831912807742
 30
0.0
 11
-63.6324262579265
 21
99.09831912807742
 31
0.0
  0
LINE
  5
3BB
  8
0
  6
CONTINUOUS
 62
     3
 10
-71.63241839011361
 20
99.09831912807742
 30
0.0
 11
-71.63241839011361
 21
94.09832306198386
 31
0.0
  0
LINE
  5
3BC
  8
0
  6
CONTINUOUS
 62
     3
 10
103.2949070750152
 20
151.7849582677162
 30
0.0
 11
113.7949117367509
 21
154.5984260609324
 31
0.0
  0
LINE
  5
3BD
  8
0
  6
CONTINUOUS
 62
     3
 10
103.2949160703331
 20
151.7849720761151
 30
0.0
 11
103.2949160703331
 21
150.3878885053066
 31
0.0
  0
LINE
  5
3BE
  8
0
  6
CONTINUOUS
 62
     3
 10
113.794910035363
 20
154.5984332959784
 30
0.0
 11
130.2132262296279
 21
154.5984332959784
 31
0.0
  0
ARC
  5
3BF
  8
0
  6
CONTINUOUS
 62
     3
 10
131.2949056991253
 20
96.34824811180316
 30
0.0
 40
9.749999709427366
 50
209.1540837273528
 51
270.0
  0
LINE
  5
3C0
  8
0
  6
CONTINUOUS
 62
     3
 10
111.2949082025202
 20
91.79406055359196
 30
0.0
 11
124.2953081875538
 21
91.79406055359196
 31
0.0
  0
LINE
  5
3C1
  8
0
  6
CONTINUOUS
 62
     3
 10
125.7449218862562
 20
94.09843128432168
 30
0.0
 11
136.8449238442687
 21
94.09843128432168
 31
0.0
  0
LINE
  5
3C2
  8
0
  6
CONTINUOUS
 62
     3
 10
124.2949162396335
 20
95.5484318060778
 30
0.0
 11
125.744916117286
 21
94.09843192842537
 31
0.0
  0
LINE
  5
3C3
  8
0
  6
CONTINUOUS
 62
     3
 10
138.2949145002646
 20
95.5484318060778
 30
0.0
 11
136.8449065304176
 21
94.09842383623082
 31
0.0
  0
ARC
  5
3C4
  8
0
  6
CONTINUOUS
 62
     3
 10
131.2949056991253
 20
96.34824811180316
 30
0.0
 40
9.749999709427366
 50
270.0
 51
330.84591809388
  0
LINE
  5
3C5
  8
0
  6
CONTINUOUS
 62
     3
 10
124.2953081875538
 20
130.0297551806731
 30
0.0
 11
124.2953081875538
 21
107.7757373105505
 31
0.0
  0
LINE
  5
3C6
  8
0
  6
CONTINUOUS
 62
     3
 10
124.2953081875538
 20
100.0297560747427
 30
0.0
 11
124.2953081875538
 21
91.79406055359196
 31
0.0
  0
LINE
  5
3C7
  8
0
  6
CONTINUOUS
 62
     3
 10
138.2953058629728
 20
91.79406055359196
 30
0.0
 11
151.2949031957303
 21
91.79406055359196
 31
0.0
  0
LINE
  5
3C8
  8
0
  6
CONTINUOUS
 62
     3
 10
138.2953058629728
 20
130.0297655226468
 30
0.0
 11
138.2953058629728
 21
107.7757269685767
 31
0.0
  0
LINE
  5
3C9
  8
0
  6
CONTINUOUS
 62
     3
 10
138.2953058629728
 20
100.0297664167165
 30
0.0
 11
138.2953058629728
 21
91.79406055359196
 31
0.0
  0
LINE
  5
3CA
  8
0
  6
CONTINUOUS
 62
     3
 10
124.2949097224387
 20
144.0984336089028
 30
0.0
 11
138.2949073978576
 21
144.0984336089028
 31
0.0
  0
LINE
  5
3CB
  8
0
  6
CONTINUOUS
 62
     3
 10
134.6083640694591
 20
151.798407356037
 30
0.0
 11
128.0083884835216
 21
151.798407356037
 31
0.0
  0
LINE
  5
3CC
  8
0
  6
CONTINUOUS
 62
     3
 10
133.7084006905528
 20
154.0983951490057
 30
0.0
 11
128.9084128975841
 21
154.0983951490057
 31
0.0
  0
ARC
  5
3CD
  8
0
  6
CONTINUOUS
 62
     3
 10
131.3084373116466
 20
153.6205203931464
 30
0.0
 40
1.200000047683716
 50
23.46796137491541
 51
156.5320077755478
  0
LINE
  5
3CE
  8
0
  6
CONTINUOUS
 62
     3
 10
128.0084394419513
 20
151.7984126930192
 30
0.0
 11
128.9084392478475
 21
154.0984130884304
 31
0.0
  0
LINE
  5
3CF
  8
0
  6
CONTINUOUS
 62
     3
 10
133.7085102443383
 20
154.0984897741278
 30
0.0
 11
134.6085103446597
 21
151.7984895259293
 31
0.0
  0
LINE
  5
3D0
  8
0
  6
CONTINUOUS
 62
     3
 10
133.9214744210216
 20
150.798407356037
 30
0.0
 11
128.6294822335216
 21
150.798407356037
 31
0.0
  0
ARC
  5
3D1
  8
0
  6
CONTINUOUS
 62
     3
 10
131.3084373116466
 20
151.798407356037
 30
0.0
 40
3.299999952316284
 50
342.3602834400861
 51
359.9999710095899
  0
ARC
  5
3D2
  8
0
  6
CONTINUOUS
 62
     3
 10
137.1043967843028
 20
149.393866340412
 30
0.0
 40
3.0
 50
152.1068511557016
 51
216.7619682541759
  0
LINE
  5
3D3
  8
0
  6
CONTINUOUS
 62
     3
 10
134.7010154366466
 20
147.5984027784003
 30
0.0
 11
127.9157981514903
 21
147.5984027784003
 31
0.0
  0
ARC
  5
3D4
  8
0
  6
CONTINUOUS
 62
     3
 10
125.5124168038341
 20
149.3938968579901
 30
0.0
 40
3.0
 50
323.2379957736454
 51
27.88981901339249
  0
ARC
  5
3D5
  8
0
  6
CONTINUOUS
 62
     3
 10
128.3084373116466
 20
146.6630695264471
 30
0.0
 40
1.0
 50
110.7154403325607
 51
161.805091399716
  0
ARC
  5
3D6
  8
0
  6
CONTINUOUS
 62
     3
 10
128.3084373116466
 20
146.6630695264471
 30
0.0
 40
1.0
 50
359.9999710095899
 51
69.28452369526056
  0
ARC
  5
3D7
  8
0
  6
CONTINUOUS
 62
     3
 10
131.3084373116466
 20
151.798407356037
 30
0.0
 40
3.299999952316284
 50
179.9999776881997
 51
197.6396788801879
  0
LINE
  5
3D8
  8
0
  6
CONTINUOUS
 62
     3
 10
127.3584251046153
 20
146.9753253858221
 30
0.0
 11
127.3584251046153
 21
145.2890766065253
 31
0.0
  0
ARC
  5
3D9
  8
0
  6
CONTINUOUS
 62
     3
 10
128.3084373116466
 20
145.6013019483221
 30
0.0
 40
1.0
 50
198.1988974307592
 51
359.9999710095899
  0
LINE
  5
3DA
  8
0
  6
CONTINUOUS
 62
     3
 10
129.3084373116466
 20
146.8344867627753
 30
0.0
 11
129.3084373116466
 21
145.3623493116034
 31
0.0
  0
ARC
  5
3DB
  8
0
  6
CONTINUOUS
 62
     3
 10
131.3084373116466
 20
144.5984027784003
 30
0.0
 40
3.0
 50
48.18968934935128
 51
131.81027467847
  0
ARC
  5
3DC
  8
0
  6
CONTINUOUS
 62
     3
 10
131.3084373116466
 20
147.5984027784003
 30
0.0
 40
3.0
 50
228.1896706800166
 51
269.9999701747652
  0
LINE
  5
3DD
  8
0
  6
CONTINUOUS
 62
     3
 10
135.2583884835216
 20
146.9753253858221
 30
0.0
 11
135.2583884835216
 21
145.2891071241034
 31
0.0
  0
LINE
  5
3DE
  8
0
  6
CONTINUOUS
 62
     3
 10
133.3084373116466
 20
146.8344867627753
 30
0.0
 11
133.3084373116466
 21
145.3623493116034
 31
0.0
  0
ARC
  5
3DF
  8
0
  6
CONTINUOUS
 62
     3
 10
134.3084373116466
 20
146.6630695264471
 30
0.0
 40
1.0
 50
110.7154403325607
 51
179.9999776881997
  0
ARC
  5
3E0
  8
0
  6
CONTINUOUS
 62
     3
 10
131.3084373116466
 20
147.5984027784003
 30
0.0
 40
3.0
 50
269.9999906653327
 51
311.8103038204596
  0
ARC
  5
3E1
  8
0
  6
CONTINUOUS
 62
     3
 10
134.3084373116466
 20
146.6630695264471
 30
0.0
 40
1.0
 50
18.19486409036881
 51
69.28452369526056
  0
ARC
  5
3E2
  8
0
  6
CONTINUOUS
 62
     3
 10
134.3084373116466
 20
145.6013019483221
 30
0.0
 40
1.0
 50
179.9999776881997
 51
341.8082382956906
  0
LINE
  5
3E3
  8
0
  6
CONTINUOUS
 62
     3
 10
132.5254301494966
 20
154.5984332959784
 30
0.0
 11
148.7949242510704
 21
154.5984332959784
 31
0.0
  0
LINE
  5
3E4
  8
0
  6
CONTINUOUS
 62
     3
 10
124.2953081875538
 20
154.4027528170237
 30
0.0
 11
124.2953081875538
 21
137.7757364164809
 31
0.0
  0
LINE
  5
3E5
  8
0
  6
CONTINUOUS
 62
     3
 10
138.2953058629728
 20
154.4027528170237
 30
0.0
 11
138.2953058629728
 21
137.7757260745071
 31
0.0
  0
LINE
  5
3E6
  8
0
  6
CONTINUOUS
 62
     3
 10
159.2949105981818
 20
151.7849687576616
 30
0.0
 11
148.7949169905894
 21
154.5984335889289
 31
0.0
  0
LINE
  5
3E7
  8
0
  6
CONTINUOUS
 62
     3
 10
159.2949067720089
 20
151.7849720761151
 30
0.0
 11
159.2949067720089
 21
150.3878773911893
 31
0.0
  0
LINE
  5
3E8
  8
0
  6
CONTINUOUS
 62
     3
 10
54.20051263525767
 20
-30.24365128172941
 30
0.0
 11
46.5139757227353
 21
-22.55711440141933
 31
0.0
  0
LINE
  5
3E9
  8
0
  6
CONTINUOUS
 62
     3
 10
54.20049617917445
 20
-30.24365039575507
 30
0.0
 11
55.41040604270449
 21
-29.54510861035082
 31
0.0
  0
LINE
  5
3EA
  8
0
  6
CONTINUOUS
 62
     3
 10
46.51397030769556
 20
-22.55711949238747
 30
0.0
 11
38.30481221056311
 21
-8.338440580788628
 31
0.0
  0
ARC
  5
3EB
  8
0
  6
CONTINUOUS
 62
     3
 10
88.21011262045812
 20
21.72341391063574
 30
0.0
 40
9.749999709427364
 50
327.8410433205198
 51
29.99999999999997
  0
LINE
  5
3EC
  8
0
  6
CONTINUOUS
 62
     3
 10
92.93350305335335
 20
18.04189535183944
 30
0.0
 11
87.38350207434709
 21
27.65477902953529
 31
0.0
  0
LINE
  5
3ED
  8
0
  6
CONTINUOUS
 62
     3
 10
92.40276858932322
 20
16.06115336535525
 30
0.0
 11
92.93350538002827
 21
18.0418900337129
 31
0.0
  0
LINE
  5
3EE
  8
0
  6
CONTINUOUS
 62
     3
 10
85.40276945900769
 20
28.1855075119997
 30
0.0
 11
87.38351718150852
 21
27.65476775934582
 31
0.0
  0
ARC
  5
3EF
  8
0
  6
CONTINUOUS
 62
     3
 10
88.21011262045812
 20
21.72341391063574
 30
0.0
 40
9.749999709427364
 50
29.99999999999999
 51
92.15403261603329
  0
LINE
  5
3F0
  8
0
  6
CONTINUOUS
 62
     3
 10
88.6533130051613
 20
30.06414344281819
 30
0.0
 11
82.15415599116554
 21
41.32101359742647
 31
0.0
  0
LINE
  5
3F1
  8
0
  6
CONTINUOUS
 62
     3
 10
50.3572369328939
 20
-8.213853180113517
 30
0.0
 11
43.35723809518441
 21
3.9105004597224
 31
0.0
  0
LINE
  5
3F2
  8
0
  6
CONTINUOUS
 62
     3
 10
38.53213688589219
 20
-3.132126588389895
 30
0.0
 11
41.83212467886094
 21
-8.847873110168862
 31
0.0
  0
LINE
  5
3F3
  8
0
  6
CONTINUOUS
 62
     3
 10
36.99027071824028
 20
-5.061511633482766
 30
0.0
 11
39.39026461472466
 21
-9.218423000048901
 31
0.0
  0
ARC
  5
3F4
  8
0
  6
CONTINUOUS
 62
     3
 10
38.60410408609491
 20
-6.901003509838233
 30
0.0
 40
1.200000047683716
 50
143.4679613749154
 51
276.5320077755478
  0
LINE
  5
3F5
  8
0
  6
CONTINUOUS
 62
     3
 10
41.8320945776839
 20
-8.847831647365297
 30
0.0
 11
39.39023590359548
 21
-9.21840914976373
 31
0.0
  0
LINE
  5
3F6
  8
0
  6
CONTINUOUS
 62
     3
 10
36.99013399358799
 20
-5.061464069682501
 30
0.0
 11
38.53199258707772
 21
-3.132040995296293
 31
0.0
  0
LINE
  5
3F7
  8
0
  6
CONTINUOUS
 62
     3
 10
39.74160711389538
 20
-3.226990473533334
 30
0.0
 11
42.38760320764538
 21
-7.80999014453711
 31
0.0
  0
ARC
  5
3F8
  8
0
  6
CONTINUOUS
 62
     3
 10
40.18210026479844
 20
-5.989946991283546
 30
0.0
 40
3.299999952316284
 50
102.3602834400861
 51
119.9999710095899
  0
ARC
  5
3F9
  8
0
  6
CONTINUOUS
 62
     3
 10
39.3665141324432
 20
0.2317716591543331
 30
0.0
 40
3.0
 50
272.1068511557016
 51
336.7619682541758
  0
LINE
  5
3FA
  8
0
  6
CONTINUOUS
 62
     3
 10
42.12312186254277
 20
-0.951885861891796
 30
0.0
 11
45.5157305051209
 21
-6.828056401034402
 31
0.0
  0
ARC
  5
3FB
  8
0
  6
CONTINUOUS
 62
     3
 10
45.16247769367968
 20
-9.807192742881313
 30
0.0
 40
3.0
 50
83.23799577364542
 51
147.8898190133925
  0
ARC
  5
3FC
  8
0
  6
CONTINUOUS
 62
     3
 10
46.12943328223849
 20
-6.02035428784194
 30
0.0
 40
0.9999999999999999
 50
230.7154403325607
 51
281.805091399716
  0
ARC
  5
3FD
  8
0
  6
CONTINUOUS
 62
     3
 10
46.12943328223849
 20
-6.02035428784194
 30
0.0
 40
0.9999999999999999
 50
119.9999710095899
 51
189.2845236952606
  0
ARC
  5
3FE
  8
0
  6
CONTINUOUS
 62
     3
 10
40.18210026479844
 20
-5.989946991283546
 30
0.0
 40
3.299999952316284
 50
299.9999776881996
 51
317.6396788801879
  0
LINE
  5
3FF
  8
0
  6
CONTINUOUS
 62
     3
 10
46.33401787905484
 20
-6.999216922723818
 30
0.0
 11
47.7943521590264
 21
-6.15609253307538
 31
0.0
  0
ARC
  5
400
  8
0
  6
CONTINUOUS
 62
     3
 10
47.04895097780943
 20
-5.48947049877944
 30
0.0
 40
0.9999999999999999
 50
318.1988974307592
 51
119.9999710095899
  0
LINE
  5
401
  8
0
  6
CONTINUOUS
 62
     3
 10
45.48098160093181
 20
-5.240037502221554
 30
0.0
 11
46.75589003150913
 21
-4.503968776635617
 31
0.0
  0
ARC
  5
402
  8
0
  6
CONTINUOUS
 62
     3
 10
46.41748713639609
 20
-2.389944702465186
 30
0.0
 40
3.0
 50
168.1896893493513
 51
251.81027467847
  0
ARC
  5
403
  8
0
  6
CONTINUOUS
 62
     3
 10
43.81941092504277
 20
-3.889944702465186
 30
0.0
 40
3.0
 50
348.1896706800165
 51
29.99997017476512
  0
LINE
  5
404
  8
0
  6
CONTINUOUS
 62
     3
 10
42.38403618960172
 20
-0.1576479476242554
 30
0.0
 11
43.84434404057538
 21
0.6854611832351196
 31
0.0
  0
LINE
  5
405
  8
0
  6
CONTINUOUS
 62
     3
 10
43.48098160093181
 20
-1.775935887083804
 30
0.0
 11
44.75589003150913
 21
-1.039867161497867
 31
0.0
  0
ARC
  5
406
  8
0
  6
CONTINUOUS
 62
     3
 10
43.12943328223849
 20
-0.8242018651353078
 30
0.0
 40
0.9999999999999999
 50
230.7154403325607
 51
299.9999776881996
  0
ARC
  5
407
  8
0
  6
CONTINUOUS
 62
     3
 10
43.81941092504277
 20
-3.889944702465186
 30
0.0
 40
3.0
 50
29.99999066533265
 51
71.81030382045954
  0
ARC
  5
408
  8
0
  6
CONTINUOUS
 62
     3
 10
43.12943328223849
 20
-0.8242018651353078
 30
0.0
 40
0.9999999999999999
 50
138.1948640903688
 51
189.2845236952606
  0
ARC
  5
409
  8
0
  6
CONTINUOUS
 62
     3
 10
44.04895097780943
 20
-0.2933180760728078
 30
0.0
 40
0.9999999999999999
 50
299.9999776881996
 51
101.8082382956906
  0
LINE
  5
40A
  8
0
  6
CONTINUOUS
 62
     3
 10
37.14871025062877
 20
-6.336013247452385
 30
0.0
 11
29.0139631998419
 21
7.753781951231574
 31
0.0
  0
LINE
  5
40B
  8
0
  6
CONTINUOUS
 62
     3
 10
26.20050178911518
 20
18.25376913637821
 30
0.0
 11
29.01396657637977
 21
7.753775516995333
 31
0.0
  0
LINE
  5
40C
  8
0
  6
CONTINUOUS
 62
     3
 10
26.20050082833657
 20
18.25376416358849
 30
0.0
 11
27.41042031697458
 21
18.9523115060514
 31
0.0
  0
LINE
  5
40D
  8
0
  6
CONTINUOUS
 62
     3
 10
236.389109940515
 20
18.25366072474984
 30
0.0
 11
233.5756421913017
 21
7.753656051223615
 31
0.0
  0
LINE
  5
40E
  8
0
  6
CONTINUOUS
 62
     3
 10
236.3891174012803
 20
18.25364603037655
 30
0.0
 11
235.1792075377503
 21
18.95218781578081
 31
0.0
  0
LINE
  5
40F
  8
0
  6
CONTINUOUS
 62
     3
 10
233.5756493077293
 20
7.753653907145711
 30
0.0
 11
225.3664912105968
 21
-6.465025004453125
 31
0.0
  0
ARC
  5
410
  8
0
  6
CONTINUOUS
 62
     3
 10
174.3795113312045
 20
21.72330568829773
 30
0.0
 40
9.749999709427362
 50
89.1540837273528
 51
150.0
  0
LINE
  5
411
  8
0
  6
CONTINUOUS
 62
     3
 10
175.2061047111783
 20
27.65464107457554
 30
0.0
 11
169.6561037321721
 21
18.04175739687968
 31
0.0
  0
LINE
  5
412
  8
0
  6
CONTINUOUS
 62
     3
 10
177.1868448218312
 20
28.18538253930362
 30
0.0
 11
175.2061081534736
 21
27.65464574859838
 31
0.0
  0
LINE
  5
413
  8
0
  6
CONTINUOUS
 62
     3
 10
170.1868456915157
 20
16.06102839265916
 30
0.0
 11
169.6561059388618
 21
18.04177611516
 31
0.0
  0
ARC
  5
414
  8
0
  6
CONTINUOUS
 62
     3
 10
174.3795113312045
 20
21.72330568829773
 30
0.0
 40
9.749999709427362
 50
150.0
 51
210.84591809388
  0
LINE
  5
415
  8
0
  6
CONTINUOUS
 62
     3
 10
219.2323829954553
 20
3.910387281947393
 30
0.0
 11
212.2323841577458
 21
-8.213966357888523
 31
0.0
  0
LINE
  5
416
  8
0
  6
CONTINUOUS
 62
     3
 10
220.7440286954366
 20
-8.87131305691046
 30
0.0
 11
224.0440164884054
 21
-3.155566535131499
 31
0.0
  0
LINE
  5
417
  8
0
  6
CONTINUOUS
 62
     3
 10
223.1858582419948
 20
-9.24191580478633
 30
0.0
 11
225.5858521384791
 21
-5.085004438220196
 31
0.0
  0
ARC
  5
418
  8
0
  6
CONTINUOUS
 62
     3
 10
223.9719882530464
 20
-6.924549172571496
 30
0.0
 40
1.200000047683715
 50
263.4679613749154
 51
36.53200777554777
  0
LINE
  5
419
  8
0
  6
CONTINUOUS
 62
     3
 10
224.0439956311527
 20
-3.155613334917277
 30
0.0
 11
225.5858544993449
 21
-5.085036227930019
 31
0.0
  0
LINE
  5
41A
  8
0
  6
CONTINUOUS
 62
     3
 10
223.1858854128616
 20
-9.242057993708677
 30
0.0
 11
220.7440267190504
 21
-8.87148081989632
 31
0.0
  0
LINE
  5
41B
  8
0
  6
CONTINUOUS
 62
     3
 10
220.2214481158709
 20
-7.776449171767013
 30
0.0
 11
222.8674442096209
 21
-3.193449500763236
 31
0.0
  0
ARC
  5
41C
  8
0
  6
CONTINUOUS
 62
     3
 10
222.3939920743429
 20
-6.013492654016815
 30
0.0
 40
3.299999952316283
 50
222.3602834400861
 51
239.9999710095899
  0
ARC
  5
41D
  8
0
  6
CONTINUOUS
 62
     3
 10
217.4136187340418
 20
-9.830670288829687
 30
0.0
 40
2.999999999999999
 50
32.10685115570155
 51
96.76196825417584
  0
LINE
  5
41E
  8
0
  6
CONTINUOUS
 62
     3
 10
217.0603923515985
 20
-6.851549205771832
 30
0.0
 11
220.4530009941766
 21
-0.9753786666292328
 31
0.0
  0
ARC
  5
41F
  8
0
  6
CONTINUOUS
 62
     3
 10
223.2096351532741
 20
0.208263595627848
 30
0.0
 40
2.999999999999999
 50
203.2379957736454
 51
267.8898190133925
  0
ARC
  5
420
  8
0
  6
CONTINUOUS
 62
     3
 10
219.4466590569028
 20
-0.8477475278685631
 30
0.0
 40
0.9999999999999998
 50
350.7154403325607
 51
41.80509139971603
  0
ARC
  5
421
  8
0
  6
CONTINUOUS
 62
     3
 10
219.4466590569028
 20
-0.8477475278685631
 30
0.0
 40
0.9999999999999998
 50
239.9999710095899
 51
309.2845236952605
  0
ARC
  5
422
  8
0
  6
CONTINUOUS
 62
     3
 10
222.3939920743429
 20
-6.013492654016815
 30
0.0
 40
3.299999952316283
 50
59.99997768819963
 51
77.63967888018792
  0
LINE
  5
423
  8
0
  6
CONTINUOUS
 62
     3
 10
220.1920866671177
 20
-0.1811407523616779
 30
0.0
 11
218.7317523871461
 21
0.6619836372867383
 31
0.0
  0
ARC
  5
424
  8
0
  6
CONTINUOUS
 62
     3
 10
218.5271413613319
 20
-0.3168637388060631
 30
0.0
 40
0.9999999999999998
 50
78.19889743075923
 51
239.9999710095899
  0
LINE
  5
425
  8
0
  6
CONTINUOUS
 62
     3
 10
219.0951107382095
 20
-1.799481549817074
 30
0.0
 11
217.8202023076322
 21
-1.063412824231143
 31
0.0
  0
ARC
  5
426
  8
0
  6
CONTINUOUS
 62
     3
 10
216.1586052027452
 20
-2.413490365198449
 30
0.0
 40
2.999999999999999
 50
288.1896893493513
 51
11.81027467847001
  0
ARC
  5
427
  8
0
  6
CONTINUOUS
 62
     3
 10
218.7566814140985
 20
-3.913490365198449
 30
0.0
 40
2.999999999999999
 50
108.1896706800166
 51
149.9999701747651
  0
LINE
  5
428
  8
0
  6
CONTINUOUS
 62
     3
 10
216.2421049776646
 20
-7.02270972746124
 30
0.0
 11
214.7817971266909
 21
-6.179600596601873
 31
0.0
  0
LINE
  5
429
  8
0
  6
CONTINUOUS
 62
     3
 10
217.0951107382095
 20
-5.263583164954831
 30
0.0
 11
215.8202023076322
 21
-4.527514439368893
 31
0.0
  0
ARC
  5
42A
  8
0
  6
CONTINUOUS
 62
     3
 10
216.4466590569028
 20
-6.043899950575202
 30
0.0
 40
0.9999999999999998
 50
350.7154403325607
 51
59.99997768819964
  0
ARC
  5
42B
  8
0
  6
CONTINUOUS
 62
     3
 10
218.7566814140985
 20
-3.913490365198449
 30
0.0
 40
2.999999999999999
 50
149.9999906653327
 51
191.8103038204595
  0
ARC
  5
42C
  8
0
  6
CONTINUOUS
 62
     3
 10
216.4466590569028
 20
-6.043899950575202
 30
0.0
 40
0.9999999999999998
 50
258.1948640903688
 51
309.2845236952605
  0
ARC
  5
42D
  8
0
  6
CONTINUOUS
 62
     3
 10
215.5271413613319
 20
-5.513016161512695
 30
0.0
 40
0.9999999999999998
 50
59.99997768819963
 51
221.8082382956905
  0
LINE
  5
42E
  8
0
  6
CONTINUOUS
 62
     3
 10
224.2103892506625
 20
-8.467452337789368
 30
0.0
 11
216.0756421998756
 21
-22.55724753647332
 31
0.0
  0
LINE
  5
42F
  8
0
  6
CONTINUOUS
 62
     3
 10
208.3891172634909
 20
-30.24377018330317
 30
0.0
 11
216.0756460838187
 21
-22.55724139518762
 31
0.0
  0
LINE
  5
430
  8
0
  6
CONTINUOUS
 62
     3
 10
208.3891220504424
 20
-30.24376852896699
 30
0.0
 11
207.1792025618044
 21
-29.54522118650406
 31
0.0
  0
LINE
  5
431
  8
0
  6
CONTINUOUS
 62
     3
 10
41.43195219263367
 20
-13.36492678690963
 30
0.0
 11
55.83137078464424
 21
-5.051418586638228
 31
0.0
  0
LINE
  5
432
  8
0
  6
CONTINUOUS
 62
     3
 10
62.53958731209138
 20
-1.178427968734333
 30
0.0
 11
81.81213212389042
 21
9.948580966326965
 31
0.0
  0
LINE
  5
433
  8
0
  6
CONTINUOUS
 62
     3
 10
55.53957951796988
 20
10.9459205001147
 30
0.0
 11
74.81214224259293
 21
22.07293977714975
 31
0.0
  0
LINE
  5
434
  8
0
  6
CONTINUOUS
 62
     3
 10
34.43195335492419
 20
-1.240573147073711
 30
0.0
 11
48.83138090334677
 21
7.07294022418457
 31
0.0
  0
LINE
  5
435
  8
0
  6
CONTINUOUS
 62
     3
 10
102.1528701830046
 20
6.680742698408288
 30
0.0
 11
95.65267019048778
 21
17.93941934480622
 31
0.0
  0
LINE
  5
436
  8
0
  6
CONTINUOUS
 62
     3
 10
88.52034865133751
 20
13.82157158423085
 30
0.0
 11
95.65267019048778
 21
17.93941934480622
 31
0.0
  0
LINE
  5
437
  8
0
  6
CONTINUOUS
 62
     3
 10
81.52034085721604
 20
25.94592005307988
 30
0.0
 11
88.6533130051613
 21
30.06414344281819
 31
0.0
  0
LINE
  5
438
  8
0
  6
CONTINUOUS
 62
     3
 10
228.1547026610684
 20
-1.242858319377412
 30
0.0
 11
213.7552840690578
 21
7.070649880893988
 31
0.0
  0
LINE
  5
439
  8
0
  6
CONTINUOUS
 62
     3
 10
207.0470675416107
 20
10.9436404987979
 30
0.0
 11
187.7745227298117
 21
22.07064943385921
 31
0.0
  0
LINE
  5
43A
  8
0
  6
CONTINUOUS
 62
     3
 10
200.0470776603132
 20
-1.180718312024901
 30
0.0
 11
180.7745149356902
 21
9.946300965010174
 31
0.0
  0
LINE
  5
43B
  8
0
  6
CONTINUOUS
 62
     3
 10
221.1547038233589
 20
-13.36721195921332
 30
0.0
 11
206.7552762749363
 21
-5.053698587955026
 31
0.0
  0
LINE
  5
43C
  8
0
  6
CONTINUOUS
 62
     3
 10
180.4341846557311
 20
41.32016445873638
 30
0.0
 11
173.9339846632143
 21
30.06148781233845
 31
0.0
  0
LINE
  5
43D
  8
0
  6
CONTINUOUS
 62
     3
 10
181.0663062023646
 20
25.94364005176309
 30
0.0
 11
173.9339846632143
 21
30.06148781233845
 31
0.0
  0
LINE
  5
43E
  8
0
  6
CONTINUOUS
 62
     3
 10
174.0663163210671
 20
13.81928124094031
 30
0.0
 11
166.9339858255048
 21
17.93713417250255
 31
0.0
  0
LINE
  5
43F
  8
0
  6
CONTINUOUS
 62
     3
 10
160.4351051778327
 20
6.680742698408295
 30
0.0
 11
166.9353051703495
 21
17.93941934480623
 31
0.0
  0
LINE
  5
440
  8
0
  6
CONTINUOUS
 62
     4
 10
144.999722749872
 20
-134.0
 30
0.0
 11
144.999722749872
 21
-142.0
 31
0.0
  0
LINE
  5
441
  8
0
  6
CONTINUOUS
 62
     4
 10
193.999722749872
 20
-134.0
 30
0.0
 11
193.999722749872
 21
-143.0
 31
0.0
  0
LINE
  5
442
  8
0
  6
CONTINUOUS
 62
     4
 10
217.999722749872
 20
-134.0
 30
0.0
 11
217.999722749872
 21
-143.0
 31
0.0
  0
LINE
  5
443
  8
0
  6
CONTINUOUS
 62
     4
 10
234.999722749872
 20
-134.0
 30
0.0
 11
234.999722749872
 21
-143.0
 31
0.0
  0
LINE
  5
444
  8
0
  6
CONTINUOUS
 62
     4
 10
88.99972274987203
 20
-176.0
 30
0.0
 11
137.999722749872
 21
-176.0
 31
0.0
  0
LINE
  5
445
  8
0
  6
CONTINUOUS
 62
     4
 10
137.999722749872
 20
-141.0
 30
0.0
 11
88.99972274987203
 21
-141.0
 31
0.0
  0
LINE
  5
446
  8
0
  6
CONTINUOUS
 62
     4
 10
137.999722749872
 20
-148.0
 30
0.0
 11
88.99972274987203
 21
-148.0
 31
0.0
  0
LINE
  5
447
  8
0
  6
CONTINUOUS
 62
     4
 10
137.999722749872
 20
-155.0
 30
0.0
 11
88.99972274987203
 21
-155.0
 31
0.0
  0
LINE
  5
448
  8
0
  6
CONTINUOUS
 62
     4
 10
137.999722749872
 20
-162.0
 30
0.0
 11
88.99972274987203
 21
-162.0
 31
0.0
  0
LINE
  5
449
  8
0
  6
CONTINUOUS
 62
     4
 10
137.999722749872
 20
-169.0
 30
0.0
 11
88.99972274987203
 21
-169.0
 31
0.0
  0
LINE
  5
44A
  8
0
  6
CONTINUOUS
 62
     4
 10
113.499722749872
 20
-134.0
 30
0.0
 11
113.499722749872
 21
-180.0
 31
0.0
  0
LINE
  5
44B
  8
0
  6
CONTINUOUS
 62
     4
 10
100.999722749872
 20
-134.0
 30
0.0
 11
100.999722749872
 21
-176.0
 31
0.0
  0
LINE
  5
44C
  8
0
  6
CONTINUOUS
 62
     4
 10
96.99972274987203
 20
-134.0
 30
0.0
 11
96.99972274987203
 21
-176.0
 31
0.0
  0
LINE
  5
44D
  8
0
  6
CONTINUOUS
 62
     4
 10
206.3330662557314
 20
-171.4237518310547
 30
0.0
 11
206.3330662557314
 21
-166.0
 31
0.0
  0
LINE
  5
44E
  8
0
  6
CONTINUOUS
 62
     4
 10
192.6663792440127
 20
-180.0
 30
0.0
 11
192.6663792440127
 21
-166.0
 31
0.0
  0
LINE
  5
44F
  8
0
  6
CONTINUOUS
 62
     4
 10
165.3330662557314
 20
-180.0
 30
0.0
 11
165.3330662557314
 21
-166.0
 31
0.0
  0
LINE
  5
450
  8
0
  6
CONTINUOUS
 62
     4
 10
137.999722749872
 20
-170.0
 30
0.0
 11
219.999722749872
 21
-170.0
 31
0.0
  0
LINE
  5
451
  8
0
  6
CONTINUOUS
 62
     4
 10
219.999722749872
 20
-159.0
 30
0.0
 11
246.999722749872
 21
-159.0
 31
0.0
  0
LINE
  5
452
  8
0
  6
CONTINUOUS
 62
     4
 10
193.999722749872
 20
-151.0
 30
0.0
 11
193.999722749872
 21
-152.0
 31
0.0
  0
LINE
  5
453
  8
0
  6
CONTINUOUS
 62
     4
 10
217.999722749872
 20
-151.0
 30
0.0
 11
217.999722749872
 21
-152.0
 31
0.0
  0
LINE
  5
454
  8
0
  6
CONTINUOUS
 62
     4
 10
234.999722749872
 20
-151.0
 30
0.0
 11
234.999722749872
 21
-152.0
 31
0.0
  0
LINE
  5
455
  8
0
  6
CONTINUOUS
 62
     4
 10
246.999722749872
 20
-170.0
 30
0.0
 11
268.999707491083
 21
-170.0
 31
0.0
  0
LINE
  5
456
  8
0
  6
CONTINUOUS
 62
     4
 10
89.99970240363791
 20
-140.5000009669629
 30
0.0
 11
92.99971019531722
 21
-134.4999853836043
 31
0.0
  0
LINE
  5
457
  8
0
  6
CONTINUOUS
 62
     4
 10
92.99972213720844
 20
-134.4999964725033
 30
0.0
 11
95.99971628101207
 21
-140.4999847601106
 31
0.0
  0
LINE
  5
458
  8
0
  6
CONTINUOUS
 62
     4
 10
89.99972274987203
 20
-140.5
 30
0.0
 11
95.99972274987203
 21
-140.5
 31
0.0
  0
LINE
  5
459
  8
0
  6
CONTINUOUS
 62
     4
 10
89.99970240363791
 20
-147.4999964010885
 30
0.0
 11
92.99971019531722
 21
-141.4999808177299
 31
0.0
  0
LINE
  5
45A
  8
0
  6
CONTINUOUS
 62
     4
 10
92.99972213720844
 20
-141.4999919066289
 30
0.0
 11
95.99972310494991
 21
-147.4999938421118
 31
0.0
  0
LINE
  5
45B
  8
0
  6
CONTINUOUS
 62
     4
 10
89.99972274987203
 20
-147.5
 30
0.0
 11
95.99972274987203
 21
-147.5
 31
0.0
  0
LINE
  5
45C
  8
0
  6
CONTINUOUS
 62
     4
 10
89.99970240363791
 20
-154.4999918352141
 30
0.0
 11
92.99969654744154
 21
-148.5000035476069
 31
0.0
  0
LINE
  5
45D
  8
0
  6
CONTINUOUS
 62
     4
 10
92.99969484145709
 20
-148.5000009886302
 30
0.0
 11
95.9997026331364
 21
-154.5000165719888
 31
0.0
  0
LINE
  5
45E
  8
0
  6
CONTINUOUS
 62
     4
 10
89.99972274987203
 20
-154.5
 30
0.0
 11
95.99972274987203
 21
-154.5
 31
0.0
  0
LINE
  5
45F
  8
0
  6
CONTINUOUS
 62
     4
 10
89.99971605151359
 20
-161.5000282129668
 30
0.0
 11
92.9997238431929
 21
-155.5000126296081
 31
0.0
  0
LINE
  5
460
  8
0
  6
CONTINUOUS
 62
     4
 10
92.99970251838715
 20
-155.5000096441353
 30
0.0
 11
95.99971031006646
 21
-161.5000252274939
 31
0.0
  0
LINE
  5
461
  8
0
  6
CONTINUOUS
 62
     4
 10
89.99972274987203
 20
-161.5
 30
0.0
 11
95.99972274987203
 21
-161.5
 31
0.0
  0
LINE
  5
462
  8
0
  6
CONTINUOUS
 62
     4
 10
89.99972969938926
 20
-168.499996351341
 30
0.0
 11
92.9997238431929
 21
-162.5000080637337
 31
0.0
  0
LINE
  5
463
  8
0
  6
CONTINUOUS
 62
     4
 10
92.99973663807634
 20
-162.5000050782609
 30
0.0
 11
95.99973760581781
 21
-168.5000070137439
 31
0.0
  0
LINE
  5
464
  8
0
  6
CONTINUOUS
 62
     4
 10
89.99972274987203
 20
-168.5
 30
0.0
 11
95.99972274987203
 21
-168.5
 31
0.0
  0
LINE
  5
465
  8
0
  6
CONTINUOUS
 62
     4
 10
-72.6324259897056
 20
154.5983250736406
 30
0.0
 11
-72.6324259897056
 21
144.098325386565
 31
0.0
  0
LINE
  5
466
  8
0
  6
CONTINUOUS
 62
     4
 10
-73.63242214520623
 20
154.5983250736406
 30
0.0
 11
-73.63242214520623
 21
144.098325386565
 31
0.0
  0
LINE
  5
467
  8
0
  6
CONTINUOUS
 62
     4
 10
-176.1323314865441
 20
79.79831852905077
 30
0.0
 11
-159.132316734395
 21
79.79831852905077
 31
0.0
  0
LINE
  5
468
  8
0
  6
CONTINUOUS
 62
     4
 10
-176.1323314865441
 20
22.5983204244784
 30
0.0
 11
-160.132324333987
 21
22.5983204244784
 31
0.0
  0
LINE
  5
469
  8
0
  6
CONTINUOUS
 62
     4
 10
-176.1323314865441
 20
70.5983218549898
 30
0.0
 11
-160.132324333987
 21
70.5983218549898
 31
0.0
  0
LINE
  5
46A
  8
0
  6
CONTINUOUS
 62
     4
 10
-176.1323314865441
 20
13.39832088939463
 30
0.0
 11
-171.1323163767671
 21
13.39832088939463
 31
0.0
  0
LINE
  5
46B
  8
0
  6
CONTINUOUS
 62
     4
 10
-72.6324259897056
 20
94.09832306198386
 30
0.0
 11
-72.6324259897056
 21
91.59832695118682
 31
0.0
  0
LINE
  5
46C
  8
0
  6
CONTINUOUS
 62
     4
 10
-73.63242214520623
 20
94.09832306198386
 30
0.0
 11
-73.63242214520623
 21
91.59832695118682
 31
0.0
  0
LINE
  5
46D
  8
0
  6
CONTINUOUS
 62
     4
 10
-167.6323241104696
 20
18.59832149736198
 30
0.0
 11
-167.6323241104696
 21
9.598323196094299
 31
0.0
  0
LINE
  5
46E
  8
0
  6
CONTINUOUS
 62
     4
 10
-170.6323240210626
 20
18.59832149736198
 30
0.0
 11
-170.6323240210626
 21
9.598323196094299
 31
0.0
  0
LINE
  5
46F
  8
0
  6
CONTINUOUS
 62
     4
 10
-167.132331754765
 20
13.39832088939463
 30
0.0
 11
-159.132316734395
 21
13.39832088939463
 31
0.0
  0
LINE
  5
470
  8
0
  6
CONTINUOUS
 62
     4
 10
-102.6323641051831
 20
137.485135376375
 30
0.0
 11
-102.6323641051831
 21
144.5983861087968
 31
0.0
  0
LINE
  5
471
  8
0
  6
CONTINUOUS
 62
     4
 10
-96.63242514033941
 20
137.485135376375
 30
0.0
 11
-96.63242514033941
 21
144.5983861087968
 31
0.0
  0
LINE
  5
472
  8
0
  6
CONTINUOUS
 62
     4
 10
-93.13241830070665
 20
6.598321273844562
 30
0.0
 11
-79.13241830070665
 21
6.598321273844562
 31
0.0
  0
LINE
  5
473
  8
0
  6
CONTINUOUS
 62
     4
 10
-93.13241830070665
 20
1.598321273844562
 30
0.0
 11
-79.13241830070665
 21
1.598321273844562
 31
0.0
  0
LINE
  5
474
  8
0
  6
CONTINUOUS
 62
     4
 10
-86.63241794307878
 20
138.2483308716822
 30
0.0
 11
-63.6324262579265
 21
138.2483308716822
 31
0.0
  0
LINE
  5
475
  8
0
  6
CONTINUOUS
 62
     4
 10
-86.63241794307878
 20
129.9483166827969
 30
0.0
 11
-63.6324262579265
 21
129.9483166827969
 31
0.0
  0
LINE
  5
476
  8
0
  6
CONTINUOUS
 62
     4
 10
-62.63242778280669
 20
130.7889220742661
 30
0.0
 11
-58.63242364076875
 21
133.098325287284
 31
0.0
  0
LINE
  5
477
  8
0
  6
CONTINUOUS
 62
     4
 10
-58.63242799226821
 20
133.0983190017418
 30
0.0
 11
-54.6324387165419
 21
130.788924371792
 31
0.0
  0
LINE
  5
478
  8
0
  6
CONTINUOUS
 62
     4
 10
-61.63243428140213
 20
133.0983225005915
 30
0.0
 11
-54.63242331625774
 21
129.0568647320432
 31
0.0
  0
LINE
  5
479
  8
0
  6
CONTINUOUS
 62
     4
 10
-62.63242611092396
 20
131.9436172403754
 30
0.0
 11
-54.63242773772247
 21
127.3248165363851
 31
0.0
  0
LINE
  5
47A
  8
0
  6
CONTINUOUS
 62
     4
 10
-62.63243053238857
 20
130.2115690447174
 30
0.0
 11
-57.24012197349025
 21
127.0983185906418
 31
0.0
  0
LINE
  5
47B
  8
0
  6
CONTINUOUS
 62
     4
 10
-62.63243209283068
 20
128.4795258044965
 30
0.0
 11
-60.24012540160133
 21
127.0983270449287
 31
0.0
  0
LINE
  5
47C
  8
0
  6
CONTINUOUS
 62
     4
 10
-62.63242831677921
 20
129.0568710175853
 30
0.0
 11
-55.63242230707208
 21
133.0983259251109
 31
0.0
  0
LINE
  5
47D
  8
0
  6
CONTINUOUS
 62
     4
 10
-62.63242885075174
 20
127.3248199609045
 30
0.0
 11
-54.632425522113
 21
131.9436235259176
 31
0.0
  0
LINE
  5
47E
  8
0
  6
CONTINUOUS
 62
     4
 10
-60.02472965954671
 20
127.0983248761839
 30
0.0
 11
-54.63242605608552
 21
130.2115724692368
 31
0.0
  0
LINE
  5
47F
  8
0
  6
CONTINUOUS
 62
     4
 10
-57.0247332812874
 20
127.0983226529882
 30
0.0
 11
-54.63242659005805
 21
128.479521412556
 31
0.0
  0
LINE
  5
480
  8
0
  6
CONTINUOUS
 62
     4
 10
-55.63242027262304
 20
133.0983179806108
 30
0.0
 11
-54.63243286456581
 21
132.5209750451687
 31
0.0
  0
LINE
  5
481
  8
0
  6
CONTINUOUS
 62
     4
 10
-62.63242724883416
 20
132.5209731309469
 30
0.0
 11
-61.63242497446542
 21
133.098324649457
 31
0.0
  0
LINE
  5
482
  8
0
  6
CONTINUOUS
 62
     4
 10
-86.63241794307878
 20
108.2483203216604
 30
0.0
 11
-63.6324262579265
 21
108.2483203216604
 31
0.0
  0
LINE
  5
483
  8
0
  6
CONTINUOUS
 62
     4
 10
-86.63241794307878
 20
99.94831757686659
 30
0.0
 11
-63.6324262579265
 21
99.94831757686659
 31
0.0
  0
LINE
  5
484
  8
0
  6
CONTINUOUS
 62
     4
 10
-58.63242435695842
 20
103.0983230088057
 30
0.0
 11
-54.63243508123223
 21
100.7889283788559
 31
0.0
  0
LINE
  5
485
  8
0
  6
CONTINUOUS
 62
     4
 10
-62.63242789319058
 20
100.7889314200713
 30
0.0
 11
-58.63243861746427
 21
103.098326050021
 31
0.0
  0
LINE
  5
486
  8
0
  6
CONTINUOUS
 62
     4
 10
-55.6324378895735
 20
103.0983309540468
 30
0.0
 11
-54.63243065976751
 21
102.520976574514
 31
0.0
  0
LINE
  5
487
  8
0
  6
CONTINUOUS
 62
     4
 10
-62.6324323146553
 20
102.5209796157293
 30
0.0
 11
-61.63243995116095
 21
103.0983254121941
 31
0.0
  0
LINE
  5
488
  8
0
  6
CONTINUOUS
 62
     4
 10
-62.63243338260035
 20
99.05687750236778
 30
0.0
 11
-55.6324372837676
 21
103.098326687848
 31
0.0
  0
LINE
  5
489
  8
0
  6
CONTINUOUS
 62
     4
 10
-62.63243391657277
 20
97.32482644568704
 30
0.0
 11
-54.63243058793414
 21
101.9436300107001
 31
0.0
  0
LINE
  5
48A
  8
0
  6
CONTINUOUS
 62
     4
 10
-60.0247396808051
 20
97.09832849994375
 30
0.0
 11
-54.63243112190666
 21
100.2115789540193
 31
0.0
  0
LINE
  5
48B
  8
0
  6
CONTINUOUS
 62
     4
 10
-57.02474330254567
 20
97.09832627674801
 30
0.0
 11
-54.63243165587919
 21
98.47952789733857
 31
0.0
  0
LINE
  5
48C
  8
0
  6
CONTINUOUS
 62
     4
 10
-61.63243064609235
 20
103.0983265076554
 30
0.0
 11
-54.63243950269684
 21
99.05688018319783
 31
0.0
  0
LINE
  5
48D
  8
0
  6
CONTINUOUS
 62
     4
 10
-62.63242247561418
 20
101.9436212474393
 30
0.0
 11
-54.63242410241268
 21
97.32482054344898
 31
0.0
  0
LINE
  5
48E
  8
0
  6
CONTINUOUS
 62
     4
 10
-62.6324268970789
 20
100.2115730517813
 30
0.0
 11
-57.24011833818047
 21
97.09832259770569
 31
0.0
  0
LINE
  5
48F
  8
0
  6
CONTINUOUS
 62
     4
 10
-62.63243131854351
 20
98.47952485612318
 30
0.0
 11
-60.24012462731427
 21
97.09832609655534
 31
0.0
  0
LINE
  5
490
  8
0
  6
CONTINUOUS
 62
     4
 10
112.117118760966
 20
152.5983724037316
 30
0.0
 11
122.1357916282664
 21
152.5983724815949
 31
0.0
  0
LINE
  5
491
  8
0
  6
CONTINUOUS
 62
     4
 10
112.1171187726238
 20
151.0983724686269
 30
0.0
 11
122.135791639924
 21
151.0983725464902
 31
0.0
  0
LINE
  5
492
  8
0
  6
CONTINUOUS
 62
     4
 10
112.1171187842815
 20
149.5983725335222
 30
0.0
 11
122.1357916515818
 21
149.5983726113853
 31
0.0
  0
LINE
  5
493
  8
0
  6
CONTINUOUS
 62
     4
 10
112.1171187959392
 20
148.0983725984174
 30
0.0
 11
122.1357916632395
 21
148.0983726762806
 31
0.0
  0
LINE
  5
494
  8
0
  6
CONTINUOUS
 62
     4
 10
112.117118807597
 20
146.5983726633127
 30
0.0
 11
122.1357916748972
 21
146.5983727411758
 31
0.0
  0
LINE
  5
495
  8
0
  6
CONTINUOUS
 62
     4
 10
112.1171188192546
 20
145.0983727282079
 30
0.0
 11
122.1357916865549
 21
145.0983728060711
 31
0.0
  0
LINE
  5
496
  8
0
  6
CONTINUOUS
 62
     4
 10
112.1171188309123
 20
143.598372714872
 30
0.0
 11
122.1357916982126
 21
143.5983727927352
 31
0.0
  0
LINE
  5
497
  8
0
  6
CONTINUOUS
 62
     4
 10
112.1171191573285
 20
101.5983731796585
 30
0.0
 11
122.1357920246287
 21
101.5983732575217
 31
0.0
  0
LINE
  5
498
  8
0
  6
CONTINUOUS
 62
     4
 10
112.1171191689862
 20
100.0983732445538
 30
0.0
 11
122.1357920362864
 21
100.0983733224169
 31
0.0
  0
LINE
  5
499
  8
0
  6
CONTINUOUS
 62
     4
 10
112.1171191806439
 20
98.59837330944897
 30
0.0
 11
122.1357920479442
 21
98.59837338731215
 31
0.0
  0
LINE
  5
49A
  8
0
  6
CONTINUOUS
 62
     4
 10
112.1171191923016
 20
97.09837337434423
 30
0.0
 11
122.1357920596018
 21
97.09837345220741
 31
0.0
  0
LINE
  5
49B
  8
0
  6
CONTINUOUS
 62
     4
 10
112.1171192039593
 20
95.5983705782166
 30
0.0
 11
122.1357920712596
 21
95.59837065607981
 31
0.0
  0
LINE
  5
49C
  8
0
  6
CONTINUOUS
 62
     4
 10
112.117119215617
 20
94.09837064311186
 30
0.0
 11
122.1357920829173
 21
94.09837072097504
 31
0.0
  0
LINE
  5
49D
  8
0
  6
CONTINUOUS
 62
     4
 10
150.4725676728926
 20
152.5983724037316
 30
0.0
 11
140.4538948055923
 21
152.5983724815949
 31
0.0
  0
LINE
  5
49E
  8
0
  6
CONTINUOUS
 62
     4
 10
150.4725676612348
 20
151.0983724686269
 30
0.0
 11
140.4538947939346
 21
151.0983725464902
 31
0.0
  0
LINE
  5
49F
  8
0
  6
CONTINUOUS
 62
     4
 10
150.4725676495771
 20
149.5983725335222
 30
0.0
 11
140.4538947822768
 21
149.5983726113853
 31
0.0
  0
LINE
  5
4A0
  8
0
  6
CONTINUOUS
 62
     4
 10
150.4725676379194
 20
148.0983725984174
 30
0.0
 11
140.4538947706191
 21
148.0983726762806
 31
0.0
  0
LINE
  5
4A1
  8
0
  6
CONTINUOUS
 62
     4
 10
150.4725676262617
 20
146.5983726633127
 30
0.0
 11
140.4538947589614
 21
146.5983727411758
 31
0.0
  0
LINE
  5
4A2
  8
0
  6
CONTINUOUS
 62
     4
 10
150.472567614604
 20
145.0983727282079
 30
0.0
 11
140.4538947473038
 21
145.0983728060711
 31
0.0
  0
LINE
  5
4A3
  8
0
  6
CONTINUOUS
 62
     4
 10
150.4725676029463
 20
143.598372714872
 30
0.0
 11
140.453894735646
 21
143.5983727927352
 31
0.0
  0
LINE
  5
4A4
  8
0
  6
CONTINUOUS
 62
     4
 10
150.4725672765301
 20
101.5983731796585
 30
0.0
 11
140.4538944092299
 21
101.5983732575217
 31
0.0
  0
LINE
  5
4A5
  8
0
  6
CONTINUOUS
 62
     4
 10
150.4725672648725
 20
100.0983732445538
 30
0.0
 11
140.4538943975722
 21
100.0983733224169
 31
0.0
  0
LINE
  5
4A6
  8
0
  6
CONTINUOUS
 62
     4
 10
150.4725672532147
 20
98.59837330944897
 30
0.0
 11
140.4538943859145
 21
98.59837338731215
 31
0.0
  0
LINE
  5
4A7
  8
0
  6
CONTINUOUS
 62
     4
 10
150.472567241557
 20
97.09837337434423
 30
0.0
 11
140.4538943742568
 21
97.09837345220741
 31
0.0
  0
LINE
  5
4A8
  8
0
  6
CONTINUOUS
 62
     4
 10
150.4725672298993
 20
95.5983705782166
 30
0.0
 11
140.453894362599
 21
95.59837065607981
 31
0.0
  0
LINE
  5
4A9
  8
0
  6
CONTINUOUS
 62
     4
 10
150.4725672182416
 20
94.09837064311186
 30
0.0
 11
140.4538943509413
 21
94.09837072097504
 31
0.0
  0
LINE
  5
4AA
  8
0
  6
CONTINUOUS
 62
     4
 10
49.08368618192955
 20
-23.00935799578766
 30
0.0
 11
44.07434968084783
 21
-14.33293281943133
 31
0.0
  0
LINE
  5
4AB
  8
0
  6
CONTINUOUS
 62
     4
 10
50.38272422557637
 20
-22.25935801813942
 30
0.0
 11
45.37338772449468
 21
-13.58293284178313
 31
0.0
  0
LINE
  5
4AC
  8
0
  6
CONTINUOUS
 62
     4
 10
51.68176226922319
 20
-21.50935804049117
 30
0.0
 11
46.67242576814161
 21
-12.83293286413483
 31
0.0
  0
LINE
  5
4AD
  8
0
  6
CONTINUOUS
 62
     4
 10
52.98080031287009
 20
-20.75935806284294
 30
0.0
 11
47.97146381178842
 21
-12.08293288648658
 31
0.0
  0
LINE
  5
4AE
  8
0
  6
CONTINUOUS
 62
     4
 10
54.27983835651693
 20
-20.00935808519461
 30
0.0
 11
49.27050185543538
 21
-11.33293290883832
 31
0.0
  0
LINE
  5
4AF
  8
0
  6
CONTINUOUS
 62
     4
 10
55.57887640016384
 20
-19.25935810754638
 30
0.0
 11
50.5695398990822
 21
-10.58293293119012
 31
0.0
  0
LINE
  5
4B0
  8
0
  6
CONTINUOUS
 62
     4
 10
56.8779145115609
 20
-18.50935809078258
 30
0.0
 11
51.86857801047918
 21
-9.832932914426245
 31
0.0
  0
LINE
  5
4B1
  8
0
  6
CONTINUOUS
 62
     4
 10
29.90596172596628
 20
10.20743513549693
 30
0.0
 11
34.91529809218488
 21
1.531009881277335
 31
0.0
  0
LINE
  5
4B2
  8
0
  6
CONTINUOUS
 62
     4
 10
31.20499978127083
 20
10.95743509295341
 30
0.0
 11
36.2143361474894
 21
2.281009838733858
 31
0.0
  0
LINE
  5
4B3
  8
0
  6
CONTINUOUS
 62
     4
 10
32.50403783657538
 20
11.70743505040986
 30
0.0
 11
37.51337420279407
 21
3.031009796190368
 31
0.0
  0
LINE
  5
4B4
  8
0
  6
CONTINUOUS
 62
     4
 10
33.80307589187996
 20
12.4574350078664
 30
0.0
 11
38.81241225809862
 21
3.781009753646835
 31
0.0
  0
LINE
  5
4B5
  8
0
  6
CONTINUOUS
 62
     4
 10
35.10211394718459
 20
13.20743496532285
 30
0.0
 11
40.11145031340322
 21
4.531009711103401
 31
0.0
  0
LINE
  5
4B6
  8
0
  6
CONTINUOUS
 62
     4
 10
36.40115200248917
 20
13.95743492277939
 30
0.0
 11
41.41048836870777
 21
5.281009668559911
 31
0.0
  0
LINE
  5
4B7
  8
0
  6
CONTINUOUS
 62
     4
 10
37.70019012554391
 20
14.70743491935151
 30
0.0
 11
42.70952649176252
 21
6.031009665131911
 31
0.0
  0
LINE
  5
4B8
  8
0
  6
CONTINUOUS
 62
     4
 10
93.25098090478232
 20
2.490641959508856
 30
0.0
 11
88.24164440370066
 21
11.1670671358651
 31
0.0
  0
LINE
  5
4B9
  8
0
  6
CONTINUOUS
 62
     4
 10
94.55001894842917
 20
3.240641937157058
 30
0.0
 11
89.54068244734759
 21
11.91706711351339
 31
0.0
  0
LINE
  5
4BA
  8
0
  6
CONTINUOUS
 62
     4
 10
95.84905699207607
 20
3.990641914805344
 30
0.0
 11
90.83972049099444
 21
12.66706709116166
 31
0.0
  0
LINE
  5
4BB
  8
0
  6
CONTINUOUS
 62
     4
 10
97.14809503572292
 20
4.740641892453603
 30
0.0
 11
92.13875853464134
 21
13.41706706880988
 31
0.0
  0
LINE
  5
4BC
  8
0
  6
CONTINUOUS
 62
     4
 10
98.4471355570883
 20
5.490643300613264
 30
0.0
 11
93.43779905600661
 21
14.16706847696963
 31
0.0
  0
LINE
  5
4BD
  8
0
  6
CONTINUOUS
 62
     4
 10
99.74617360073515
 20
6.240643278261523
 30
0.0
 11
94.73683709965351
 21
14.91706845461785
 31
0.0
  0
LINE
  5
4BE
  8
0
  6
CONTINUOUS
 62
     4
 10
74.0732568451815
 20
35.70743440427353
 30
0.0
 11
79.08259321140008
 21
27.03100915005405
 31
0.0
  0
LINE
  5
4BF
  8
0
  6
CONTINUOUS
 62
     4
 10
75.37229490048603
 20
36.45743436173004
 30
0.0
 11
80.38163126670469
 21
27.78100910751056
 31
0.0
  0
LINE
  5
4C0
  8
0
  6
CONTINUOUS
 62
     4
 10
76.67133295579066
 20
37.20743431918657
 30
0.0
 11
81.6806693220093
 21
28.53100906496706
 31
0.0
  0
LINE
  5
4C1
  8
0
  6
CONTINUOUS
 62
     4
 10
77.97037101109524
 20
37.95743427664303
 30
0.0
 11
82.97970737731384
 21
29.28100902242358
 31
0.0
  0
LINE
  5
4C2
  8
0
  6
CONTINUOUS
 62
     4
 10
79.2694115441183
 20
38.707435664611
 30
0.0
 11
84.27874791033696
 21
30.03101041039144
 31
0.0
  0
LINE
  5
4C3
  8
0
  6
CONTINUOUS
 62
     4
 10
80.56844959942288
 20
39.4574356220675
 30
0.0
 11
85.57778596564151
 21
30.78101036784799
 31
0.0
  0
LINE
  5
4C4
  8
0
  6
CONTINUOUS
 62
     4
 10
232.6811580983603
 20
10.20595330279268
 30
0.0
 11
227.6718217321417
 21
1.529528048573091
 31
0.0
  0
LINE
  5
4C5
  8
0
  6
CONTINUOUS
 62
     4
 10
231.3821200430557
 20
10.95595326024914
 30
0.0
 11
226.3727836768372
 21
2.279528006029594
 31
0.0
  0
LINE
  5
4C6
  8
0
  6
CONTINUOUS
 62
     4
 10
230.0830819877512
 20
11.7059532177056
 30
0.0
 11
225.0737456215325
 21
3.029527963486125
 31
0.0
  0
LINE
  5
4C7
  8
0
  6
CONTINUOUS
 62
     4
 10
228.7840439324466
 20
12.45595317516214
 30
0.0
 11
223.774707566228
 21
3.779527920942584
 31
0.0
  0
LINE
  5
4C8
  8
0
  6
CONTINUOUS
 62
     4
 10
227.485005877142
 20
13.20595313261858
 30
0.0
 11
222.4756695109234
 21
4.529527878399165
 31
0.0
  0
LINE
  5
4C9
  8
0
  6
CONTINUOUS
 62
     4
 10
226.1859678218374
 20
13.95595309007513
 30
0.0
 11
221.1766314556188
 21
5.279527835855646
 31
0.0
  0
LINE
  5
4CA
  8
0
  6
CONTINUOUS
 62
     4
 10
224.8869296987827
 20
14.70595308664724
 30
0.0
 11
219.8775933325641
 21
6.029527832427654
 31
0.0
  0
LINE
  5
4CB
  8
0
  6
CONTINUOUS
 62
     4
 10
213.503433642397
 20
-23.01083982849191
 30
0.0
 11
218.5127701434787
 21
-14.33441465213557
 31
0.0
  0
LINE
  5
4CC
  8
0
  6
CONTINUOUS
 62
     4
 10
212.2043955987502
 20
-22.26083985084367
 30
0.0
 11
217.2137320998319
 21
-13.58441467448738
 31
0.0
  0
LINE
  5
4CD
  8
0
  6
CONTINUOUS
 62
     4
 10
210.9053575551034
 20
-21.51083987319542
 30
0.0
 11
215.914694056185
 21
-12.83441469683907
 31
0.0
  0
LINE
  5
4CE
  8
0
  6
CONTINUOUS
 62
     4
 10
209.6063195114565
 20
-20.76083989554719
 30
0.0
 11
214.6156560125382
 21
-12.08441471919082
 31
0.0
  0
LINE
  5
4CF
  8
0
  6
CONTINUOUS
 62
     4
 10
208.3072814678096
 20
-20.01083991789887
 30
0.0
 11
213.3166179688912
 21
-11.33441474154258
 31
0.0
  0
LINE
  5
4D0
  8
0
  6
CONTINUOUS
 62
     4
 10
207.0082434241627
 20
-19.26083994025064
 30
0.0
 11
212.0175799252444
 21
-10.58441476389436
 31
0.0
  0
LINE
  5
4D1
  8
0
  6
CONTINUOUS
 62
     4
 10
205.7092053127657
 20
-18.51083992348683
 30
0.0
 11
210.7185418138474
 21
-9.834414747130495
 31
0.0
  0
LINE
  5
4D2
  8
0
  6
CONTINUOUS
 62
     4
 10
188.5138629791451
 20
35.70595257156931
 30
0.0
 11
183.5045266129266
 21
27.02952731734981
 31
0.0
  0
LINE
  5
4D3
  8
0
  6
CONTINUOUS
 62
     4
 10
187.2148249238406
 20
36.45595252902582
 30
0.0
 11
182.2054885576219
 21
27.77952727480635
 31
0.0
  0
LINE
  5
4D4
  8
0
  6
CONTINUOUS
 62
     4
 10
185.9157868685359
 20
37.20595248648232
 30
0.0
 11
180.9064505023173
 21
28.52952723226282
 31
0.0
  0
LINE
  5
4D5
  8
0
  6
CONTINUOUS
 62
     4
 10
184.6167488132314
 20
37.95595244393881
 30
0.0
 11
179.6074124470127
 21
29.27952718971937
 31
0.0
  0
LINE
  5
4D6
  8
0
  6
CONTINUOUS
 62
     4
 10
183.3177082802083
 20
38.70595383190678
 30
0.0
 11
178.3083719139897
 21
30.02952857768719
 31
0.0
  0
LINE
  5
4D7
  8
0
  6
CONTINUOUS
 62
     4
 10
182.0186702249037
 20
39.45595378936326
 30
0.0
 11
177.0093338586851
 21
30.77952853514373
 31
0.0
  0
LINE
  5
4D8
  8
0
  6
CONTINUOUS
 62
     4
 10
169.3361389195443
 20
2.489160126804627
 30
0.0
 11
174.3454754206259
 21
11.16558530316089
 31
0.0
  0
LINE
  5
4D9
  8
0
  6
CONTINUOUS
 62
     4
 10
168.0371008758974
 20
3.239160104452814
 30
0.0
 11
173.046437376979
 21
11.91558528080915
 31
0.0
  0
LINE
  5
4DA
  8
0
  6
CONTINUOUS
 62
     4
 10
166.7380628322505
 20
3.989160082101115
 30
0.0
 11
171.7473993333322
 21
12.66558525845743
 31
0.0
  0
LINE
  5
4DB
  8
0
  6
CONTINUOUS
 62
     4
 10
165.4390247886037
 20
4.739160059749373
 30
0.0
 11
170.4483612896853
 21
13.41558523610563
 31
0.0
  0
LINE
  5
4DC
  8
0
  6
CONTINUOUS
 62
     4
 10
164.1399842672383
 20
5.489161467909049
 30
0.0
 11
169.14932076832
 21
14.16558664426541
 31
0.0
  0
LINE
  5
4DD
  8
0
  6
CONTINUOUS
 62
     4
 10
162.8409462235914
 20
6.239161445557293
 30
0.0
 11
167.8502827246731
 21
14.91558662191361
 31
0.0
  0
TEXT
  5
4DE
  8
0
 62
     6
 10
159.3171237998411
 20
-149.2053412307957
 30
0.0
 40
5.0
  1
外形図
 41
1.117647193459903
  7
DCSTYLE0
 72
     5
 11
172.8885540061399
 21
-149.2053412307957
 31
0.0
  0
TEXT
  5
4DF
  8
0
 62
     6
 10
141.0028565236757
 20
-158.5840911865234
 30
0.0
 40
5.0
  1
日鋼プレシジォン
 41
1.148936218911029
  7
DCSTYLE0
 72
     5
 11
179.5742867299746
 21
-158.5840911865234
 31
0.0
  0
TEXT
  5
4E0
  8
0
 62
     6
 10
138.6951609012966
 20
-164.8845392186924
 30
0.0
 40
4.5
  1
  PDM3-8型ﾁｬｯｸ
 41
1.022988503920164
  7
DCSTYLE0
 72
     5
 11
195.9094465134029
 21
-164.8845392186924
 31
0.0
  0
TEXT
  5
4E1
  8
0
 62
     6
 10
-64.28083413437784
 20
-107.0508113932914
 30
0.0
 40
4.199999803304678
  1
仕 様
 41
1.299145425959824
  7
DCSTYLE0
 72
     5
 11
-50.25006419110387
 21
-107.0508113932914
 31
0.0
  0
TEXT
  5
4E2
  8
0
 62
     6
 10
-70.35719092667242
 20
-123.250801183016
 30
0.0
 40
4.199999803304678
  1
　ピｽﾄﾝｽﾄﾛ-ｸ   　　　　　　　　 24　　 mm
 41
1.330345317671729
  7
DCSTYLE0
 72
     5
 11
81.03609913428616
 21
-123.250801183016
 31
0.0
  0
TEXT
  5
4E3
  8
0
 62
     6
 10
-70.35719092667242
 20
-131.3508032304355
 30
0.0
 40
4.199999803304678
  1
　推奨ｼﾘﾝダ　　　   　　   　   52TＳ　型
 41
1.378498998311795
  7
DCSTYLE0
 72
     5
 11
75.76369605121212
 21
-131.3508032304355
 31
0.0
  0
TEXT
  5
4E4
  8
0
 62
     6
 10
-70.35719092667242
 20
-155.650809372694
 30
0.0
 40
4.199999803304678
  1
　最大静的把握力　　 　　　　　　　　　　　  77　ｋN
 41
1.414890627579839
  7
DCSTYLE0
 72
     5
 11
81.03609913428616
 21
-155.650809372694
 31
0.0
  0
TEXT
  5
4E5
  8
0
 62
     6
 10
-70.29781701324643
 20
-163.7508056980677
 30
0.0
 40
4.199999803304678
  1
　最高使用回転速度　　　　　　　  　　　　4000　min
 41
1.371842610550523
  7
DCSTYLE0
 72
     5
 11
81.42796860798578
 21
-163.7508056980677
 31
0.0
  0
TEXT
  5
4E6
  8
0
 62
     6
 10
-70.32702841431524
 20
-171.850813467533
 30
0.0
 40
4.199999803304678
  1
　慣性モーメント     　　　　　 　0.21 Kg・m
 41
1.34690985571969
  7
DCSTYLE0
 72
     5
 11
78.64119465176964
 21
-171.850813467533
 31
0.0
  0
TEXT
  5
4E7
  8
0
 62
     6
 10
-70.3571909266724
 20
-188.0508175623719
 30
0.0
 40
4.199999803304678
  1
　ｱﾝバﾗﾝｽ量 　  　　    　　　　
 41
1.382686882138843
  7
DCSTYLE0
 72
     5
 11
44.12927755276814
 21
-188.0508175623719
 31
0.0
  0
TEXT
  5
4E8
  8
0
 62
     6
 10
-70.35719092667242
 20
-179.9508155149525
 30
0.0
 40
4.199999803304678
  1
　質　量　    　　　　　　　　　　　　　　　31 Kg
 41
1.399198679769341
  7
DCSTYLE0
 72
     5
 11
81.03609913428616
 21
-179.9508155149525
 31
0.0
  0
TEXT
  5
4E9
  8
0
 62
     6
 10
-70.28355392019996
 20
-139.4507938337636
 30
0.0
 40
4.199999803304678
  1
　許容ｼﾘﾝダ力　　
 41
1.390245984606395
  7
DCSTYLE0
 72
     5
 11
-21.0688483699676
 21
-139.4507938337636
 31
0.0
  0
TEXT
  5
4EA
  8
0
 62
     6
 10
-70.38835175719515
 20
-115.1507991355966
 30
0.0
 40
4.199999803304678
  1
　爪ノｽﾄﾛ-ｸ　　　　　  　　　　
 41
1.420709501462465
  7
DCSTYLE0
 72
     5
 11
29.9137343486854
 21
-115.1507991355966
 31
0.0
  0
TEXT
  5
4EB
  8
0
 62
     6
 10
-17.11581287948368
 20
-138.9257938583505
 30
0.0
 40
3.149999852478509
  1
52TS 型引側使用圧　3.5ＭＰａ
 41
1.384945463657081
  7
DCSTYLE0
 72
     5
 11
50.19253350205106
 21
-138.9257938583505
 31
0.0
  0
TEXT
  5
4EC
  8
0
 62
     6
 10
15.17547504746216
 20
-114.6257991601835
 30
0.0
 40
3.149999852478509
  1
（直径ﾆﾃ）
 41
1.458409223529428
  7
DCSTYLE0
 72
     5
 11
38.14541924231714
 21
-114.6257991601835
 31
0.0
  0
TEXT
  5
4ED
  8
0
 62
     6
 10
44.26600860842883
 20
-115.1507991355966
 30
0.0
 40
4.199999803304678
  1
19.4 mm
 41
1.224022017615557
  7
DCSTYLE0
 72
     5
 11
80.25225424101038
 21
-115.1507991355966
 31
0.0
  0
TEXT
  5
4EE
  8
0
 62
     6
 10
81.7448214246639
 20
-160.7623441138711
 30
0.0
 40
2.099999901652339
  1
-1
 41
1.182893583105826
  7
DCSTYLE0
 72
     5
 11
86.12152747718459
 21
-160.7623441138711
 31
0.0
  0
TEXT
  5
4EF
  8
0
 62
     6
 10
79.71329602256975
 20
-169.0425585256342
 30
0.0
 40
2.099999901652339
  1
2
 41
1.089905554034522
  7
DCSTYLE0
 72
     5
 11
81.56613537765585
 21
-169.0425585256342
 31
0.0
  0
TEXT
  5
4F0
  8
0
 62
     6
 10
30.45110513724082
 20
-187.5258175869589
 30
0.0
 40
3.149999852478509
  1
外周ﾆﾃ
 41
1.419073471103907
  7
DCSTYLE0
 72
     5
 11
45.13851487532223
 21
-187.5258175869589
 31
0.0
  0
TEXT
  5
4F1
  8
0
 62
     6
 10
45.79756391960206
 20
-188.0508175623719
 30
0.0
 40
4.199999803304678
  1
　　4g　以内
 41
1.404778725841705
  7
DCSTYLE0
 72
     5
 11
81.1979861529326
 21
-188.0508175623719
 31
0.0
  0
TEXT
  5
4F2
  8
0
 62
     6
 10
52.15575736091656
 20
-139.4507938337636
 30
0.0
 40
4.199999803304678
  1
 39　ｋN
 41
1.25868820696131
  7
DCSTYLE0
 72
     5
 11
81.10558476524194
 21
-139.4507938337636
 31
0.0
  0
TEXT
  5
4F3
  8
0
 62
     6
 10
-70.28355392019996
 20
-147.832521233006
 30
0.0
 40
4.199999803304678
  1
　最低使用ｼﾘﾝダ力　　
 41
1.393125525881326
  7
DCSTYLE0
 72
     5
 11
-10.93640929701412
 21
-147.832521233006
 31
0.0
  0
TEXT
  5
4F4
  8
0
 62
     6
 10
-17.11581287948368
 20
-147.307521257593
 30
0.0
 40
3.149999852478509
  1
52TS 型引側使用圧　1.0ＭＰａ
 41
1.384945463657081
  7
DCSTYLE0
 72
     5
 11
50.19253350205106
 21
-147.307521257593
 31
0.0
  0
TEXT
  5
4F5
  8
0
 62
     6
 10
52.15575736091656
 20
-147.8325212330061
 30
0.0
 40
4.199999803304678
  1
 10　ｋN
 41
1.25868820696131
  7
DCSTYLE0
 72
     5
 11
81.10558476524194
 21
-147.8325212330061
 31
0.0
  0
TEXT
  5
4F6
  8
0
 62
     6
 10
157.1421538370257
 20
144.7610488241844
 30
0.0
 40
4.499999865889553
  1
1
 50
180.0
 41
1.527272727272731
  7
DCSTYLE0
 72
     5
 11
153.542153944314
 21
144.7610488241844
 31
0.0
  0
TEXT
  5
4F7
  8
0
 62
     6
 10
33.3597732662324
 20
19.90138705978691
 30
0.0
 40
4.499999865889552
  1
2
 50
300.0
 41
0.9882352941176469
  7
DCSTYLE0
 72
     5
 11
35.15977321258822
 21
16.78369569907737
 31
0.0
  0
TEXT
  5
4F8
  8
0
 62
     6
 10
203.3826025475298
 20
-24.86746817323468
 30
0.0
 40
4.499999865889551
  1
3
 50
60.00000000000004
 41
0.9882352941176505
  7
DCSTYLE0
 72
     5
 11
205.1826024938856
 21
-21.74977681252513
 31
0.0
  0
TEXT
  5
4F9
  8
0
 62
     6
 10
-60.50299424281809
 20
-87.48837209302327
 30
0.0
 40
5.0
  1
標準引き込み量は0.5mm～0.6mmに調整しています。
 41
1.290326119408503
  7
DCSTYLE0
 72
     5
 11
105.7032987571819
 21
-87.48837209302327
 31
0.0
  0
TEXT
  5
4FA
  8
0
 62
     6
 10
-60.5023904197857
 20
-94.57373392495657
 30
0.0
 40
5.0
  1
希望の引き込み量にする場合は事前にご指定下さい。
 41
1.392631271328671
  7
DCSTYLE0
 72
     5
 11
81.74494658021432
 21
-94.57373392495657
 31
0.0
  0
TEXT
  5
4FB
  8
0
 62
     6
 10
86.69110021087204
 20
-123.5347813135614
 30
0.0
 40
5.0
  1
※シリンダのストロークは25mmを使用して下さい。
 41
1.310727829894736
  7
DCSTYLE0
 72
     5
 11
234.928176210872
 21
-123.5347813135614
 31
0.0
  0
TEXT
  5
4FC
  8
0
 62
     7
 10
229.2263719150255
 20
-175.6313568353653
 30
0.0
 40
3.200000047683716
  1
1/1
 41
1.075471809871915
  7
DCSTYLE0
 72
     5
 11
237.9120872327517
 21
-175.6313568353653
 31
0.0
  0
TEXT
  5
4FD
  8
0
 62
     7
 10
140.6068651982973
 20
-137.25
 30
0.0
 40
2.5
  1
符
 41
1.000000457763672
  7
DCSTYLE0
 72
     5
 11
142.3925803014467
 21
-137.25
 31
0.0
  0
TEXT
  5
4FE
  8
0
 62
     7
 10
140.6068651982973
 20
-141.0000001192093
 30
0.0
 40
2.5
  1
号
 41
1.000000457763672
  7
DCSTYLE0
 72
     5
 11
142.3925803014467
 21
-141.0000001192093
 31
0.0
  0
TEXT
  5
4FF
  8
0
 62
     7
 10
237.1068651982973
 20
-137.25
 30
0.0
 40
2.5
  1
単重量
 41
1.117647193459903
  7
DCSTYLE0
 72
     5
 11
243.8925803014467
 21
-137.25
 31
0.0
  0
TEXT
  5
500
  8
0
 62
     7
 10
237.1068651982973
 20
-141.0000001192093
 30
0.0
 40
2.5
  1
(kg)
 41
1.300000114440918
  7
DCSTYLE0
 72
     5
 11
246.3925803014467
 21
-141.0000001192093
 31
0.0
  0
TEXT
  5
501
  8
0
 62
     7
 10
222.4818651982973
 20
-156.75
 30
0.0
 40
2.5
  1
作図
 41
1.090909298983487
  7
DCSTYLE0
 72
     5
 11
226.7675803014467
 21
-156.75
 31
0.0
  0
TEXT
  5
502
  8
0
 62
     7
 10
222.4818651982973
 20
-169.25
 30
0.0
 40
2.5
  1
尺度
 41
1.090909298983487
  7
DCSTYLE0
 72
     5
 11
226.7675803014467
 21
-169.25
 31
0.0
  0
TEXT
  5
503
  8
0
 62
     7
 10
143.9402087041567
 20
-169.25
 30
0.0
 40
2.5
  1
承　　　　認
 41
1.142857208251953
  7
DCSTYLE0
 72
     5
 11
158.2259238073061
 21
-169.25
 31
0.0
  0
TEXT
  5
504
  8
0
 62
     7
 10
171.273521692438
 20
-169.25
 30
0.0
 40
2.5
  1
検　　　　図
 41
1.142857208251953
  7
DCSTYLE0
 72
     5
 11
185.5592367955874
 21
-169.25
 31
0.0
  0
TEXT
  5
505
  8
0
 62
     7
 10
195.1902087041567
 20
-169.25
 30
0.0
 40
2.5
  1
担　　当
 41
1.130434882122537
  7
DCSTYLE0
 72
     5
 11
204.4759238073061
 21
-169.25
 31
0.0
  0
TEXT
  5
506
  8
0
 62
     7
 10
208.8568651982973
 20
-169.25
 30
0.0
 40
2.5
  1
製　　図
 41
1.130434882122537
  7
DCSTYLE0
 72
     5
 11
218.1425803014467
 21
-169.25
 31
0.0
  0
TEXT
  5
507
  8
0
 62
     7
 10
92.10686519829733
 20
-172.0
 30
0.0
 40
2.5
  1
記
 41
1.000000457763672
  7
DCSTYLE0
 72
     5
 11
93.89258030144674
 21
-172.0
 31
0.0
  0
TEXT
  5
508
  8
0
 62
     7
 10
92.10686519829733
 20
-175.7500001192093
 30
0.0
 40
2.5
  1
号
 41
1.000000457763672
  7
DCSTYLE0
 72
     5
 11
93.89258030144674
 21
-175.7500001192093
 31
0.0
  0
TEXT
  5
509
  8
0
 62
     7
 10
98.10686519829733
 20
-172.0
 30
0.0
 40
2.5
  1
理
 41
1.000000457763672
  7
DCSTYLE0
 72
     5
 11
99.89258030144674
 21
-172.0
 31
0.0
  0
TEXT
  5
50A
  8
0
 62
     7
 10
98.10686519829733
 20
-175.7500001192093
 30
0.0
 40
2.5
  1
由
 41
1.000000457763672
  7
DCSTYLE0
 72
     5
 11
99.89258030144674
 21
-175.7500001192093
 31
0.0
  0
TEXT
  5
50B
  8
0
 62
     7
 10
103.2318651982973
 20
-173.75
 30
0.0
 40
2.5
  1
日　付
 41
1.117647193459903
  7
DCSTYLE0
 72
     5
 11
110.0175803014467
 21
-173.75
 31
0.0
  0
TEXT
  5
50C
  8
0
 62
     7
 10
91.7207262822817
 20
-179.0588989257812
 30
0.0
 40
2.5
  1
訂　正　来　歴
 41
1.146341519239472
  7
DCSTYLE0
 72
     5
 11
108.5064413854311
 21
-179.0588989257812
 31
0.0
  0
TEXT
  5
50D
  8
0
 62
     7
 10
117.1322558232973
 20
-179.24853515625
 30
0.0
 40
2.5
  1
工　事　番　号
 41
1.146341519239472
  7
DCSTYLE0
 72
     5
 11
133.9179709264467
 21
-179.24853515625
 31
0.0
  0
TEXT
  5
50E
  8
0
 62
     7
 10
156.106865079088
 20
-139.6000000238419
 30
0.0
 40
3.200000047683716
  1
品　　　　　　　名
 41
1.150943418718734
  7
DCSTYLE0
 72
     5
 11
183.9925803252886
 21
-139.6000000238419
 31
0.0
  0
TEXT
  5
50F
  8
0
 62
     7
 10
198.856865079088
 20
-139.6000000238419
 30
0.0
 40
3.200000047683716
  1
材　　　料
 41
1.13793109357357
  7
DCSTYLE0
 72
     5
 11
213.9425803729723
 21
-139.6000000238419
 31
0.0
  0
TEXT
  5
510
  8
0
 62
     7
 10
221.106865079088
 20
-139.6000000238419
 30
0.0
 40
3.200000047683716
  1
個　　数
 41
1.13043486278342
  7
DCSTYLE0
 72
     5
 11
232.9925803848932
 21
-139.6000000238419
 31
0.0
  0
TEXT
  5
511
  8
0
 62
     7
 10
251.356865079088
 20
-139.6000000238419
 30
0.0
 40
3.200000047683716
  1
記　　　事
 41
1.13793109357357
  7
DCSTYLE0
 72
     5
 11
266.4425803729723
 21
-139.6000000238419
 31
0.0
  0
TEXT
  5
512
  8
0
 62
     7
 10
222.231865079088
 20
-164.1000000238419
 30
0.0
 40
3.200000047683716
  1
第　三　角　法
 41
1.146341517931077
  7
DCSTYLE0
 72
     5
 11
243.7175807067583
 21
-164.1000000238419
 31
0.0
  0
TEXT
  5
513
  8
0
 62
     7
 10
249.1068651982973
 20
-169.25
 30
0.0
 40
2.5
  1
 ｺｰﾄﾞ番号
 41
1.119047673543295
  7
DCSTYLE0
 72
     5
 11
265.8925803014467
 21
-169.25
 31
0.0
  0
TEXT
  5
514
  8
0
 62
     7
 10
-26.23911415494962
 20
58.88490586067093
 30
0.0
 40
4.0
  1
MAX49.7
 50
90.0
 41
0.9116279069767443
  7
DCSTYLE0
 72
     5
 11
-26.23911415494962
 21
81.28490586067093
 31
0.0
  0
TEXT
  5
515
  8
0
 62
     7
 10
-21.91794603938092
 20
58.87389759386663
 30
0.0
 40
4.0
  1
MIN40.0
 50
90.0
 41
0.9719008264462813
  7
DCSTYLE0
 72
     5
 11
-21.91794603938092
 21
81.27389759386664
 31
0.0
  0
TEXT
  5
516
  8
0
 62
     7
 10
-202.0455214186352
 20
164.0296917735135
 30
0.0
 40
4.0
  1
MIN17.1
 41
1.022608695652174
  7
DCSTYLE0
 72
     5
 11
-179.6455214186352
 21
164.0296917735135
 31
0.0
  0
TEXT
  5
517
  8
0
 62
     7
 10
-189.1769188828671
 20
-75.61338788037152
 30
0.0
 40
4.0
  1
円周3箇所等配
 41
0.9408000000000003
  7
DCSTYLE0
 72
     5
 11
-166.7769188828671
 21
-75.61338788037152
 31
0.0
  0
TEXT
  5
518
  8
0
 62
     7
 10
-6.847500665158971
 20
42.55859685498417
 30
0.0
 40
4.0
  1
（防塵カバー）
 50
90.0
 41
0.95609756097561
  7
DCSTYLE0
 72
     5
 11
-6.847500665158971
 21
64.95859685498418
 31
0.0
  0
TEXT
  5
519
  8
0
 62
     7
 10
-103.182940100936
 20
34.61562352389498
 30
0.0
 40
4.0
  1
ﾋﾟｽﾄﾝ内径
 50
90.0
 41
0.95609756097561
  7
DCSTYLE0
 72
     5
 11
-103.182940100936
 21
57.01562352389499
 31
0.0
  0
TEXT
  5
51A
  8
0
 62
     7
 10
-92.5273815335197
 20
33.90337312055308
 30
0.0
 40
4.0
  1
防塵ｶﾊﾞｰ外径
 50
90.0
 41
0.9531914893617021
  7
DCSTYLE0
 72
     5
 11
-92.5273815335197
 21
59.50337312055307
 31
0.0
  0
TEXT
  5
51B
  8
0
 62
     3
 10
176.9426691465118
 20
-190.0
 30
0.0
 40
6.0
  1
2-
 41
0.8571429948012034
  7
DCSTYLE0
 72
     5
 11
187.2283850841262
 21
-190.0
 31
0.0
  0
TEXT
  5
51C
  8
0
 62
     3
 10
188.9338604416355
 20
-190.6655214858362
 30
0.0
 40
7.0
  1
D008078
 41
0.8521739130434781
  7
DCSTYLE0
 72
     5
 11
228.1338604416355
 21
-190.6655214858362
 31
0.0
  0
TEXT
  5
51E
  8
ZUWAKU
 62
     3
 10
97.83115742321547
 20
-190.3896955966668
 30
0.0
 40
7.0
  1
株式会社 野村製作所
 41
0.5754193966448269
  7
DCSTYLE1
 72
     5
 11
153.8311574232155
 21
-190.3896955966668
 31
0.0
  0
LINE
  5
51F
  8
0
  6
CONTINUOUS
 62
     3
 10
238.2073607198135
 20
-191.1677427595747
 30
0.0
 11
242.7073519355189
 21
-182.1677603281638
 31
0.0
  0
LINE
  5
520
  8
0
  6
CONTINUOUS
 62
     3
 10
242.7073711278441
 20
-182.1677558499545
 30
0.0
 11
247.2073725794563
 21
-191.167758753179
 31
0.0
  0
LINE
  5
521
  8
0
  6
CONTINUOUS
 62
     3
 10
238.2073502955377
 20
-191.1677482325632
 30
0.0
 11
247.2073502955377
 21
-191.1677482325632
 31
0.0
  0
LINE
  5
522
  8
0
  6
CONTINUOUS
 62
     3
 10
-205.4324004906525
 20
-13.07667408235753
 30
0.0
 11
-174.6324035424103
 21
-13.07667408235753
 31
0.0
  0
LINE
  5
523
  8
0
  6
CONTINUOUS
 62
     3
 10
-205.4324004906525
 20
-27.07667247303218
 30
0.0
 11
-174.6324035424103
 21
-27.07667247303218
 31
0.0
  0
LINE
  5
524
  8
0
  6
CONTINUOUS
 62
     3
 10
-81.63241803248575
 20
-3.401677429754443
 30
0.0
 11
-89.22381324466
 21
-3.401677429754443
 31
0.0
  0
LINE
  5
525
  8
0
  6
CONTINUOUS
 62
     3
 10
-104.6324183007066
 20
-8.27667408235753
 30
0.0
 11
-93.63241830070665
 21
-8.27667408235753
 31
0.0
  0
LINE
  5
526
  8
0
  6
CONTINUOUS
 62
     3
 10
-104.6324183007066
 20
-31.87667283066003
 30
0.0
 11
-93.63241830070665
 21
-31.87667283066003
 31
0.0
  0
LINE
  5
527
  8
0
  6
CONTINUOUS
 62
     3
 10
-94.63241830070665
 20
23.09832136325153
 30
0.0
 11
-94.63241830070665
 21
9.598323196094299
 31
0.0
  0
LINE
  5
528
  8
0
  6
CONTINUOUS
 62
     3
 10
-84.63241830070665
 20
67.59832447759418
 30
0.0
 11
-84.63241830070665
 21
25.59832257024556
 31
0.0
  0
LINE
  5
529
  8
0
  6
CONTINUOUS
 62
     3
 10
-82.93241803248576
 20
-4.401677429754443
 30
0.0
 11
-74.63241830070665
 21
-4.401677429754443
 31
0.0
  0
LINE
  5
52A
  8
0
  6
CONTINUOUS
 62
     3
 10
-106.1324247380082
 20
154.7648594925056
 30
0.0
 11
-106.1324247380082
 21
154.5983250736406
 31
0.0
  0
LINE
  5
52B
  8
0
  6
CONTINUOUS
 62
     3
 10
-81.63241803248575
 20
19.09832257024556
 30
0.0
 11
-74.63241830070665
 21
19.09832257024556
 31
0.0
  0
LINE
  5
52C
  8
0
  6
CONTINUOUS
 62
     3
 10
-81.63241803248575
 20
14.09832257024556
 30
0.0
 11
-74.63241830070665
 21
14.09832257024556
 31
0.0
  0
LINE
  5
52D
  8
0
  6
CONTINUOUS
 62
     3
 10
-119.1324247380082
 20
97.59832654885547
 30
0.0
 11
-98.13242174287488
 21
76.59832355372218
 31
0.0
  0
LINE
  5
52E
  8
0
  6
CONTINUOUS
 62
     3
 10
-121.1324247380082
 20
68.09832447759418
 30
0.0
 11
-111.1324183007066
 21
67.59832447759418
 31
0.0
  0
LINE
  5
52F
  8
0
  6
CONTINUOUS
 62
     3
 10
-121.1324247380082
 20
25.09832066289694
 30
0.0
 11
-111.1324183007066
 21
25.59832066289694
 31
0.0
  0
LINE
  5
530
  8
0
  6
CONTINUOUS
 62
     3
 10
-209.6324004906524
 20
148.0983064011946
 30
0.0
 11
-209.6324004906524
 21
-14.07667408235753
 31
0.0
  0
LINE
  5
531
  8
0
  6
CONTINUOUS
 62
     3
 10
-209.6324004906524
 20
-26.07667247303218
 30
0.0
 11
-209.6324004906524
 21
-54.90169575301985
 31
0.0
  0
LINE
  5
532
  8
0
  6
CONTINUOUS
 62
     3
 10
-93.63241830070665
 20
-7.775717031509451
 30
0.0
 11
-93.63241830070665
 21
-32.37764329523532
 31
0.0
  0
LINE
  5
533
  8
0
  6
CONTINUOUS
 62
     3
 10
-88.63241830070665
 20
-8.021701163372384
 30
0.0
 11
-93.63241830070665
 21
-8.275716520515239
 31
0.0
  0
LINE
  5
534
  8
0
  6
CONTINUOUS
 62
     3
 10
-88.63241830070665
 20
-32.13165916337238
 30
0.0
 11
-93.63241830070665
 21
-31.87764380622952
 31
0.0
  0
LINE
  5
535
  8
0
  6
CONTINUOUS
 62
     3
 10
-79.13241830070665
 20
9.598321273844562
 30
0.0
 11
-74.63241830070665
 21
9.598321273844562
 31
0.0
  0
LINE
  5
536
  8
0
  6
CONTINUOUS
 62
     3
 10
-79.13241830070665
 20
9.598321273844562
 30
0.0
 11
-79.13241830070665
 21
-1.401678726155438
 31
0.0
  0
LINE
  5
537
  8
0
  6
CONTINUOUS
 62
     3
 10
-79.13241830070665
 20
9.098321273844562
 30
0.0
 11
-75.13241830070665
 21
9.098321273844562
 31
0.0
  0
LINE
  5
538
  8
0
  6
CONTINUOUS
 62
     3
 10
-75.13241830070665
 20
9.098321273844562
 30
0.0
 11
-75.13241830070665
 21
-0.9016787261554384
 31
0.0
  0
LINE
  5
539
  8
0
  6
CONTINUOUS
 62
     3
 10
-93.13241830070665
 20
7.098321273844562
 30
0.0
 11
-79.13241830070665
 21
7.098321273844562
 31
0.0
  0
LINE
  5
53A
  8
0
  6
CONTINUOUS
 62
     3
 10
-81.63241830070665
 20
7.598321273844562
 30
0.0
 11
-79.13241830070665
 21
7.598321273844562
 31
0.0
  0
LINE
  5
53B
  8
0
  6
CONTINUOUS
 62
     3
 10
-79.13241830070665
 20
-0.9016787261554384
 30
0.0
 11
-75.13241830070665
 21
-0.9016787261554384
 31
0.0
  0
LINE
  5
53C
  8
0
  6
CONTINUOUS
 62
     3
 10
-79.13241830070665
 20
-0.9016787261554384
 30
0.0
 11
-75.13241830070665
 21
-0.9016787261554384
 31
0.0
  0
LINE
  5
53D
  8
0
  6
CONTINUOUS
 62
     3
 10
-79.13241830070665
 20
-1.401678726155438
 30
0.0
 11
-74.63241830070665
 21
-1.401678726155438
 31
0.0
  0
LINE
  5
53E
  8
0
  6
CONTINUOUS
 62
     3
 10
-93.13241830070665
 20
1.098321273844562
 30
0.0
 11
-79.13241830070665
 21
1.098321273844562
 31
0.0
  0
LINE
  5
53F
  8
0
  6
CONTINUOUS
 62
     3
 10
-81.63241830070665
 20
0.5983212738445616
 30
0.0
 11
-79.13241830070665
 21
0.5983212738445616
 31
0.0
  0
LINE
  5
540
  8
0
  6
CONTINUOUS
 62
     3
 10
-93.13241830070665
 20
7.098321273844562
 30
0.0
 11
-93.13241830070665
 21
1.098321273844562
 31
0.0
  0
LINE
  5
541
  8
0
  6
CONTINUOUS
 62
     3
 10
-93.13241830070665
 20
23.09832136325153
 30
0.0
 11
-93.13241830070665
 21
9.598323196094299
 31
0.0
  0
LINE
  5
542
  8
0
  6
CONTINUOUS
 62
     3
 10
-93.13241830070665
 20
22.59832136325153
 30
0.0
 11
-82.93241803248576
 21
22.59832136325153
 31
0.0
  0
LINE
  5
543
  8
0
  6
CONTINUOUS
 62
     3
 10
-82.93241803248576
 20
76.59832355372218
 30
0.0
 11
-82.93241803248576
 21
70.09832377723954
 31
0.0
  0
LINE
  5
544
  8
0
  6
CONTINUOUS
 62
     3
 10
-82.93241803248576
 20
71.09832377723954
 30
0.0
 11
-81.63241803248575
 21
71.09832377723954
 31
0.0
  0
LINE
  5
545
  8
0
  6
CONTINUOUS
 62
     3
 10
-82.93241803248576
 20
22.09832136325153
 30
0.0
 11
-81.63241803248575
 21
22.09832136325153
 31
0.0
  0
LINE
  5
546
  8
0
  6
CONTINUOUS
 62
     3
 10
-111.6323100973974
 20
77.59832257024554
 30
0.0
 11
-104.6324247380081
 21
77.59832257024554
 31
0.0
  0
LINE
  5
547
  8
0
  6
CONTINUOUS
 62
     3
 10
-104.6324247380081
 20
77.59832257024554
 30
0.0
 11
-104.6324247380081
 21
70.09832377723954
 31
0.0
  0
LINE
  5
548
  8
0
  6
CONTINUOUS
 62
     3
 10
-104.6324183007066
 20
23.09832136325153
 30
0.0
 11
-104.6324183007066
 21
10.59832319609426
 31
0.0
  0
LINE
  5
549
  8
0
  6
CONTINUOUS
 62
     3
 10
-104.6324183007066
 20
10.59832319609426
 30
0.0
 11
-105.6324183007066
 21
9.598323196094299
 31
0.0
  0
LINE
  5
54A
  8
0
  6
CONTINUOUS
 62
     3
 10
-93.13241830070665
 20
11.09832136325153
 30
0.0
 11
-82.93241803248576
 21
11.09832136325153
 31
0.0
  0
LINE
  5
54B
  8
0
  6
CONTINUOUS
 62
     3
 10
-94.63241830070665
 20
76.59832355372218
 30
0.0
 11
-94.63241830070665
 21
70.09832377723954
 31
0.0
  0
LINE
  5
54C
  8
0
  6
CONTINUOUS
 62
     3
 10
-104.6324183007066
 20
-8.27667408235753
 30
0.0
 11
-104.6324183007066
 21
-31.87667283066003
 31
0.0
  0
LINE
  5
54D
  8
0
  6
CONTINUOUS
 62
     3
 10
-104.6324183007066
 20
-31.87667283066003
 30
0.0
 11
-105.6716445517045
 21
-30.07668016337239
 31
0.0
  0
LINE
  5
54E
  8
0
  6
CONTINUOUS
 62
     3
 10
-105.6716445517045
 20
-30.07668016337246
 30
0.0
 11
-105.6716445517045
 21
-10.07668016337239
 31
0.0
  0
LINE
  5
54F
  8
0
  6
CONTINUOUS
 62
     3
 10
-104.6324183007066
 20
-8.276687496084747
 30
0.0
 11
-105.6716445517045
 21
-10.07668016337239
 31
0.0
  0
LINE
  5
550
  8
0
  6
CONTINUOUS
 62
     3
 10
-174.6324035424103
 20
-10.07668016337239
 30
0.0
 11
-114.9369594276413
 21
-10.07668016337239
 31
0.0
  0
LINE
  5
551
  8
0
  6
CONTINUOUS
 62
     3
 10
-114.9369594276413
 20
-10.07668016337239
 30
0.0
 11
-105.6716445517045
 21
-10.07668016337239
 31
0.0
  0
LINE
  5
552
  8
0
  6
CONTINUOUS
 62
     3
 10
-114.9369594276413
 20
-30.07668016337239
 30
0.0
 11
-105.6716445517045
 21
-30.07668016337239
 31
0.0
  0
LINE
  5
553
  8
0
  6
CONTINUOUS
 62
     3
 10
-111.1324183007066
 20
67.59832447759418
 30
0.0
 11
-111.1324183007066
 21
28.66924028046073
 31
0.0
  0
LINE
  5
554
  8
0
  6
CONTINUOUS
 62
     3
 10
-111.1324183007066
 20
28.66924028046073
 30
0.0
 11
-111.1324183007066
 21
25.59832257024556
 31
0.0
  0
LINE
  5
555
  8
0
  6
CONTINUOUS
 62
     3
 10
-174.6324035424103
 20
-30.07668016337239
 30
0.0
 11
-114.9369594276413
 21
-30.07668016337239
 31
0.0
  0
LINE
  5
556
  8
0
  6
CONTINUOUS
 62
     3
 10
-82.93241803248576
 20
-4.401677429754443
 30
0.0
 11
-82.93241803248576
 21
-3.401677429754443
 31
0.0
  0
LINE
  5
557
  8
0
  6
CONTINUOUS
 62
     3
 10
-82.93241803248576
 20
9.598323196094299
 30
0.0
 11
-82.93241803248576
 21
23.09832136325153
 31
0.0
  0
LINE
  5
558
  8
0
  6
CONTINUOUS
 62
     3
 10
-85.4324180324857
 20
78.05449675703274
 30
0.0
 11
-81.63241803248575
 21
78.05449675703274
 31
0.0
  0
LINE
  5
559
  8
0
  6
CONTINUOUS
 62
     3
 10
-85.4324180324857
 20
80.55449675703274
 30
0.0
 11
-81.63241803248575
 21
80.55449675703274
 31
0.0
  0
LINE
  5
55A
  8
0
  6
CONTINUOUS
 62
     3
 10
-85.4324180324857
 20
80.55449675703274
 30
0.0
 11
-85.4324180324857
 21
78.05449675703274
 31
0.0
  0
LINE
  5
55B
  8
0
  6
CONTINUOUS
 62
     3
 10
-53.6324262579265
 20
142.098317786973
 30
0.0
 11
-53.6324262579265
 21
126.0983183234147
 31
0.0
  0
LINE
  5
55C
  8
0
  6
CONTINUOUS
 62
     3
 10
-63.6324262579265
 20
126.0983183234147
 30
0.0
 11
-53.6324262579265
 21
126.0983183234147
 31
0.0
  0
LINE
  5
55D
  8
0
  6
CONTINUOUS
 62
     3
 10
-63.6324262579265
 20
142.098317786973
 30
0.0
 11
-53.6324262579265
 21
142.098317786973
 31
0.0
  0
LINE
  5
55E
  8
0
  6
CONTINUOUS
 62
     3
 10
-53.6324262579265
 20
112.0983186810426
 30
0.0
 11
-53.6324262579265
 21
96.09831921748439
 31
0.0
  0
LINE
  5
55F
  8
0
  6
CONTINUOUS
 62
     3
 10
-63.6324262579265
 20
112.0983186810426
 30
0.0
 11
-53.6324262579265
 21
112.0983186810426
 31
0.0
  0
LINE
  5
560
  8
0
  6
CONTINUOUS
 62
     3
 10
-63.6324262579265
 20
96.09831921748439
 30
0.0
 11
-53.6324262579265
 21
96.09831921748439
 31
0.0
  0
LINE
  5
561
  8
0
  6
CONTINUOUS
 62
     3
 10
94.29538525201622
 20
122.8304124742885
 30
0.0
 11
91.29538541773911
 21
124.5624635688979
 31
0.0
  0
LINE
  5
562
  8
0
  6
CONTINUOUS
 62
     3
 10
91.29538541773911
 20
124.5624635688979
 30
0.0
 11
88.29538525201627
 21
122.8304130483695
 31
0.0
  0
CIRCLE
  5
563
  8
0
  6
CONTINUOUS
 62
     3
 10
91.29538508629332
 20
121.0983619537602
 30
0.0
 40
6.999999999999997
  0
CIRCLE
  5
564
  8
0
  6
CONTINUOUS
 62
     3
 10
91.29538508629332
 20
121.0983619537602
 30
0.0
 40
6.499999999999997
  0
LINE
  5
565
  8
0
  6
CONTINUOUS
 62
     3
 10
94.29538492057043
 20
119.3663108591508
 30
0.0
 11
94.29538525201622
 21
122.8304124742885
 31
0.0
  0
LINE
  5
566
  8
0
  6
CONTINUOUS
 62
     3
 10
88.29538525201627
 20
122.8304130483695
 30
0.0
 11
88.29538492057048
 21
119.3663114332318
 31
0.0
  0
LINE
  5
567
  8
0
  6
CONTINUOUS
 62
     3
 10
88.29538492057048
 20
119.3663114332318
 30
0.0
 11
91.29538475484759
 21
117.6342603386224
 31
0.0
  0
LINE
  5
568
  8
0
  6
CONTINUOUS
 62
     3
 10
91.29538475484759
 20
117.6342603386224
 30
0.0
 11
94.29538492057043
 21
119.3663108591508
 31
0.0
  0
CIRCLE
  5
569
  8
0
  6
CONTINUOUS
 62
     3
 10
171.2953850862933
 20
121.0983619537602
 30
0.0
 40
6.999999999999997
  0
CIRCLE
  5
56A
  8
0
  6
CONTINUOUS
 62
     3
 10
171.2953850862933
 20
121.0983619537602
 30
0.0
 40
6.499999999999997
  0
LINE
  5
56B
  8
0
  6
CONTINUOUS
 62
     3
 10
168.2953852520162
 20
119.3663108591508
 30
0.0
 11
168.2953849205704
 21
122.8304124742885
 31
0.0
  0
LINE
  5
56C
  8
0
  6
CONTINUOUS
 62
     3
 10
168.2953849205704
 20
122.8304124742885
 30
0.0
 11
171.2953847548475
 21
124.5624635688979
 31
0.0
  0
LINE
  5
56D
  8
0
  6
CONTINUOUS
 62
     3
 10
171.2953847548475
 20
124.5624635688979
 30
0.0
 11
174.2953849205704
 21
122.8304130483695
 31
0.0
  0
LINE
  5
56E
  8
0
  6
CONTINUOUS
 62
     3
 10
174.2953849205704
 20
122.8304130483695
 30
0.0
 11
174.2953852520162
 21
119.3663114332318
 31
0.0
  0
LINE
  5
56F
  8
0
  6
CONTINUOUS
 62
     3
 10
174.2953852520162
 20
119.3663114332318
 30
0.0
 11
171.2953854177391
 21
117.6342603386224
 31
0.0
  0
LINE
  5
570
  8
0
  6
CONTINUOUS
 62
     3
 10
171.2953854177391
 20
117.6342603386224
 30
0.0
 11
168.2953852520162
 21
119.3663108591508
 31
0.0
  0
CIRCLE
  5
571
  8
0
  6
CONTINUOUS
 62
     3
 10
131.2948432169293
 20
46.59832257024556
 30
0.0
 40
20.5
  0
CIRCLE
  5
572
  8
0
  6
CONTINUOUS
 62
     3
 10
131.2948432169293
 20
46.59832257024556
 30
0.0
 40
17.5
  0
LINE
  5
573
  8
0
  6
CONTINUOUS
 62
     3
 10
111.1888739540462
 20
50.59832257024556
 30
0.0
 11
114.2581181795285
 21
50.59832257024556
 31
0.0
  0
LINE
  5
574
  8
0
  6
CONTINUOUS
 62
     3
 10
148.3315682543301
 20
50.59832257024556
 30
0.0
 11
151.4008124798124
 21
50.59832257024556
 31
0.0
  0
LINE
  5
575
  8
0
  6
CONTINUOUS
 62
     3
 10
111.1888739540462
 20
42.59832257024556
 30
0.0
 11
114.2581181795285
 21
42.59832257024556
 31
0.0
  0
LINE
  5
576
  8
0
  6
CONTINUOUS
 62
     3
 10
148.3315682543301
 20
42.59832257024556
 30
0.0
 11
151.4008124798124
 21
42.59832257024556
 31
0.0
  0
CIRCLE
  5
577
  8
0
  6
CONTINUOUS
 62
     3
 10
131.2948432169293
 20
16.59917125386865
 30
0.0
 40
2.5
  0
ARC
  5
578
  8
0
  6
CONTINUOUS
 62
     3
 10
131.2948432169293
 20
46.59832257024556
 30
0.0
 40
51.0
 50
113.700813931049
 51
186.299186068951
  0
ARC
  5
579
  8
0
  6
CONTINUOUS
 62
     3
 10
131.2948432169293
 20
46.59832257024556
 30
0.0
 40
51.0
 50
233.700813931049
 51
306.299186068951
  0
ARC
  5
57A
  8
0
  6
CONTINUOUS
 62
     3
 10
131.2948432169293
 20
46.59832257024556
 30
0.0
 40
51.0
 50
353.7008139310489
 51
66.29918606895106
  0
CIRCLE
  5
57B
  8
0
  6
CONTINUOUS
 62
     3
 10
131.2948486157886
 20
4.098338560656821
 30
0.0
 40
5.499999999999999
  0
LINE
  5
57C
  8
0
  6
CONTINUOUS
 62
     3
 10
129.2948486710296
 20
2.943637926597397
 30
0.0
 11
129.2948485605477
 21
5.253039003355916
 31
0.0
  0
LINE
  5
57D
  8
0
  6
CONTINUOUS
 62
     3
 10
131.2948485053067
 20
6.407739637415311
 30
0.0
 11
129.2948485605477
 21
5.253039003355916
 31
0.0
  0
LINE
  5
57E
  8
0
  6
CONTINUOUS
 62
     3
 10
133.2948489969152
 20
2.94363830610785
 30
0.0
 11
133.2948488817599
 21
5.253039009264292
 31
0.0
  0
LINE
  5
57F
  8
0
  6
CONTINUOUS
 62
     3
 10
133.2948488817599
 20
5.253039009264292
 30
0.0
 11
131.2948485053067
 21
6.407739637415311
 31
0.0
  0
LINE
  5
580
  8
0
  6
CONTINUOUS
 62
     3
 10
133.2948489969152
 20
2.94363830610785
 30
0.0
 11
131.2948487262706
 21
1.788937483898302
 31
0.0
  0
LINE
  5
581
  8
0
  6
CONTINUOUS
 62
     3
 10
131.2948487262706
 20
1.788937483898302
 30
0.0
 11
129.2948486710296
 21
2.943637926597397
 31
0.0
  0
CIRCLE
  5
582
  8
0
  6
CONTINUOUS
 62
     3
 10
157.274870348885
 20
61.59789822843403
 30
0.0
 40
2.5
  0
CIRCLE
  5
583
  8
0
  6
CONTINUOUS
 62
     3
 10
168.1009063302359
 20
67.84831925058926
 30
0.0
 40
5.499999999999998
  0
LINE
  5
584
  8
0
  6
CONTINUOUS
 62
     3
 10
168.1009058938684
 20
70.15772051549789
 30
0.0
 11
166.1009062749949
 21
69.00302006419228
 31
0.0
  0
LINE
  5
585
  8
0
  6
CONTINUOUS
 62
     3
 10
166.1009062749949
 20
69.00302006419228
 30
0.0
 11
166.1009063854768
 21
66.69361861652989
 31
0.0
  0
LINE
  5
586
  8
0
  6
CONTINUOUS
 62
     3
 10
168.1009058938684
 20
70.15772051549789
 30
0.0
 11
170.1009062749949
 21
69.0030198846487
 31
0.0
  0
LINE
  5
587
  8
0
  6
CONTINUOUS
 62
     3
 10
170.1009063854768
 20
66.6936188078902
 30
0.0
 11
168.1009064407178
 21
65.53891817383077
 31
0.0
  0
LINE
  5
588
  8
0
  6
CONTINUOUS
 62
     3
 10
166.1009063854768
 20
66.69361861652989
 30
0.0
 11
168.1009064407178
 21
65.53891817383077
 31
0.0
  0
LINE
  5
589
  8
0
  6
CONTINUOUS
 62
     3
 10
170.1009062749949
 20
69.0030198846487
 30
0.0
 11
170.1009063854768
 21
66.6936188078902
 31
0.0
  0
CIRCLE
  5
58A
  8
0
  6
CONTINUOUS
 62
     3
 10
105.3147883903204
 20
61.59837618315326
 30
0.0
 40
2.499999999999999
  0
CIRCLE
  5
58B
  8
0
  6
CONTINUOUS
 62
     3
 10
94.4887470101103
 20
67.8487878542099
 30
0.0
 40
5.499999999999997
  0
LINE
  5
58C
  8
0
  6
CONTINUOUS
 62
     3
 10
92.48874706535128
 20
66.69408684385022
 30
0.0
 11
94.48874679938001
 21
65.53938659199939
 31
0.0
  0
LINE
  5
58D
  8
0
  6
CONTINUOUS
 62
     3
 10
94.48874679938001
 20
65.53938659199939
 30
0.0
 11
96.48874706535125
 21
66.69408741151075
 31
0.0
  0
LINE
  5
58E
  8
0
  6
CONTINUOUS
 62
     3
 10
92.48874706535128
 20
66.69408684385022
 30
0.0
 11
92.4887469548693
 21
69.00348829690897
 31
0.0
  0
LINE
  5
58F
  8
0
  6
CONTINUOUS
 62
     3
 10
94.48874689962835
 20
70.15818893096836
 30
0.0
 11
96.48874695486936
 21
69.00348848826927
 31
0.0
  0
LINE
  5
590
  8
0
  6
CONTINUOUS
 62
     3
 10
96.48874706535125
 20
66.69408741151075
 30
0.0
 11
96.48874695486936
 21
69.00348848826927
 31
0.0
  0
LINE
  5
591
  8
0
  6
CONTINUOUS
 62
     3
 10
92.4887469548693
 20
69.00348829690897
 30
0.0
 11
94.48874689962835
 21
70.15818893096836
 31
0.0
  0
LINE
  5
592
  8
0
  6
CONTINUOUS
 62
     3
 10
83.7756457589054
 20
-23.56019290564515
 30
0.0
 11
83.77564542745958
 21
-27.02429452078292
 31
0.0
  0
LINE
  5
593
  8
0
  6
CONTINUOUS
 62
     3
 10
83.77564542745958
 20
-27.02429452078292
 30
0.0
 11
86.77564526173668
 21
-28.7563456153922
 31
0.0
  0
CIRCLE
  5
594
  8
0
  6
CONTINUOUS
 62
     3
 10
86.77564559318245
 20
-25.29224400025453
 30
0.0
 40
6.999999999999996
  0
CIRCLE
  5
595
  8
0
  6
CONTINUOUS
 62
     3
 10
86.77564559318245
 20
-25.29224400025453
 30
0.0
 40
6.499999999999996
  0
LINE
  5
596
  8
0
  6
CONTINUOUS
 62
     3
 10
86.77564592462824
 20
-21.82814238511678
 30
0.0
 11
83.7756457589054
 21
-23.56019290564515
 31
0.0
  0
LINE
  5
597
  8
0
  6
CONTINUOUS
 62
     3
 10
89.77564542745947
 20
-27.02429509486387
 30
0.0
 11
89.77564575890534
 21
-23.56019347972606
 31
0.0
  0
LINE
  5
598
  8
0
  6
CONTINUOUS
 62
     3
 10
89.77564575890534
 20
-23.56019347972606
 30
0.0
 11
86.77564592462824
 21
-21.82814238511678
 31
0.0
  0
LINE
  5
599
  8
0
  6
CONTINUOUS
 62
     3
 10
86.77564526173668
 20
-28.7563456153922
 30
0.0
 11
89.77564542745947
 21
-27.02429509486387
 31
0.0
  0
CIRCLE
  5
59A
  8
0
  6
CONTINUOUS
 62
     3
 10
46.77564559318245
 20
43.98978830250059
 30
0.0
 40
6.999999999999996
  0
CIRCLE
  5
59B
  8
0
  6
CONTINUOUS
 62
     3
 10
46.77564559318245
 20
43.98978830250059
 30
0.0
 40
6.499999999999996
  0
LINE
  5
59C
  8
0
  6
CONTINUOUS
 62
     3
 10
49.77564575890534
 20
42.25773778197217
 30
0.0
 11
46.77564592462832
 21
40.52568668736285
 31
0.0
  0
LINE
  5
59D
  8
0
  6
CONTINUOUS
 62
     3
 10
46.77564592462832
 20
40.52568668736285
 30
0.0
 11
43.7756457589054
 21
42.25773720789124
 31
0.0
  0
LINE
  5
59E
  8
0
  6
CONTINUOUS
 62
     3
 10
43.7756457589054
 20
42.25773720789124
 30
0.0
 11
43.77564542745966
 21
45.72183882302895
 31
0.0
  0
LINE
  5
59F
  8
0
  6
CONTINUOUS
 62
     3
 10
43.77564542745966
 20
45.72183882302895
 30
0.0
 11
46.77564526173666
 21
47.45388991763824
 31
0.0
  0
LINE
  5
5A0
  8
0
  6
CONTINUOUS
 62
     3
 10
46.77564526173666
 20
47.45388991763824
 30
0.0
 11
49.77564542745964
 21
45.7218393971099
 31
0.0
  0
LINE
  5
5A1
  8
0
  6
CONTINUOUS
 62
     3
 10
49.77564542745964
 20
45.7218393971099
 30
0.0
 11
49.77564575890534
 21
42.25773778197217
 31
0.0
  0
LINE
  5
5A2
  8
0
  6
CONTINUOUS
 62
     3
 10
215.8134986398663
 20
40.52474814209324
 30
0.0
 11
218.8134988055892
 21
42.25679866262163
 31
0.0
  0
LINE
  5
5A3
  8
0
  6
CONTINUOUS
 62
     3
 10
218.8134988055892
 20
42.25679866262163
 30
0.0
 11
218.8134991370349
 21
45.72090027775934
 31
0.0
  0
CIRCLE
  5
5A4
  8
0
  6
CONTINUOUS
 62
     3
 10
215.8134989713121
 20
43.98884975723097
 30
0.0
 40
6.999999999999996
  0
CIRCLE
  5
5A5
  8
0
  6
CONTINUOUS
 62
     3
 10
215.8134989713121
 20
43.98884975723097
 30
0.0
 40
6.499999999999996
  0
LINE
  5
5A6
  8
0
  6
CONTINUOUS
 62
     3
 10
212.8134988055892
 20
42.25679923670256
 30
0.0
 11
215.8134986398663
 21
40.52474814209324
 31
0.0
  0
LINE
  5
5A7
  8
0
  6
CONTINUOUS
 62
     3
 10
215.8134993027579
 20
47.45295137236863
 30
0.0
 11
212.813499137035
 21
45.72090085184028
 31
0.0
  0
LINE
  5
5A8
  8
0
  6
CONTINUOUS
 62
     3
 10
212.813499137035
 20
45.72090085184028
 30
0.0
 11
212.8134988055892
 21
42.25679923670256
 31
0.0
  0
LINE
  5
5A9
  8
0
  6
CONTINUOUS
 62
     3
 10
218.8134991370349
 20
45.72090027775934
 30
0.0
 11
215.8134993027579
 21
47.45295137236863
 31
0.0
  0
CIRCLE
  5
5AA
  8
0
  6
CONTINUOUS
 62
     3
 10
175.8134989713121
 20
-25.29318254552412
 30
0.0
 40
6.999999999999996
  0
CIRCLE
  5
5AB
  8
0
  6
CONTINUOUS
 62
     3
 10
175.8134989713121
 20
-25.29318254552412
 30
0.0
 40
6.499999999999996
  0
LINE
  5
5AC
  8
0
  6
CONTINUOUS
 62
     3
 10
175.8134986398663
 20
-21.82908093038636
 30
0.0
 11
178.8134988055891
 21
-23.5611314509147
 31
0.0
  0
LINE
  5
5AD
  8
0
  6
CONTINUOUS
 62
     3
 10
178.8134988055891
 20
-23.5611314509147
 30
0.0
 11
178.813499137035
 21
-27.02523306605248
 31
0.0
  0
LINE
  5
5AE
  8
0
  6
CONTINUOUS
 62
     3
 10
178.813499137035
 20
-27.02523306605248
 30
0.0
 11
175.8134993027579
 21
-28.75728416066176
 31
0.0
  0
LINE
  5
5AF
  8
0
  6
CONTINUOUS
 62
     3
 10
175.8134993027579
 20
-28.75728416066176
 30
0.0
 11
172.8134991370351
 21
-27.02523364013342
 31
0.0
  0
LINE
  5
5B0
  8
0
  6
CONTINUOUS
 62
     3
 10
172.8134991370351
 20
-27.02523364013342
 30
0.0
 11
172.8134988055892
 21
-23.56113202499563
 31
0.0
  0
LINE
  5
5B1
  8
0
  6
CONTINUOUS
 62
     3
 10
172.8134988055892
 20
-23.56113202499563
 30
0.0
 11
175.8134986398663
 21
-21.82908093038636
 31
0.0
  0
ARC
  5
5B2
  8
0
  6
CONTINUOUS
 62
     3
 10
131.2948432169293
 20
46.59832257024556
 30
0.0
 40
105.5
 50
100.9278569040603
 51
199.0720739758982
  0
ARC
  5
5B3
  8
0
  6
CONTINUOUS
 62
     3
 10
131.2948432169293
 20
46.59832257024556
 30
0.0
 40
107.5
 50
100.7221171637995
 51
199.2778150486733
  0
ARC
  5
5B4
  8
0
  6
CONTINUOUS
 62
     3
 10
131.2948432169293
 20
46.59832257024556
 30
0.0
 40
107.5
 50
220.7221171637995
 51
319.2778150486733
  0
ARC
  5
5B5
  8
0
  6
CONTINUOUS
 62
     3
 10
131.2948432169293
 20
46.59832257024556
 30
0.0
 40
107.5
 50
340.7221171637995
 51
79.27781504867332
  0
ARC
  5
5B6
  8
0
  6
CONTINUOUS
 62
     3
 10
131.2948432169293
 20
46.59832257024556
 30
0.0
 40
105.5
 50
220.9278569040603
 51
319.0720739758981
  0
ARC
  5
5B7
  8
0
  6
CONTINUOUS
 62
     3
 10
131.2948432169293
 20
46.59832257024556
 30
0.0
 40
105.5
 50
340.9278569040603
 51
79.07207397589819
  0
LINE
  5
5B8
  8
0
  6
CONTINUOUS
 62
     3
 10
110.7948432169293
 20
85.60261095270637
 30
0.0
 11
151.7948432169293
 21
85.60261095270637
 31
0.0
  0
LINE
  5
5B9
  8
0
  6
CONTINUOUS
 62
     3
 10
110.7948432169293
 20
83.00456630951176
 30
0.0
 11
151.7948432169293
 21
83.00456630951176
 31
0.0
  0
LINE
  5
5BA
  8
0
  6
CONTINUOUS
 62
     3
 10
107.2576621800939
 20
9.049362726176724
 30
0.0
 11
86.75766468348888
 21
44.55639994533144
 31
0.0
  0
LINE
  5
5BB
  8
0
  6
CONTINUOUS
 62
     3
 10
109.5077535451527
 20
10.34817944661214
 30
0.0
 11
89.00775354515265
 21
45.85522100177413
 31
0.0
  0
LINE
  5
5BC
  8
0
  6
CONTINUOUS
 62
     3
 10
175.3236018581316
 20
44.84966795343695
 30
0.0
 11
154.8236018581316
 21
9.342626398275037
 31
0.0
  0
LINE
  5
5BD
  8
0
  6
CONTINUOUS
 62
     3
 10
173.073629196959
 20
46.14869027503426
 30
0.0
 11
152.5736291969589
 21
10.64164871987236
 31
0.0
  0
LINE
  5
5BE
  8
0
  6
CONTINUOUS
 62
     3
 10
151.2948432169293
 20
153.9285803698294
 30
0.0
 11
151.2948432169293
 21
85.60261095270637
 31
0.0
  0
LINE
  5
5BF
  8
0
  6
CONTINUOUS
 62
     3
 10
111.2948432169293
 20
153.928534714409
 30
0.0
 11
111.2948432169293
 21
85.60261095270637
 31
0.0
  0
LINE
  5
5C0
  8
0
  6
CONTINUOUS
 62
     3
 10
151.7948432169293
 20
93.29682361685303
 30
0.0
 11
151.7948432169293
 21
83.00456630951176
 31
0.0
  0
LINE
  5
5C1
  8
0
  6
CONTINUOUS
 62
     3
 10
110.7948432169293
 20
93.29682361685303
 30
0.0
 11
110.7948432169293
 21
83.00456630951176
 31
0.0
  0
LINE
  5
5C2
  8
0
  6
CONTINUOUS
 62
     3
 10
80.60275499191303
 20
41.00259282452282
 30
0.0
 11
89.00775354515265
 21
45.85522100177413
 31
0.0
  0
LINE
  5
5C3
  8
0
  6
CONTINUOUS
 62
     3
 10
101.102754991913
 20
5.495551269360835
 30
0.0
 11
109.5077535451527
 21
10.34817944661214
 31
0.0
  0
LINE
  5
5C4
  8
0
  6
CONTINUOUS
 62
     3
 10
28.34411336775679
 20
10.25370174614239
 30
0.0
 11
87.00778088398008
 21
44.12318597828462
 31
0.0
  0
LINE
  5
5C5
  8
0
  6
CONTINUOUS
 62
     3
 10
48.34415290651064
 20
-24.38729157752489
 30
0.0
 11
107.0077808839801
 21
9.482169826907068
 31
0.0
  0
LINE
  5
5C6
  8
0
  6
CONTINUOUS
 62
     3
 10
161.4869314419456
 20
5.495551269360828
 30
0.0
 11
152.5736291969589
 21
10.64164871987236
 31
0.0
  0
LINE
  5
5C7
  8
0
  6
CONTINUOUS
 62
     3
 10
181.9869314419456
 20
41.00259282452278
 30
0.0
 11
173.073629196959
 21
46.14869027503426
 31
0.0
  0
LINE
  5
5C8
  8
0
  6
CONTINUOUS
 62
     3
 10
214.2455730661018
 20
-24.38731440523519
 30
0.0
 11
155.0736018581316
 21
9.775639100167268
 31
0.0
  0
LINE
  5
5C9
  8
0
  6
CONTINUOUS
 62
     3
 10
234.2455335273479
 20
10.25372457385256
 30
0.0
 11
175.0736018581316
 21
44.4166552515448
 31
0.0
  0
LINE
  5
5CA
  8
0
  6
CONTINUOUS
 62
     6
 10
-66.6763705318224
 20
-141.4007949558209
 30
0.0
 11
82.52410681823605
 21
-141.4007949558209
 31
0.0
  0
LINE
  5
5CB
  8
0
  6
CONTINUOUS
 62
     6
 10
-66.6763705318224
 20
-133.3007986304472
 30
0.0
 11
82.52410681823605
 21
-133.3007986304472
 31
0.0
  0
LINE
  5
5CC
  8
0
  6
CONTINUOUS
 62
     6
 10
-66.6763705318224
 20
-125.2008080271192
 30
0.0
 11
82.52410681823605
 21
-125.2008080271192
 31
0.0
  0
LINE
  5
5CD
  8
0
  6
CONTINUOUS
 62
     6
 10
-66.6763705318224
 20
-117.1008059796997
 30
0.0
 11
82.52410681823605
 21
-117.1008059796997
 31
0.0
  0
LINE
  5
5CE
  8
0
  6
CONTINUOUS
 62
     6
 10
-67.01229325335625
 20
-109.0008067933031
 30
0.0
 11
-47.66710950371575
 21
-109.0008067933031
 31
0.0
  0
LINE
  5
5CF
  8
0
  6
CONTINUOUS
 62
     6
 10
-66.6763705318224
 20
-157.6008047727056
 30
0.0
 11
82.52410681823605
 21
-157.6008047727056
 31
0.0
  0
LINE
  5
5D0
  8
0
  6
CONTINUOUS
 62
     6
 10
-66.6763705318224
 20
-165.7008125421708
 30
0.0
 11
82.52410681823605
 21
-165.7008125421708
 31
0.0
  0
LINE
  5
5D1
  8
0
  6
CONTINUOUS
 62
     6
 10
-66.6763705318224
 20
-173.8008203116361
 30
0.0
 11
82.52410681823605
 21
-173.8008203116361
 31
0.0
  0
LINE
  5
5D2
  8
0
  6
CONTINUOUS
 62
     6
 10
-66.6763705318224
 20
-181.9007994708727
 30
0.0
 11
82.52410681823605
 21
-181.9007994708727
 31
0.0
  0
LINE
  5
5D3
  8
0
  6
CONTINUOUS
 62
     6
 10
-66.6763705318224
 20
-190.0007786301093
 30
0.0
 11
82.52410681823605
 21
-190.0007786301093
 31
0.0
  0
LINE
  5
5D4
  8
0
  6
CONTINUOUS
 62
     6
 10
-66.6763705318224
 20
-149.7825223550635
 30
0.0
 11
82.52410681823605
 21
-149.7825223550635
 31
0.0
  0
LINE
  5
5D5
  8
0
  6
DASHED2
 62
     7
 10
-74.63241830070665
 20
153.1811917845756
 30
0.0
 11
-74.63241830070665
 21
150.8523535055917
 31
0.0
  0
LINE
  5
5D6
  8
0
  6
DASHED2
 62
     7
 10
-74.63241948498664
 20
153.1971933113676
 30
0.0
 11
-76.04955696063477
 21
154.6143307870158
 31
0.0
  0
LINE
  5
5D7
  8
0
  6
DASHED2
 62
     7
 10
-158.6824218529572
 20
-37.01493075497829
 30
0.0
 11
-158.6824218529572
 21
-49.01491168149196
 31
0.0
  0
LINE
  5
5D8
  8
0
  6
DASHED2
 62
     7
 10
-153.5824157494415
 20
-37.01492694028102
 30
0.0
 11
-153.5824157494415
 21
-49.01491931088649
 31
0.0
  0
LINE
  5
5D9
  8
0
  6
DASHED2
 62
     7
 10
-158.1324035424103
 20
-36.69735471801078
 30
0.0
 11
-154.1324487511267
 21
-36.69735471801078
 31
0.0
  0
LINE
  5
5DA
  8
0
  6
DASHED2
 62
     7
 10
-153.5824042895054
 20
-37.01492298198
 30
0.0
 11
-154.1324487511267
 21
-36.69735471801078
 31
0.0
  0
LINE
  5
5DB
  8
0
  6
DASHED2
 62
     7
 10
-153.5824157494415
 20
-37.01492503293239
 30
0.0
 11
-158.6824218529572
 21
-37.01492503293239
 31
0.0
  0
LINE
  5
5DC
  8
0
  6
DASHED2
 62
     7
 10
-158.6824379818252
 20
-37.01491725537026
 30
0.0
 11
-158.1324035424103
 21
-36.69735471801078
 31
0.0
  0
LINE
  5
5DD
  8
0
  6
DASHED2
 62
     7
 10
-154.1324035424103
 20
-3.401677429754443
 30
0.0
 11
-154.1324035424103
 21
-36.69735471801078
 31
0.0
  0
LINE
  5
5DE
  8
0
  6
DASHED2
 62
     7
 10
-158.1324035424103
 20
-3.401677429754443
 30
0.0
 11
-158.1324035424103
 21
-36.69735471801078
 31
0.0
  0
LINE
  5
5DF
  8
0
  6
DASHED2
 62
     7
 10
-159.1324035424103
 20
-41.01493075497829
 30
0.0
 11
-159.1324035424103
 21
-49.01490786679469
 31
0.0
  0
LINE
  5
5E0
  8
0
  6
DASHED2
 62
     7
 10
-153.1324340599884
 20
-41.01492503293239
 30
0.0
 11
-159.1324340599884
 21
-41.01492503293239
 31
0.0
  0
LINE
  5
5E1
  8
0
  6
DASHED2
 62
     7
 10
-153.1324035424103
 20
-41.01492694028102
 30
0.0
 11
-153.1324035424103
 21
-49.01490786679469
 31
0.0
  0
LINE
  5
5E2
  8
0
  6
DASHED2
 62
     7
 10
-153.1324340599884
 20
-49.01488879330837
 30
0.0
 11
-159.1324340599884
 21
-49.01488879330837
 31
0.0
  0
LINE
  5
5E3
  8
0
  6
DASHED2
 62
     7
 10
-153.1324340599884
 20
-49.01492694028102
 30
0.0
 11
-159.1324340599884
 21
-49.01492694028102
 31
0.0
  0
ARC
  5
5E4
  8
0
  6
DASHED2
 62
     7
 10
-156.1705573564052
 20
-52.19388570661826
 30
0.0
 40
2.999999910593036
 50
90.0
 51
131.8103131551269
  0
LINE
  5
5E5
  8
0
  6
DASHED2
 62
     7
 10
-159.4424357203045
 20
-49.19388579602523
 30
0.0
 11
-152.8223612817072
 21
-49.19388579602523
 31
0.0
  0
LINE
  5
5E6
  8
0
  6
DASHED2
 62
     7
 10
-164.1324362374042
 20
-51.90165890567196
 30
0.0
 11
-159.1324663559852
 21
-49.0149248968829
 31
0.0
  0
ARC
  5
5E7
  8
0
  6
DASHED2
 62
     7
 10
-159.1705572669983
 20
-50.19678875075553
 30
0.0
 40
1.0
 50
0.0000179860893428
 51
90.0
  0
ARC
  5
5E8
  8
0
  6
DASHED2
 62
     7
 10
-159.1705572669983
 20
-50.19678875075553
 30
0.0
 40
1.0
 50
90.0
 51
161.8051367065621
  0
LINE
  5
5E9
  8
0
  6
DASHED2
 62
     7
 10
-160.1205541869283
 20
-51.57078925912353
 30
0.0
 11
-160.1205541869283
 21
-49.88453671538363
 31
0.0
  0
LINE
  5
5EA
  8
0
  6
DASHED2
 62
     7
 10
-158.1705725555892
 20
-51.42995826966828
 30
0.0
 11
-158.1705725555892
 21
-49.95781323297521
 31
0.0
  0
ARC
  5
5EB
  8
0
  6
DASHED2
 62
     7
 10
-156.1705573564052
 20
-52.19388570661826
 30
0.0
 40
2.999999910593036
 50
48.18968684487312
 51
90.0
  0
ARC
  5
5EC
  8
0
  6
DASHED2
 62
     7
 10
-153.1705574458122
 20
-50.19678875075553
 30
0.0
 40
1.0
 50
90.0
 51
179.9999820139107
  0
LINE
  5
5ED
  8
0
  6
DASHED2
 62
     7
 10
-153.132391575741
 20
-49.01488969775719
 30
0.0
 11
-148.132421694322
 21
-51.90162405067176
 31
0.0
  0
ARC
  5
5EE
  8
0
  6
DASHED2
 62
     7
 10
-153.1705574458122
 20
-50.19678875075553
 30
0.0
 40
1.0
 50
18.19486329343793
 51
90.0
  0
LINE
  5
5EF
  8
0
  6
DASHED2
 62
     7
 10
-152.2205605258821
 20
-51.57078925912353
 30
0.0
 11
-152.2205605258821
 21
-49.88453671538363
 31
0.0
  0
LINE
  5
5F0
  8
0
  6
DASHED2
 62
     7
 10
-154.1705650454042
 20
-51.42995826966828
 30
0.0
 11
-154.1705650454042
 21
-49.95781323297521
 31
0.0
  0
ARC
  5
5F1
  8
0
  6
DASHED2
 62
     7
 10
-156.1705573564052
 20
-49.19388579602523
 30
0.0
 40
2.999999910593036
 50
228.1896986840186
 51
311.8102840131374
  0
ARC
  5
5F2
  8
0
  6
DASHED2
 62
     7
 10
-153.1705574458122
 20
-51.25853722375163
 30
0.0
 40
1.0
 50
179.9999820139107
 51
249.2845330299279
  0
LINE
  5
5F3
  8
0
  6
DASHED2
 62
     7
 10
-159.5631353802985
 20
-52.19388570661826
 30
0.0
 11
-152.777956444329
 21
-52.19388570661826
 31
0.0
  0
ARC
  5
5F4
  8
0
  6
DASHED2
 62
     7
 10
-150.3745827976934
 20
-53.98936065921245
 30
0.0
 40
2.999999910593036
 50
143.2380051083128
 51
207.8898300556071
  0
ARC
  5
5F5
  8
0
  6
DASHED2
 62
     7
 10
-153.1705574458122
 20
-51.25853722375163
 30
0.0
 40
1.0
 50
290.7154669700721
 51
341.8051248674166
  0
LINE
  5
5F6
  8
0
  6
DASHED2
 62
     7
 10
-164.1324035424103
 20
-51.90165713437282
 30
0.0
 11
-159.9363227536602
 21
-51.90165713437282
 31
0.0
  0
ARC
  5
5F7
  8
0
  6
DASHED2
 62
     7
 10
-161.966531915117
 20
-53.98936065921245
 30
0.0
 40
2.999999910593036
 50
332.1068914535913
 51
36.76199489168723
  0
ARC
  5
5F8
  8
0
  6
DASHED2
 62
     7
 10
-159.1705572669983
 20
-51.25853722375163
 30
0.0
 40
1.0
 50
198.1948751325834
 51
249.2845330299279
  0
ARC
  5
5F9
  8
0
  6
DASHED2
 62
     7
 10
-159.1705572669983
 20
-51.25853722375163
 30
0.0
 40
1.0
 50
290.7154669700721
 51
0.0000179860893428
  0
LINE
  5
5FA
  8
0
  6
DASHED2
 62
     7
 10
-164.1324035424103
 20
-51.90165713437282
 30
0.0
 11
-164.1324035424103
 21
-60.90166857846462
 31
0.0
  0
LINE
  5
5FB
  8
0
  6
DASHED2
 62
     7
 10
-152.4047919591503
 20
-51.90165713437282
 30
0.0
 11
-148.1324035424103
 21
-51.90165713437282
 31
0.0
  0
LINE
  5
5FC
  8
0
  6
DASHED2
 62
     7
 10
-148.1324035424103
 20
-51.90165713437282
 30
0.0
 11
-148.1324035424103
 21
-60.90166857846462
 31
0.0
  0
LINE
  5
5FD
  8
0
  6
DASHED2
 62
     7
 10
-143.6324183007066
 20
-44.90167613335345
 30
0.0
 11
-143.6324183007066
 21
-60.90167613335345
 31
0.0
  0
LINE
  5
5FE
  8
0
  6
DASHED2
 62
     7
 10
-143.0324183007067
 20
-39.90167613335345
 30
0.0
 11
-143.0324183007067
 21
-60.90167613335345
 31
0.0
  0
LINE
  5
5FF
  8
0
  6
DASHED2
 62
     7
 10
-136.2324183007066
 20
-39.90167613335345
 30
0.0
 11
-136.2324183007066
 21
-60.90167613335345
 31
0.0
  0
LINE
  5
600
  8
0
  6
DASHED2
 62
     7
 10
-135.6324183007066
 20
-44.90167613335345
 30
0.0
 11
-135.6324183007066
 21
-60.90167613335345
 31
0.0
  0
LINE
  5
601
  8
0
  6
DASHED2
 62
     7
 10
-143.6324183007066
 20
-44.90167613335345
 30
0.0
 11
-135.6324183007066
 21
-44.90167613335345
 31
0.0
  0
LINE
  5
602
  8
0
  6
DASHED2
 62
     7
 10
-143.0324183007067
 20
-39.90167613335345
 30
0.0
 11
-136.2324183007066
 21
-39.90167613335345
 31
0.0
  0
LINE
  5
603
  8
0
  6
DASHED2
 62
     7
 10
-143.0324183007064
 20
-39.90167613335333
 30
0.0
 11
-139.6324183007067
 21
-37.93868521810877
 31
0.0
  0
LINE
  5
604
  8
0
  6
DASHED2
 62
     7
 10
-136.2324183007068
 20
-39.90167613335333
 30
0.0
 11
-139.6324183007065
 21
-37.93868521810877
 31
0.0
  0
LINE
  5
605
  8
0
  6
DASHED2
 62
     7
 10
-158.7836325348772
 20
-55.39388255949311
 30
0.0
 11
-153.4916099875136
 21
-55.39388255949311
 31
0.0
  0
LINE
  5
606
  8
0
  6
DASHED2
 62
     7
 10
-159.4705755686039
 20
-56.39389015908509
 30
0.0
 11
-152.8705620323895
 21
-56.39389015908509
 31
0.0
  0
LINE
  5
607
  8
0
  6
DASHED2
 62
     7
 10
-158.5705738328551
 20
-58.69388637907055
 30
0.0
 11
-159.4705737591418
 21
-56.39388605220469
 31
0.0
  0
ARC
  5
608
  8
0
  6
DASHED2
 62
     7
 10
-156.1705573564052
 20
-56.39389015908509
 30
0.0
 40
3.299999973177911
 50
162.3602944823007
 51
179.9999820139107
  0
LINE
  5
609
  8
0
  6
DASHED2
 62
     7
 10
-152.8705600818629
 20
-56.3938844069248
 30
0.0
 11
-153.7705600081497
 21
-58.69388473379054
 31
0.0
  0
ARC
  5
60A
  8
0
  6
DASHED2
 62
     7
 10
-156.1705573564052
 20
-56.39389015908509
 30
0.0
 40
3.299999973177911
 50
0.0000179860893428
 51
17.63970551769929
  0
LINE
  5
60B
  8
0
  6
DASHED2
 62
     7
 10
-158.5705664401528
 20
-58.6938893276003
 30
0.0
 11
-153.7705711608405
 21
-58.6938893276003
 31
0.0
  0
ARC
  5
60C
  8
0
  6
DASHED2
 62
     7
 10
-156.1705573564052
 20
-58.2160069565884
 30
0.0
 40
1.199999982118607
 50
203.46797241713
 51
336.5320171102151
  0
LINE
  5
60D
  8
0
  6
DASHED2
 62
     7
 10
71.29500149883609
 20
135.796079350299
 30
0.0
 11
71.29500149883609
 21
110.0983719862675
 31
0.0
  0
LINE
  5
60E
  8
0
  6
DASHED2
 62
     7
 10
71.28110830033302
 20
125.4485125380129
 30
0.0
 11
78.73334119273693
 21
125.3184333359701
 31
0.0
  0
LINE
  5
60F
  8
0
  6
DASHED2
 62
     7
 10
67.73384485524139
 20
126.7983569927195
 30
0.0
 11
70.85628080878598
 21
126.7983569927195
 31
0.0
  0
LINE
  5
610
  8
0
  6
DASHED2
 62
     7
 10
68.03889855708758
 20
123.9920139977418
 30
0.0
 11
70.55122710693979
 21
123.9920139977418
 31
0.0
  0
LINE
  5
611
  8
0
  6
DASHED2
 62
     7
 10
71.26714598999786
 20
124.648612271871
 30
0.0
 11
78.71937888240177
 21
124.5185330698282
 31
0.0
  0
ARC
  5
612
  8
0
  6
DASHED2
 62
     7
 10
69.29500203527778
 20
125.5483532152753
 30
0.0
 40
2.0
 50
0.0
 51
38.68218896809859
  0
ARC
  5
613
  8
0
  6
DASHED2
 62
     7
 10
65.29500167765002
 20
121.0983411408647
 30
0.0
 40
5.999999821186071
 50
0.0
 51
28.83423780766662
  0
ARC
  5
614
  8
0
  6
DASHED2
 62
     7
 10
65.29500167765002
 20
121.0983411408647
 30
0.0
 40
5.999999821186071
 50
331.1657621923334
 51
0.0
  0
ARC
  5
615
  8
0
  6
DASHED2
 62
     7
 10
69.29500203527778
 20
125.5483532152753
 30
0.0
 40
2.0
 50
308.9068348005167
 51
0.0
  0
LINE
  5
616
  8
0
  6
DASHED2
 62
     7
 10
71.29500149883609
 20
129.0983447171433
 30
0.0
 11
88.88212795570718
 21
129.0983447171433
 31
0.0
  0
LINE
  5
617
  8
0
  6
DASHED2
 62
     7
 10
44.55411870698561
 20
110.0983376539931
 30
0.0
 11
71.29500149883609
 21
110.0983376539931
 31
0.0
  0
LINE
  5
618
  8
0
  6
DASHED2
 62
     7
 10
71.28109680685566
 20
116.7482274990842
 30
0.0
 11
78.71843319162826
 21
116.878046681633
 31
0.0
  0
LINE
  5
619
  8
0
  6
DASHED2
 62
     7
 10
59.29500185646395
 20
123.4983616687038
 30
0.0
 11
59.29500185646395
 21
118.6983435012086
 31
0.0
  0
LINE
  5
61A
  8
0
  6
DASHED2
 62
     7
 10
61.995075018183
 20
124.3983593530634
 30
0.0
 11
61.995075018183
 21
117.7983572609404
 31
0.0
  0
LINE
  5
61B
  8
0
  6
DASHED2
 62
     7
 10
67.73384485524139
 20
115.3983596212843
 30
0.0
 11
70.85628080878598
 21
115.3983596212843
 31
0.0
  0
LINE
  5
61C
  8
0
  6
DASHED2
 62
     7
 10
61.99511300683412
 20
117.7982509144214
 30
0.0
 11
59.29509276706301
 21
118.6982575479191
 31
0.0
  0
LINE
  5
61D
  8
0
  6
DASHED2
 62
     7
 10
62.9950747499621
 20
123.8436985724744
 30
0.0
 11
62.9950747499621
 21
118.30287003277
 31
0.0
  0
LINE
  5
61E
  8
0
  6
DASHED2
 62
     7
 10
67.29500114120822
 20
125.5483532152753
 30
0.0
 11
67.29500114120822
 21
116.6483633987285
 31
0.0
  0
LINE
  5
61F
  8
0
  6
DASHED2
 62
     7
 10
68.03889855708758
 20
118.2046911721706
 30
0.0
 11
70.55122710693979
 21
118.2046911721706
 31
0.0
  0
LINE
  5
620
  8
0
  6
DASHED2
 62
     7
 10
71.2671344965205
 20
117.548127765226
 30
0.0
 11
78.7044708812931
 21
117.6779469477749
 31
0.0
  0
ARC
  5
621
  8
0
  6
DASHED2
 62
     7
 10
61.995075018183
 20
121.0983411408647
 30
0.0
 40
3.299999973177911
 50
270.0000179860893
 51
286.5171775879861
  0
ARC
  5
622
  8
0
  6
DASHED2
 62
     7
 10
69.29500203527778
 20
116.6483633987285
 30
0.0
 40
2.0
 50
0.0
 51
51.09316519948327
  0
ARC
  5
623
  8
0
  6
DASHED2
 62
     7
 10
73.29500239290564
 20
121.0983411408647
 30
0.0
 40
5.999999821186071
 50
151.1657740314789
 51
208.8342086656771
  0
ARC
  5
624
  8
0
  6
DASHED2
 62
     7
 10
69.29500203527778
 20
116.6483633987285
 30
0.0
 40
2.0
 50
128.906856884946
 51
218.6821529959199
  0
ARC
  5
625
  8
0
  6
DASHED2
 62
     7
 10
69.29500203527778
 20
116.6483633987285
 30
0.0
 40
2.0
 50
321.3178110319014
 51
0.0
  0
ARC
  5
626
  8
0
  6
DASHED2
 62
     7
 10
63.32820509968371
 20
112.2983497954589
 30
0.0
 40
5.650000165402885
 50
44.94074594609464
 51
94.00890690573628
  0
ARC
  5
627
  8
0
  6
DASHED2
 62
     7
 10
59.99507483936907
 20
121.0983411408647
 30
0.0
 40
1.499999955296518
 50
117.818154050457
 51
242.1818423070773
  0
LINE
  5
628
  8
0
  6
DASHED2
 62
     7
 10
71.29500149883609
 20
113.0983375645861
 30
0.0
 11
88.88212795570718
 21
113.0983375645861
 31
0.0
  0
LINE
  5
629
  8
0
  6
DASHED2
 62
     7
 10
61.99507151434864
 20
124.3983264877943
 30
0.0
 11
59.29505670298693
 21
123.4983216637662
 31
0.0
  0
ARC
  5
62A
  8
0
  6
DASHED2
 62
     7
 10
69.29500203527778
 20
125.5483532152753
 30
0.0
 40
2.0
 50
141.3178297012361
 51
231.0931121518317
  0
ARC
  5
62B
  8
0
  6
DASHED2
 62
     7
 10
63.32820509968371
 20
129.8983553744535
 30
0.0
 40
5.650000165402885
 50
265.9910930942638
 51
315.0592540539054
  0
ARC
  5
62C
  8
0
  6
DASHED2
 62
     7
 10
61.995075018183
 20
121.0983411408647
 30
0.0
 40
3.299999973177911
 50
73.48282241201396
 51
89.99998201391067
  0
LINE
  5
62D
  8
0
  6
DASHED2
 62
     7
 10
129.2949623306419
 20
-8.421093246666503
 30
0.0
 11
129.2949623306419
 21
-36.697110573911
 31
0.0
  0
LINE
  5
62E
  8
0
  6
DASHED2
 62
     7
 10
133.2949623306419
 20
-8.575190412186766
 30
0.0
 11
133.2949623306419
 21
-36.697110573911
 31
0.0
  0
LINE
  5
62F
  8
0
  6
DASHED2
 62
     7
 10
128.744944020095
 20
-37.01468661087851
 30
0.0
 11
128.744944020095
 21
-49.01466753739218
 31
0.0
  0
LINE
  5
630
  8
0
  6
DASHED2
 62
     7
 10
129.2949623306419
 20
-36.697110573911
 30
0.0
 11
133.2949171219254
 21
-36.697110573911
 31
0.0
  0
LINE
  5
631
  8
0
  6
DASHED2
 62
     7
 10
133.8449501236106
 20
-37.01468088883261
 30
0.0
 11
128.744944020095
 21
-37.01468088883261
 31
0.0
  0
LINE
  5
632
  8
0
  6
DASHED2
 62
     7
 10
128.7449278912269
 20
-37.01467311127048
 30
0.0
 11
129.2949623306419
 21
-36.697110573911
 31
0.0
  0
LINE
  5
633
  8
0
  6
DASHED2
 62
     7
 10
128.2949623306419
 20
-41.01468661087851
 30
0.0
 11
128.2949623306419
 21
-49.01466372269491
 31
0.0
  0
LINE
  5
634
  8
0
  6
DASHED2
 62
     7
 10
134.2949318130637
 20
-41.01468088883261
 30
0.0
 11
128.2949318130637
 21
-41.01468088883261
 31
0.0
  0
LINE
  5
635
  8
0
  6
DASHED2
 62
     7
 10
134.2949318130637
 20
-49.01464464920858
 30
0.0
 11
128.2949318130637
 21
-49.01464464920858
 31
0.0
  0
LINE
  5
636
  8
0
  6
DASHED2
 62
     7
 10
134.2949318130637
 20
-49.01468279618124
 30
0.0
 11
128.2949318130637
 21
-49.01468279618124
 31
0.0
  0
ARC
  5
637
  8
0
  6
DASHED2
 62
     7
 10
131.2568085166469
 20
-52.19364156251848
 30
0.0
 40
2.999999910593036
 50
90.0
 51
131.8103131551269
  0
LINE
  5
638
  8
0
  6
DASHED2
 62
     7
 10
127.9849301527476
 20
-49.19364165192545
 30
0.0
 11
134.6050045913449
 21
-49.19364165192545
 31
0.0
  0
LINE
  5
639
  8
0
  6
DASHED2
 62
     7
 10
123.2949296356479
 20
-51.90141476157218
 30
0.0
 11
128.2948995170669
 21
-49.01468075278311
 31
0.0
  0
ARC
  5
63A
  8
0
  6
DASHED2
 62
     7
 10
128.2568086060539
 20
-50.19654460665575
 30
0.0
 40
1.0
 50
0.0000179860893428
 51
90.0
  0
ARC
  5
63B
  8
0
  6
DASHED2
 62
     7
 10
128.2568086060539
 20
-50.19654460665575
 30
0.0
 40
1.0
 50
90.0
 51
161.8051367065621
  0
LINE
  5
63C
  8
0
  6
DASHED2
 62
     7
 10
127.3068116861238
 20
-51.57054511502375
 30
0.0
 11
127.3068116861238
 21
-49.88429257128385
 31
0.0
  0
LINE
  5
63D
  8
0
  6
DASHED2
 62
     7
 10
129.256793317463
 20
-51.42971412556849
 30
0.0
 11
129.256793317463
 21
-49.95756908887543
 31
0.0
  0
ARC
  5
63E
  8
0
  6
DASHED2
 62
     7
 10
131.2568085166469
 20
-49.19364165192545
 30
0.0
 40
2.999999910593036
 50
228.1896986840186
 51
311.8102840131374
  0
LINE
  5
63F
  8
0
  6
DASHED2
 62
     7
 10
127.8642304927536
 20
-52.19364156251848
 30
0.0
 11
134.6494094287231
 21
-52.19364156251848
 31
0.0
  0
LINE
  5
640
  8
0
  6
DASHED2
 62
     7
 10
123.2949623306419
 20
-51.90141299027304
 30
0.0
 11
127.491043119392
 21
-51.90141299027304
 31
0.0
  0
ARC
  5
641
  8
0
  6
DASHED2
 62
     7
 10
125.4608339579351
 20
-53.98911651511267
 30
0.0
 40
2.999999910593036
 50
332.1068914535913
 51
36.76199489168723
  0
ARC
  5
642
  8
0
  6
DASHED2
 62
     7
 10
128.2568086060539
 20
-51.25829307965185
 30
0.0
 40
1.0
 50
198.1948751325834
 51
249.2845330299279
  0
ARC
  5
643
  8
0
  6
DASHED2
 62
     7
 10
128.2568086060539
 20
-51.25829307965185
 30
0.0
 40
1.0
 50
290.7154669700721
 51
0.0000179860893428
  0
LINE
  5
644
  8
0
  6
DASHED2
 62
     7
 10
123.2949623306419
 20
-51.90141299027304
 30
0.0
 11
123.2949623306419
 21
-60.6033442979362
 31
0.0
  0
LINE
  5
645
  8
0
  6
DASHED2
 62
     7
 10
128.643733338175
 20
-55.39363841539333
 30
0.0
 11
133.9357558855385
 21
-55.39363841539333
 31
0.0
  0
ARC
  5
646
  8
0
  6
DASHED2
 62
     7
 10
131.2568085166469
 20
-56.39364601498531
 30
0.0
 40
3.299999973177911
 50
162.3602944823007
 51
179.9999820139107
  0
LINE
  5
647
  8
0
  6
DASHED2
 62
     7
 10
127.9567903044482
 20
-56.39364601498531
 30
0.0
 11
134.5568038406627
 21
-56.39364601498531
 31
0.0
  0
LINE
  5
648
  8
0
  6
DASHED2
 62
     7
 10
128.856792040197
 20
-58.69364223497077
 30
0.0
 11
127.9567921139103
 21
-56.39364190810491
 31
0.0
  0
LINE
  5
649
  8
0
  6
DASHED2
 62
     7
 10
133.8449501236106
 20
-37.01468279618124
 30
0.0
 11
133.8449501236106
 21
-49.01467516678671
 31
0.0
  0
LINE
  5
64A
  8
0
  6
DASHED2
 62
     7
 10
133.8449615835467
 20
-37.01467883788022
 30
0.0
 11
133.2949171219254
 21
-36.697110573911
 31
0.0
  0
LINE
  5
64B
  8
0
  6
DASHED2
 62
     7
 10
134.2949623306419
 20
-41.01468279618124
 30
0.0
 11
134.2949623306419
 21
-49.01466372269491
 31
0.0
  0
ARC
  5
64C
  8
0
  6
DASHED2
 62
     7
 10
131.2568085166469
 20
-52.19364156251848
 30
0.0
 40
2.999999910593036
 50
48.18968684487312
 51
90.0
  0
ARC
  5
64D
  8
0
  6
DASHED2
 62
     7
 10
134.2568084272399
 20
-50.19654460665575
 30
0.0
 40
1.0
 50
90.0
 51
179.9999820139107
  0
LINE
  5
64E
  8
0
  6
DASHED2
 62
     7
 10
134.2949742973111
 20
-49.01464555365741
 30
0.0
 11
139.2949441787301
 21
-51.90137990657198
 31
0.0
  0
ARC
  5
64F
  8
0
  6
DASHED2
 62
     7
 10
134.2568084272399
 20
-50.19654460665575
 30
0.0
 40
1.0
 50
18.19486329343793
 51
90.0
  0
LINE
  5
650
  8
0
  6
DASHED2
 62
     7
 10
135.20680534717
 20
-51.57054511502375
 30
0.0
 11
135.20680534717
 21
-49.88429257128385
 31
0.0
  0
LINE
  5
651
  8
0
  6
DASHED2
 62
     7
 10
133.256800827648
 20
-51.42971412556849
 30
0.0
 11
133.256800827648
 21
-49.95756908887543
 31
0.0
  0
ARC
  5
652
  8
0
  6
DASHED2
 62
     7
 10
134.2568084272399
 20
-51.25829307965185
 30
0.0
 40
1.0
 50
179.9999820139107
 51
249.2845330299279
  0
ARC
  5
653
  8
0
  6
DASHED2
 62
     7
 10
137.0527830753587
 20
-53.98911651511267
 30
0.0
 40
2.999999910593036
 50
143.2380051083128
 51
207.8898300556071
  0
ARC
  5
654
  8
0
  6
DASHED2
 62
     7
 10
134.2568084272399
 20
-51.25829307965185
 30
0.0
 40
1.0
 50
290.7154669700721
 51
341.8051248674166
  0
LINE
  5
655
  8
0
  6
DASHED2
 62
     7
 10
135.0225739139019
 20
-51.90141299027304
 30
0.0
 11
139.2949623306419
 21
-51.90141299027304
 31
0.0
  0
LINE
  5
656
  8
0
  6
DASHED2
 62
     7
 10
139.2949623306419
 20
-51.90141299027304
 30
0.0
 11
139.2949623306419
 21
-60.6033442979362
 31
0.0
  0
ARC
  5
657
  8
0
  6
DASHED2
 62
     7
 10
131.2568085166469
 20
-56.39364601498531
 30
0.0
 40
3.299999973177911
 50
0.0000179860893428
 51
17.63970551769929
  0
LINE
  5
658
  8
0
  6
DASHED2
 62
     7
 10
134.5568057911892
 20
-56.39364026282502
 30
0.0
 11
133.6568058649025
 21
-58.69364058969076
 31
0.0
  0
ARC
  5
659
  8
0
  6
DASHED2
 62
     7
 10
131.2568085166469
 20
-58.21576281248862
 30
0.0
 40
1.199999982118607
 50
203.46797241713
 51
336.5320171102151
  0
LINE
  5
65A
  8
0
  6
DASHED2
 62
     7
 10
128.8567994328993
 20
-58.69364518350052
 30
0.0
 11
133.6567947122116
 21
-58.69364518350052
 31
0.0
  0
LINE
  5
65B
  8
0
  6
DASHED2
 62
     7
 10
179.9429677642451
 20
72.376560781353
 30
0.0
 11
204.4307170874878
 21
86.51456944497527
 31
0.0
  0
LINE
  5
65C
  8
0
  6
DASHED2
 62
     7
 10
178.0764198242369
 20
75.9177109792509
 30
0.0
 11
202.4307170874878
 21
89.978671060113
 31
0.0
  0
LINE
  5
65D
  8
0
  6
DASHED2
 62
     7
 10
202.4307471512134
 20
90.61375961805608
 30
0.0
 11
204.9807502029712
 21
86.19702477295586
 31
0.0
  0
LINE
  5
65E
  8
0
  6
DASHED2
 62
     7
 10
202.4307488030258
 20
90.6137605717304
 30
0.0
 11
212.8230470411896
 21
96.61375675703313
 31
0.0
  0
LINE
  5
65F
  8
0
  6
DASHED2
 62
     7
 10
202.4307396450685
 20
90.61376851717567
 30
0.0
 11
202.430739691846
 21
89.97863190821612
 31
0.0
  0
LINE
  5
660
  8
0
  6
DASHED2
 62
     7
 10
204.9807551584083
 20
86.1970276339788
 30
0.0
 11
215.3730434856979
 21
92.19701809723564
 31
0.0
  0
LINE
  5
661
  8
0
  6
DASHED2
 62
     7
 10
204.4307170874878
 20
86.51456944497527
 30
0.0
 11
202.430739691846
 21
89.97863190821612
 31
0.0
  0
LINE
  5
662
  8
0
  6
DASHED2
 62
     7
 10
204.9807515318389
 20
86.19700691616531
 30
0.0
 11
204.4307170874878
 21
86.51456944497527
 31
0.0
  0
LINE
  5
663
  8
0
  6
DASHED2
 62
     7
 10
208.6698476182726
 20
87.80733205967458
 30
0.0
 11
215.5980310267997
 21
91.80732061558278
 31
0.0
  0
LINE
  5
664
  8
0
  6
DASHED2
 62
     7
 10
212.5980297674651
 20
97.00343707254832
 30
0.0
 11
215.5980297674651
 21
91.80728464984169
 31
0.0
  0
LINE
  5
665
  8
0
  6
DASHED2
 62
     7
 10
212.5980628037125
 20
97.00345614603465
 30
0.0
 11
215.5980628037125
 21
91.80730372332802
 31
0.0
  0
ARC
  5
666
  8
0
  6
DASHED2
 62
     7
 10
216.8701835011522
 20
95.96184357467699
 30
0.0
 40
2.999999910593035
 50
210.0
 51
251.8103131551268
  0
LINE
  5
667
  8
0
  6
DASHED2
 62
     7
 10
215.9080465491772
 20
91.62831383815102
 30
0.0
 11
212.5980093298786
 21
97.36146647692031
 31
0.0
  0
LINE
  5
668
  8
0
  6
DASHED2
 62
     7
 10
220.5980471083655
 20
88.92054080140387
 30
0.0
 11
215.5980771820762
 21
91.8072747324753
 31
0.0
  0
ARC
  5
669
  8
0
  6
DASHED2
 62
     7
 10
216.640646758851
 20
92.365218962821
 30
0.0
 40
0.9999999999999999
 50
120.0000179860893
 51
210.0
  0
ARC
  5
66A
  8
0
  6
DASHED2
 62
     7
 10
216.640646758851
 20
92.365218962821
 30
0.0
 40
0.9999999999999999
 50
210.0
 51
281.8051367065621
  0
LINE
  5
66B
  8
0
  6
DASHED2
 62
     7
 10
218.3055645638754
 20
92.2294977508286
 30
0.0
 11
216.8452270238006
 21
91.38637147895865
 31
0.0
  0
LINE
  5
66C
  8
0
  6
DASHED2
 62
     7
 10
217.2086105336975
 20
93.84781588575369
 30
0.0
 11
215.9336955338662
 21
93.11174336740716
 31
0.0
  0
ARC
  5
66D
  8
0
  6
DASHED2
 62
     7
 10
214.2721073672276
 20
94.46184361938047
 30
0.0
 40
2.999999910593035
 50
348.1896986840186
 51
71.81028401313733
  0
LINE
  5
66E
  8
0
  6
DASHED2
 62
     7
 10
218.5664725130988
 20
93.02378482166459
 30
0.0
 11
215.1738830451141
 21
98.89992214943724
 31
0.0
  0
LINE
  5
66F
  8
0
  6
DASHED2
 62
     7
 10
220.5980292268785
 20
88.92056823044963
 30
0.0
 11
218.4999888325034
 21
92.5544807898391
 31
0.0
  0
ARC
  5
670
  8
0
  6
DASHED2
 62
     7
 10
221.3230977013133
 20
91.84011984344137
 30
0.0
 40
2.999999910593035
 50
92.10689145359126
 51
156.7619948916872
  0
ARC
  5
671
  8
0
  6
DASHED2
 62
     7
 10
217.5601479088949
 20
92.89609319931905
 30
0.0
 40
0.9999999999999999
 50
318.1948751325834
 51
9.284533029927868
  0
ARC
  5
672
  8
0
  6
DASHED2
 62
     7
 10
217.5601479088949
 20
92.89609319931905
 30
0.0
 40
0.9999999999999999
 50
50.71546697007208
 51
120.0000179860893
  0
LINE
  5
673
  8
0
  6
DASHED2
 62
     7
 10
220.5980292268785
 20
88.92056823044963
 30
0.0
 11
228.1341228013019
 21
93.27153388428123
 31
0.0
  0
LINE
  5
674
  8
0
  6
DASHED2
 62
     7
 10
220.947999657008
 20
95.29885251455916
 30
0.0
 11
218.3019883833262
 21
99.88187847797603
 31
0.0
  0
ARC
  5
675
  8
0
  6
DASHED2
 62
     7
 10
220.5074940529962
 20
98.06184580091038
 30
0.0
 40
3.29999997317791
 50
282.3602944823007
 51
299.9999820139107
  0
LINE
  5
676
  8
0
  6
DASHED2
 62
     7
 10
222.1575031590955
 20
95.20394619619505
 30
0.0
 11
218.8574963909883
 21
100.9197255838779
 31
0.0
  0
LINE
  5
677
  8
0
  6
DASHED2
 62
     7
 10
223.6993574463367
 20
97.13336867279632
 30
0.0
 11
222.1574986977018
 21
95.20394570979495
 31
0.0
  0
LINE
  5
678
  8
0
  6
DASHED2
 62
     7
 10
205.6698443146479
 20
93.00348257503258
 30
0.0
 11
212.5980310267997
 21
97.00347303828941
 31
0.0
  0
ARC
  5
679
  8
0
  6
DASHED2
 62
     7
 10
213.640646848258
 20
97.56137123067025
 30
0.0
 40
0.9999999999999999
 50
210.0
 51
299.9999820139107
  0
LINE
  5
67A
  8
0
  6
DASHED2
 62
     7
 10
212.598009308617
 20
97.00347431721023
 30
0.0
 11
212.5980096515088
 21
102.7769424291335
 31
0.0
  0
ARC
  5
67B
  8
0
  6
DASHED2
 62
     7
 10
213.640646848258
 20
97.56137123067025
 30
0.0
 40
0.9999999999999999
 50
138.1948632934379
 51
210.0
  0
LINE
  5
67C
  8
0
  6
DASHED2
 62
     7
 10
214.3555677333523
 20
99.07109295103065
 30
0.0
 11
212.8952301932775
 21
98.2279666791607
 31
0.0
  0
ARC
  5
67D
  8
0
  6
DASHED2
 62
     7
 10
214.5601479983019
 20
98.0922454671683
 30
0.0
 40
0.9999999999999999
 50
299.9999820139107
 51
9.284533029927868
  0
ARC
  5
67E
  8
0
  6
DASHED2
 62
     7
 10
215.5271231426015
 20
101.8790422585068
 30
0.0
 40
2.999999910593035
 50
263.2380051083127
 51
327.8898300556071
  0
ARC
  5
67F
  8
0
  6
DASHED2
 62
     7
 10
214.5601479983019
 20
98.0922454671683
 30
0.0
 40
0.9999999999999999
 50
50.71546697007208
 51
101.8051248674166
  0
LINE
  5
680
  8
0
  6
DASHED2
 62
     7
 10
214.7342234352485
 20
99.07697778726943
 30
0.0
 11
212.5980292268785
 21
102.7769746910007
 31
0.0
  0
LINE
  5
681
  8
0
  6
DASHED2
 62
     7
 10
212.5980292268785
 20
102.7769746910007
 30
0.0
 11
220.1341228013019
 21
107.1279403448322
 31
0.0
  0
ARC
  5
682
  8
0
  6
DASHED2
 62
     7
 10
220.5074940529962
 20
98.06184580091038
 30
0.0
 40
3.29999997317791
 50
120.0000179860893
 51
137.6397055176993
  0
LINE
  5
683
  8
0
  6
DASHED2
 62
     7
 10
218.8574904342081
 20
100.9197243970033
 30
0.0
 11
221.2993491091297
 21
101.2903017608677
 31
0.0
  0
ARC
  5
684
  8
0
  6
DASHED2
 62
     7
 10
222.0854934882964
 20
98.97290419966204
 30
0.0
 40
1.199999982118607
 50
323.46797241713
 51
96.5320171102151
  0
LINE
  5
685
  8
0
  6
DASHED2
 62
     7
 10
223.6993563034873
 20
97.13337654932918
 30
0.0
 11
221.2993586638311
 21
101.290294399259
 31
0.0
  0
LINE
  5
686
  8
0
  6
DASHED2
 62
     7
 10
205.6698579216246
 20
93.00345519236033
 30
0.0
 11
208.6698579216246
 21
87.8073027696537
 31
0.0
  0
ARC
  5
687
  8
0
  6
DASHED2
 62
     7
 10
216.8701835011522
 20
95.96184357467699
 30
0.0
 40
2.999999910593035
 50
168.1896868448731
 51
210.0
  0
LINE
  5
688
  8
0
  6
DASHED2
 62
     7
 10
215.208606778605
 20
97.31192400490245
 30
0.0
 11
213.9336917787737
 21
96.57585148655592
 31
0.0
  0
LINE
  5
689
  8
0
  6
DASHED2
 62
     7
 10
84.64488848287968
 20
75.84045608548878
 30
0.0
 11
60.15713915963698
 21
89.97846474911101
 31
0.0
  0
LINE
  5
68A
  8
0
  6
DASHED2
 62
     7
 10
82.51143642288795
 20
72.45340305311115
 30
0.0
 11
58.15713915963698
 21
86.51436313397328
 31
0.0
  0
LINE
  5
68B
  8
0
  6
DASHED2
 62
     7
 10
57.60712130294269
 20
86.19684489095177
 30
0.0
 11
60.1571243547005
 21
90.61357973605199
 31
0.0
  0
LINE
  5
68C
  8
0
  6
DASHED2
 62
     7
 10
57.60711965113029
 20
86.19684584462614
 30
0.0
 11
47.2148214129665
 21
92.19684202992887
 31
0.0
  0
LINE
  5
68D
  8
0
  6
DASHED2
 62
     7
 10
57.60711734915151
 20
86.19683394087981
 30
0.0
 11
58.15716176399519
 21
86.51440228587016
 31
0.0
  0
LINE
  5
68E
  8
0
  6
DASHED2
 62
     7
 10
60.15711939926337
 20
90.613582597075
 30
0.0
 11
49.76483107197382
 21
96.61357306033177
 31
0.0
  0
LINE
  5
68F
  8
0
  6
DASHED2
 62
     7
 10
60.15713915963698
 20
89.97846474911101
 30
0.0
 11
58.15716176399519
 21
86.51440228587016
 31
0.0
  0
LINE
  5
690
  8
0
  6
DASHED2
 62
     7
 10
60.1571391547009
 20
90.61358981528046
 30
0.0
 11
60.15713915963698
 21
89.97846474911101
 31
0.0
  0
LINE
  5
691
  8
0
  6
DASHED2
 62
     7
 10
56.91800862885219
 20
93.0032781713792
 30
0.0
 11
49.98982522032509
 21
97.0032667272874
 31
0.0
  0
LINE
  5
692
  8
0
  6
DASHED2
 62
     7
 10
46.98985699723787
 20
91.80713119683556
 30
0.0
 11
49.98985699723787
 21
97.00328361954219
 31
0.0
  0
LINE
  5
693
  8
0
  6
DASHED2
 62
     7
 10
46.98982396099046
 20
91.80715027032188
 30
0.0
 11
49.98982396099046
 21
97.00330269302852
 31
0.0
  0
ARC
  5
694
  8
0
  6
DASHED2
 62
     7
 10
45.7558265599676
 20
96.02772160801676
 30
0.0
 40
2.999999910593035
 50
330.0
 51
11.81031315512687
  0
LINE
  5
695
  8
0
  6
DASHED2
 62
     7
 10
49.98984187584185
 20
97.3612514339497
 30
0.0
 11
46.67980465654318
 21
91.62809879518043
 31
0.0
  0
LINE
  5
696
  8
0
  6
DASHED2
 62
     7
 10
49.98984183375325
 20
102.7767975803436
 30
0.0
 11
49.98984187862357
 21
97.00332964048307
 31
0.0
  0
ARC
  5
697
  8
0
  6
DASHED2
 62
     7
 10
48.98536321286178
 20
97.62724926401002
 30
0.0
 40
0.9999999999999998
 50
240.0000179860893
 51
330.0
  0
ARC
  5
698
  8
0
  6
DASHED2
 62
     7
 10
48.98536321286178
 20
97.62724926401002
 30
0.0
 40
0.9999999999999998
 50
330.0
 51
41.80513670656205
  0
LINE
  5
699
  8
0
  6
DASHED2
 62
     7
 10
48.27044232776743
 20
99.13697098437042
 30
0.0
 11
49.7307798678423
 21
98.29384471250047
 31
0.0
  0
LINE
  5
69A
  8
0
  6
DASHED2
 62
     7
 10
47.41741472660618
 20
97.3778218599901
 30
0.0
 11
48.69232972643755
 21
96.64174934164357
 31
0.0
  0
ARC
  5
69B
  8
0
  6
DASHED2
 62
     7
 10
48.35390269389219
 20
94.52772165272025
 30
0.0
 40
2.999999910593035
 50
108.1896986840186
 51
191.8102840131373
  0
LINE
  5
69C
  8
0
  6
DASHED2
 62
     7
 10
47.45211557191425
 20
98.96578036102916
 30
0.0
 11
44.0595261039295
 21
93.08964303325651
 31
0.0
  0
LINE
  5
69D
  8
0
  6
DASHED2
 62
     7
 10
49.98982702024634
 20
102.7767683799987
 30
0.0
 11
47.89178662587125
 21
99.14285582060923
 31
0.0
  0
ARC
  5
69E
  8
0
  6
DASHED2
 62
     7
 10
47.09888691851825
 20
101.9449202918466
 30
0.0
 40
2.999999910593035
 50
212.1068914535913
 51
276.7619948916872
  0
ARC
  5
69F
  8
0
  6
DASHED2
 62
     7
 10
48.06586206281787
 20
98.15812350050807
 30
0.0
 40
0.9999999999999998
 50
78.1948751325834
 51
129.2845330299279
  0
ARC
  5
6A0
  8
0
  6
DASHED2
 62
     7
 10
48.06586206281787
 20
98.15812350050807
 30
0.0
 40
0.9999999999999998
 50
170.7154669700721
 51
240.0000179860893
  0
LINE
  5
6A1
  8
0
  6
DASHED2
 62
     7
 10
49.98982702024634
 20
102.7767683799987
 30
0.0
 11
42.45373344582291
 21
107.1277340338302
 31
0.0
  0
LINE
  5
6A2
  8
0
  6
DASHED2
 62
     7
 10
44.29108558258369
 20
99.89070952100947
 30
0.0
 11
41.64507430890191
 21
95.30768355759257
 31
0.0
  0
ARC
  5
6A3
  8
0
  6
DASHED2
 62
     7
 10
42.11851600812358
 20
98.12772383425023
 30
0.0
 40
3.29999997317791
 50
42.36029448230067
 51
59.99998201391063
  0
LINE
  5
6A4
  8
0
  6
DASHED2
 62
     7
 10
43.76852511422288
 20
100.9856234389656
 30
0.0
 11
40.46851834611567
 21
95.2698440512827
 31
0.0
  0
LINE
  5
6A5
  8
0
  6
DASHED2
 62
     7
 10
41.32666909123293
 20
101.3561971823497
 30
0.0
 11
43.76852776615465
 21
100.9856198184853
 31
0.0
  0
LINE
  5
6A6
  8
0
  6
DASHED2
 62
     7
 10
53.91801193247693
 20
87.80712384132393
 30
0.0
 11
46.98982522032509
 21
91.80711430458076
 31
0.0
  0
ARC
  5
6A7
  8
0
  6
DASHED2
 62
     7
 10
45.98536330226875
 20
92.4310969961608
 30
0.0
 40
0.9999999999999998
 50
330.0
 51
59.99998201391064
  0
LINE
  5
6A8
  8
0
  6
DASHED2
 62
     7
 10
46.98983497183852
 20
91.80709485662244
 30
0.0
 11
41.98986474752775
 21
88.92036109761382
 31
0.0
  0
ARC
  5
6A9
  8
0
  6
DASHED2
 62
     7
 10
45.98536330226875
 20
92.4310969961608
 30
0.0
 40
0.9999999999999998
 50
258.1948632934379
 51
330.0
  0
LINE
  5
6AA
  8
0
  6
DASHED2
 62
     7
 10
44.32044549724432
 20
92.29537578416837
 30
0.0
 11
45.7807830373192
 21
91.45224951229842
 31
0.0
  0
ARC
  5
6AB
  8
0
  6
DASHED2
 62
     7
 10
45.06586215222478
 20
92.96197123265883
 30
0.0
 40
0.9999999999999998
 50
59.99998201391063
 51
129.2845330299279
  0
ARC
  5
6AC
  8
0
  6
DASHED2
 62
     7
 10
41.30291235980644
 20
91.90599787678117
 30
0.0
 40
2.999999910593035
 50
23.23800510831274
 51
87.88983005560709
  0
ARC
  5
6AD
  8
0
  6
DASHED2
 62
     7
 10
45.06586215222478
 20
92.96197123265883
 30
0.0
 40
0.9999999999999998
 50
170.7154669700721
 51
221.8051248674165
  0
LINE
  5
6AE
  8
0
  6
DASHED2
 62
     7
 10
44.12602122861637
 20
92.62035882317885
 30
0.0
 11
41.98982702024634
 21
88.92036191944767
 31
0.0
  0
LINE
  5
6AF
  8
0
  6
DASHED2
 62
     7
 10
41.98982702024634
 20
88.92036191944767
 30
0.0
 11
34.45373344582291
 21
93.27132757327924
 31
0.0
  0
ARC
  5
6B0
  8
0
  6
DASHED2
 62
     7
 10
42.11851600812358
 20
98.12772383425023
 30
0.0
 40
3.29999997317791
 50
240.0000179860893
 51
257.6397055176993
  0
LINE
  5
6B1
  8
0
  6
DASHED2
 62
     7
 10
40.46852235236935
 20
95.26983948599697
 30
0.0
 11
38.92666360373448
 21
97.19926244899828
 31
0.0
  0
ARC
  5
6B2
  8
0
  6
DASHED2
 62
     7
 10
40.54051657282338
 20
99.03878223300184
 30
0.0
 40
1.199999982118607
 50
83.46797241713
 51
216.5320171102151
  0
LINE
  5
6B3
  8
0
  6
DASHED2
 62
     7
 10
41.32666284138008
 20
101.3561922543467
 30
0.0
 11
38.92666520172395
 21
97.19927440441684
 31
0.0
  0
LINE
  5
6B4
  8
0
  6
DASHED2
 62
     7
 10
53.91802884307836
 20
87.80714931664757
 30
0.0
 11
56.91802884307836
 21
93.0033017393542
 31
0.0
  0
ARC
  5
6B5
  8
0
  6
DASHED2
 62
     7
 10
45.7558265599676
 20
96.02772160801676
 30
0.0
 40
2.999999910593035
 50
288.1896868448731
 51
330.0
  0
LINE
  5
6B6
  8
0
  6
DASHED2
 62
     7
 10
45.41741097151368
 20
93.91371374084135
 30
0.0
 11
46.69232597134504
 21
93.17764122249481
 31
0.0
  0
LINE
  5
6B7
  8
0
  6
CENTER
 62
     7
 10
-155.0396807479666
 20
18.59832149736198
 30
0.0
 11
-140.1000144451565
 21
18.59832149736198
 31
0.0
  0
LINE
  5
6B8
  8
0
  6
CENTER
 62
     7
 10
-88.13236410518316
 20
134.0983180551939
 30
0.0
 11
-46.63298371035016
 21
134.0983180551939
 31
0.0
  0
LINE
  5
6B9
  8
0
  6
CENTER
 62
     7
 10
-90.30173698655658
 20
104.0983189492635
 30
0.0
 11
-46.81159164570106
 21
104.0983189492635
 31
0.0
  0
LINE
  5
6BA
  8
0
  6
CENTER
 62
     7
 10
-94.8749866820588
 20
4.098321273844562
 30
0.0
 11
-73.12608596303907
 21
4.098321273844562
 31
0.0
  0
LINE
  5
6BB
  8
0
  6
CENTER
 62
     7
 10
-169.1323240657661
 20
20.30547095210019
 30
0.0
 11
-169.1323240657661
 21
7.843686483860182
 31
0.0
  0
LINE
  5
6BC
  8
0
  6
CENTER
 62
     7
 10
-226.8010801146593
 20
-20.07668016337239
 30
0.0
 11
-143.9272831752318
 21
-20.07668016337239
 31
0.0
  0
LINE
  5
6BD
  8
0
  6
CENTER
 62
     7
 10
-122.3270217343491
 20
46.59832257024556
 30
0.0
 11
-108.9533124792136
 21
46.59832257024556
 31
0.0
  0
LINE
  5
6BE
  8
0
  6
CENTER
 62
     7
 10
-85.40436061810468
 20
46.59832257024556
 30
0.0
 11
-73.36137197861255
 21
46.59832257024556
 31
0.0
  0
LINE
  5
6BF
  8
0
  6
CENTER
 62
     7
 10
-133.6304563310904
 20
-20.07668016337239
 30
0.0
 11
-122.6887715163955
 21
-20.07668016337239
 31
0.0
  0
LINE
  5
6C0
  8
0
  6
CENTER
 62
     7
 10
-113.219442485376
 20
-20.07668016337239
 30
0.0
 11
-72.4874207526494
 21
-20.07668016337239
 31
0.0
  0
LINE
  5
6C1
  8
0
  6
CENTER
 62
     7
 10
-139.6324183007066
 20
-35.95978467729788
 30
0.0
 11
-139.6324183007066
 21
-63.91947200119965
 31
0.0
  0
LINE
  5
6C2
  8
0
  6
CENTER
 62
     7
 10
-212.91325908425
 20
46.59832257024556
 30
0.0
 11
-142.2770749740062
 21
46.59832257024556
 31
0.0
  0
LINE
  5
6C3
  8
0
  6
CENTER
 62
     7
 10
20.48534639322331
 20
46.59832257024556
 30
0.0
 11
257.7250620598361
 21
46.59832257024556
 31
0.0
  0
LINE
  5
6C4
  8
0
  6
CENTER
 62
     7
 10
120.8730013210537
 20
133.902745798577
 30
0.0
 11
140.8701140675148
 21
133.902745798577
 31
0.0
  0
LINE
  5
6C5
  8
0
  6
CENTER
 62
     7
 10
120.8730013210537
 20
103.9027466926466
 30
0.0
 11
140.8701140675148
 21
103.9027466926466
 31
0.0
  0
LINE
  5
6C6
  8
0
  6
CENTER
 62
     7
 10
56.90178269522823
 20
121.0983411408647
 30
0.0
 11
87.53301292179913
 21
121.0983411408647
 31
0.0
  0
LINE
  5
6C7
  8
0
  6
CENTER
 62
     7
 10
56.90205362991026
 20
121.0983619537602
 30
0.0
 11
101.7467333629273
 21
121.0983619537602
 31
0.0
  0
LINE
  5
6C8
  8
0
  6
CENTER
 62
     7
 10
159.911027997884
 20
121.0983619537602
 30
0.0
 11
181.8598184261696
 21
121.0983619537602
 31
0.0
  0
LINE
  5
6C9
  8
0
  6
CENTER
 62
     7
 10
92.1558778008588
 20
-34.61107954046845
 30
0.0
 11
81.54997145486544
 21
-16.24111088889077
 31
0.0
  0
LINE
  5
6CA
  8
0
  6
CENTER
 62
     7
 10
52.46782413738708
 20
34.13064585818469
 30
0.0
 11
41.49342892324432
 21
53.13885595142074
 31
0.0
  0
LINE
  5
6CB
  8
0
  6
CENTER
 62
     7
 10
221.3698248937612
 20
53.61268855832475
 30
0.0
 11
210.5878248329951
 21
34.9377166458672
 31
0.0
  0
LINE
  5
6CC
  8
0
  6
CENTER
 62
     7
 10
181.5056775155167
 20
-15.43404010120824
 30
0.0
 11
170.5312823013739
 21
-34.44225019444426
 31
0.0
  0
LINE
  5
6CD
  8
0
  6
CENTER
 62
     7
 10
86.87656597900644
 20
8.922705453501685
 30
0.0
 11
76.8780096057759
 21
26.2407130942786
 31
0.0
  0
LINE
  5
6CE
  8
0
  6
CENTER
 62
     7
 10
60.89580463976029
 20
-6.077294099463501
 30
0.0
 11
50.89724826652974
 21
11.24071354131341
 31
0.0
  0
LINE
  5
6CF
  8
0
  6
CENTER
 62
     7
 10
212.1106735548693
 20
11.97094987578089
 30
0.0
 11
202.1121171816388
 21
-5.347057764996009
 31
0.0
  0
LINE
  5
6D0
  8
0
  6
CENTER
 62
     7
 10
186.1299122156232
 20
26.97094942874608
 30
0.0
 11
176.1313558423926
 21
9.652941787969183
 31
0.0
  0
LINE
  5
6D1
  8
0
  6
DIVIDE
 62
     7
 10
-224.6324035424103
 20
-14.07667408235753
 30
0.0
 11
-174.6324035424103
 21
-14.07667408235753
 31
0.0
  0
LINE
  5
6D2
  8
0
  6
DIVIDE
 62
     7
 10
-174.6324107843744
 20
-11.07667417176449
 30
0.0
 11
-162.6324111420023
 21
-11.07667417176449
 31
0.0
  0
LINE
  5
6D3
  8
0
  6
DIVIDE
 62
     7
 10
-162.6324111420023
 20
-11.07667417176449
 30
0.0
 11
-162.6324111420023
 21
-29.07667238362521
 31
0.0
  0
LINE
  5
6D4
  8
0
  6
DIVIDE
 62
     7
 10
-224.6324035424103
 20
-26.07667247303218
 30
0.0
 11
-174.6324035424103
 21
-26.07667247303218
 31
0.0
  0
LINE
  5
6D5
  8
0
  6
DIVIDE
 62
     7
 10
-174.6324107843744
 20
-29.07667238362521
 30
0.0
 11
-162.6324111420023
 21
-29.07667238362521
 31
0.0
  0
LINE
  5
6D6
  8
0
  6
DIVIDE
 62
     7
 10
-224.6324035424103
 20
-14.92667074300741
 30
0.0
 11
-188.6324107843744
 21
-14.92667074300741
 31
0.0
  0
LINE
  5
6D7
  8
0
  6
DIVIDE
 62
     7
 10
-224.6324035424103
 20
-25.22667402424301
 30
0.0
 11
-188.6324107843744
 21
-25.22667402424301
 31
0.0
  0
LINE
  5
6D8
  8
0
  6
DIVIDE
 62
     7
 10
-188.6324107843744
 20
-14.07667408235753
 30
0.0
 11
-188.6324107843744
 21
-26.07667247303218
 31
0.0
  0
LINE
  5
6D9
  8
0
  6
DIVIDE
 62
     7
 10
-224.6324035424103
 20
-14.07667408235753
 30
0.0
 11
-224.6324035424103
 21
-26.07667247303218
 31
0.0
  0
LINE
  5
6DA
  8
0
  6
CENTER
 62
     7
 10
-81.63241803248575
 20
16.59832257024556
 30
0.0
 11
-72.77308334483432
 21
16.59832257024556
 31
0.0
  0
LINE
  5
6DB
  8
0
  6
CENTER
 62
     7
 10
-156.1324035424103
 20
-1.465381067026797
 30
0.0
 11
-156.1324035424103
 21
-63.76499990003379
 31
0.0
  0
LINE
  5
6DC
  8
0
  6
CENTER
 62
     7
 10
131.2948432169293
 20
157.4607881959901
 30
0.0
 11
131.2948432169293
 21
-73.58209841746185
 31
0.0
  0
LINE
  5
6DD
  8
0
  6
CENTER
 62
     7
 10
144.2776875336549
 20
-1.854312046531113
 30
0.0
 11
153.3629466236346
 21
-35.76096057026261
 31
0.0
  0
LINE
  5
6DE
  8
0
  6
CENTER
 62
     7
 10
118.3119989002037
 20
-1.854312046531113
 30
0.0
 11
109.226739810224
 21
-35.76096057026261
 31
0.0
  0
LINE
  5
6DF
  8
0
  6
CENTER
 62
     7
 10
179.747477833706
 20
59.58116688697112
 30
0.0
 11
213.6541263574374
 21
68.6664259769509
 31
0.0
  0
LINE
  5
6E0
  8
0
  6
CENTER
 62
     7
 10
166.7646335169804
 20
82.06811287029663
 30
0.0
 11
191.5860229507321
 21
106.8895023040483
 31
0.0
  0
LINE
  5
6E1
  8
0
  6
CENTER
 62
     7
 10
95.8250529168782
 20
82.06811287029666
 30
0.0
 11
71.0036634831265
 21
106.8895023040483
 31
0.0
  0
LINE
  5
6E2
  8
0
  6
CENTER
 62
     7
 10
82.84220860015267
 20
59.58116688697113
 30
0.0
 11
48.93556007642115
 21
68.6664259769509
 31
0.0
  0
LINE
  5
6E3
  8
0
  6
CENTER
 62
     7
 10
91.29538508629332
 20
131.7668441117355
 30
0.0
 11
91.29538508629332
 21
111.3033894141378
 31
0.0
  0
LINE
  5
6E4
  8
0
  6
CENTER
 62
     7
 10
171.2953850862933
 20
130.7481221682602
 30
0.0
 11
171.2953850862933
 21
111.3033894141378
 31
0.0
  0
ARC
  5
6E5
  8
0
  6
CENTER
 62
     7
 10
131.0691893896222
 20
46.59832258103492
 30
0.0
 40
30.0
 50
261.0831413841802
 51
279.3295383497417
  0
ARC
  5
6E6
  8
0
  6
CENTER
 62
     7
 10
131.2951191642151
 20
46.59833855976096
 30
0.0
 40
42.49999999999999
 50
260.0174485944343
 51
280.1351084403933
  0
LINE
  5
6E7
  8
0
  6
CENTER
 62
     7
 10
35.28513165885539
 20
-8.83291024262671
 30
0.0
 11
235.3741408297924
 21
106.6885330640992
 31
0.0
  0
LINE
  5
6E8
  8
0
  6
CENTER
 62
     7
 10
227.3045547750032
 20
-8.832910242626781
 30
0.0
 11
27.21554560406622
 21
106.6885330640993
 31
0.0
  0
ARC
  5
6E9
  8
0
  6
CENTER
 62
     7
 10
131.4076701212389
 20
46.4029006179418
 30
0.0
 40
30.0
 50
21.08314138418015
 51
39.3295383497416
  0
ARC
  5
6EA
  8
0
  6
CENTER
 62
     7
 10
131.2946913959598
 20
46.59855355284751
 30
0.0
 40
42.49999999999999
 50
20.01744859443425
 51
40.13510844039327
  0
ARC
  5
6EB
  8
0
  6
CENTER
 62
     7
 10
131.4076424452736
 20
46.79422246647924
 30
0.0
 40
29.99999999999999
 50
141.0831413841802
 51
159.3295383497416
  0
ARC
  5
6EC
  8
0
  6
CENTER
 62
     7
 10
131.2946913959598
 20
46.59855355284751
 30
0.0
 40
42.49999999999998
 50
140.0174485944343
 51
160.1351084403933
  0
LINE
  5
6ED
  8
0
  6
CENTER
 62
     7
 10
77.53646902455475
 20
-30.62648507924222
 30
0.0
 11
95.25834064186643
 21
-20.39475773044335
 31
0.0
  0
LINE
  5
6EE
  8
0
  6
CENTER
 62
     7
 10
38.41870810699712
 20
39.16490819525059
 30
0.0
 11
55.25834064186643
 21
48.88727457231177
 31
0.0
  0
LINE
  5
6EF
  8
0
  6
CENTER
 62
     7
 10
225.0526755399398
 20
38.65460867824328
 30
0.0
 11
207.3308039226281
 21
48.88633602704218
 31
0.0
  0
LINE
  5
6F0
  8
0
  6
CENTER
 62
     7
 10
184.1704364574974
 20
-30.11806265277409
 30
0.0
 11
167.3308039226281
 21
-20.39569627571291
 31
0.0
  0
ARC
  5
6F1
  8
0
  6
CENTER
 62
     7
 10
131.2948432169293
 20
46.59832257024556
 30
0.0
 40
66.675
 50
119.3797875986583
 51
182.614744532797
  0
ARC
  5
6F2
  8
0
  6
CENTER
 62
     7
 10
131.2948432169293
 20
46.59832257024556
 30
0.0
 40
66.675
 50
240.0369046793453
 51
301.6435078951159
  0
ARC
  5
6F3
  8
0
  6
CENTER
 62
     7
 10
131.2948432169293
 20
46.59832257024556
 30
0.0
 40
66.675
 50
358.1951862730061
 51
60.90843274523291
  0
LINE
  5
6F4
  8
0
  6
CENTER
 62
     7
 10
-99.63242514033941
 20
126.4440184210815
 30
0.0
 11
-99.63242514033941
 21
157.4222615360429
 31
0.0
  0
LINE
  5
6F5
  8
0
  6
DASHED2
 62
     7
 10
138.3084373116466
 20
144.5984332959784
 30
0.0
 11
124.3084373116466
 21
144.5984332959784
 31
0.0
  0
LINE
  5
6F6
  8
0
  6
DASHED2
 62
     7
 10
42.91746070739816
 20
3.672217865236831
 30
0.0
 11
49.91746070739816
 21
-8.452137787745315
 31
0.0
  0
LINE
  5
6F7
  8
0
  6
DASHED2
 62
     7
 10
212.6586316317431
 20
-8.475683450478591
 30
0.0
 11
219.6586316317431
 21
3.648672202503548
 31
0.0
  0
LINE
  5
6F8
  8
0
  6
CONTINUOUS
 62
     4
 10
-81.63241803248575
 20
19.59832257024556
 30
0.0
 11
-74.63241830070665
 21
19.59832257024556
 31
0.0
  0
LINE
  5
6F9
  8
0
  6
CONTINUOUS
 62
     4
 10
-81.63241803248575
 20
13.59832257024556
 30
0.0
 11
-74.63241830070665
 21
13.59832257024556
 31
0.0
  0
LINE
  5
6FA
  8
0
  6
CONTINUOUS
 62
     4
 10
-88.13306230070664
 20
-32.65702816337239
 30
0.0
 11
-88.13306230070664
 21
-7.496332163372387
 31
0.0
  0
LINE
  5
6FB
  8
0
  6
CONTINUOUS
 62
     4
 10
-88.13306230070664
 20
-7.496332163372387
 30
0.0
 11
-93.63241830070665
 21
-7.775717031509451
 31
0.0
  0
LINE
  5
6FC
  8
0
  6
CONTINUOUS
 62
     4
 10
-74.63241830070665
 20
-7.310458163372388
 30
0.0
 11
-88.63241830070665
 21
-8.021701163372384
 31
0.0
  0
LINE
  5
6FD
  8
0
  6
CONTINUOUS
 62
     4
 10
-74.63241830070665
 20
-32.84290216337239
 30
0.0
 11
-88.63241830070665
 21
-32.13165916337238
 31
0.0
  0
LINE
  5
6FE
  8
0
  6
CONTINUOUS
 62
     4
 10
-88.13306230070664
 20
-32.65702816337239
 30
0.0
 11
-93.63241830070665
 21
-32.37764329523532
 31
0.0
  0
CIRCLE
  5
6FF
  8
0
  6
CONTINUOUS
 62
     4
 10
114.0380833847188
 20
-17.80478189757806
 30
0.0
 40
12.766224
  0
CIRCLE
  5
700
  8
0
  6
CONTINUOUS
 62
     4
 10
148.5516030491398
 20
-17.80478189757806
 30
0.0
 40
12.766224
  0
CIRCLE
  5
701
  8
0
  6
CONTINUOUS
 62
     4
 10
195.6979476847529
 20
63.85508240245615
 30
0.0
 40
12.766224
  0
CIRCLE
  5
702
  8
0
  6
CONTINUOUS
 62
     4
 10
178.4411878525424
 20
93.74466720585853
 30
0.0
 40
12.766224
  0
CIRCLE
  5
703
  8
0
  6
CONTINUOUS
 62
     4
 10
84.14849858131626
 20
93.74466720585856
 30
0.0
 40
12.766224
  0
CIRCLE
  5
704
  8
0
  6
CONTINUOUS
 62
     4
 10
66.89173874910574
 20
63.8550824024562
 30
0.0
 40
12.766224
  0
CIRCLE
  5
705
  8
0
  6
CONTINUOUS
 62
     4
 10
131.2948432169293
 20
16.59917125386865
 30
0.0
 40
3.0
  0
CIRCLE
  5
706
  8
0
  6
CONTINUOUS
 62
     4
 10
131.2948486157886
 20
4.098338560656821
 30
0.0
 40
5.249999999999999
  0
CIRCLE
  5
707
  8
0
  6
CONTINUOUS
 62
     4
 10
157.274870348885
 20
61.59789822843403
 30
0.0
 40
3.0
  0
CIRCLE
  5
708
  8
0
  6
CONTINUOUS
 62
     4
 10
168.1009063302359
 20
67.84831925058926
 30
0.0
 40
5.249999999999998
  0
CIRCLE
  5
709
  8
0
  6
CONTINUOUS
 62
     4
 10
105.3147883903204
 20
61.59837618315326
 30
0.0
 40
2.999999999999999
  0
CIRCLE
  5
70A
  8
0
  6
CONTINUOUS
 62
     4
 10
94.4887470101103
 20
67.8487878542099
 30
0.0
 40
5.249999999999997
  0
ARC
  5
70B
  8
0
  6
CONTINUOUS
 62
     4
 10
131.2948432169293
 20
46.59832257024556
 30
0.0
 40
54.0
 50
261.8289127263412
 51
278.4359537659327
  0
ARC
  5
70C
  8
0
  6
CONTINUOUS
 62
     4
 10
131.2948432169293
 20
46.59832257024556
 30
0.0
 40
60.0
 50
266.0617362967676
 51
274.0901088325933
  0
ARC
  5
70D
  8
0
  6
CONTINUOUS
 62
     4
 10
131.2948432169293
 20
46.59832257024556
 30
0.0
 40
66.0
 50
267.03674447693
 51
272.8373268404189
  0
ARC
  5
70E
  8
0
  6
CONTINUOUS
 62
     4
 10
131.2948432169293
 20
46.59832257024556
 30
0.0
 40
72.0
 50
265.8660626663288
 51
274.2066584057466
  0
ARC
  5
70F
  8
0
  6
CONTINUOUS
 62
     4
 10
131.2948432169294
 20
46.59832257024557
 30
0.0
 40
53.99999999999999
 50
291.5640462340673
 51
307.7263560620361
  0
ARC
  5
710
  8
0
  6
CONTINUOUS
 62
     4
 10
131.2948432169294
 20
46.59832257024557
 30
0.0
 40
59.99999999999999
 50
295.9098911674067
 51
309.8167005908656
  0
ARC
  5
711
  8
0
  6
CONTINUOUS
 62
     4
 10
131.2948432169294
 20
46.59832257024557
 30
0.0
 40
65.99999999999999
 50
297.162673159581
 51
311.2592042419372
  0
ARC
  5
712
  8
0
  6
CONTINUOUS
 62
     4
 10
131.2948432169294
 20
46.59832257024557
 30
0.0
 40
71.99999999999999
 50
295.7933415942533
 51
313.3874915378409
  0
ARC
  5
713
  8
0
  6
CONTINUOUS
 62
     4
 10
131.2948432169292
 20
46.59832257024557
 30
0.0
 40
53.99999999999999
 50
232.2736439379639
 51
248.4359537659327
  0
ARC
  5
714
  8
0
  6
CONTINUOUS
 62
     4
 10
131.2948432169292
 20
46.59832257024557
 30
0.0
 40
59.99999999999999
 50
230.1832994091344
 51
244.0901088325933
  0
ARC
  5
715
  8
0
  6
CONTINUOUS
 62
     4
 10
131.2948432169292
 20
46.59832257024557
 30
0.0
 40
71.99999999999999
 50
226.6125084621591
 51
244.2066584057467
  0
ARC
  5
716
  8
0
  6
CONTINUOUS
 62
     4
 10
131.2948432169292
 20
46.59832257024557
 30
0.0
 40
65.99999999999999
 50
228.7407957580628
 51
242.837326840419
  0
ARC
  5
717
  8
0
  6
CONTINUOUS
 62
     4
 10
131.2948155222762
 20
46.59880052496484
 30
0.0
 40
53.99999999999999
 50
21.82891272634116
 51
38.43595376593265
  0
ARC
  5
718
  8
0
  6
CONTINUOUS
 62
     4
 10
131.2948155222762
 20
46.59880052496484
 30
0.0
 40
59.99999999999999
 50
26.06173629676758
 51
34.09010883259324
  0
ARC
  5
719
  8
0
  6
CONTINUOUS
 62
     4
 10
131.2948155222762
 20
46.59880052496484
 30
0.0
 40
65.99999999999999
 50
27.03674447693001
 51
32.83732684041891
  0
ARC
  5
71A
  8
0
  6
CONTINUOUS
 62
     4
 10
131.2948155222762
 20
46.59880052496484
 30
0.0
 40
71.99999999999999
 50
25.86606266632878
 51
34.20665840574664
  0
ARC
  5
71B
  8
0
  6
CONTINUOUS
 62
     4
 10
131.2948155222762
 20
46.59880052496493
 30
0.0
 40
53.99999999999998
 50
51.56404623406726
 51
67.72635606203609
  0
ARC
  5
71C
  8
0
  6
CONTINUOUS
 62
     4
 10
131.2948155222762
 20
46.59880052496493
 30
0.0
 40
59.99999999999998
 50
55.90989116740668
 51
69.81670059086558
  0
ARC
  5
71D
  8
0
  6
CONTINUOUS
 62
     4
 10
131.2948155222762
 20
46.59880052496493
 30
0.0
 40
65.99999999999997
 50
57.16267315958102
 51
71.25920424193721
  0
ARC
  5
71E
  8
0
  6
CONTINUOUS
 62
     4
 10
131.2948155222762
 20
46.59880052496493
 30
0.0
 40
71.99999999999997
 50
55.79334159425328
 51
73.38749153784089
  0
ARC
  5
71F
  8
0
  6
CONTINUOUS
 62
     4
 10
131.2948155222762
 20
46.59880052496479
 30
0.0
 40
53.99999999999998
 50
352.2736439379639
 51
8.435953765932718
  0
ARC
  5
720
  8
0
  6
CONTINUOUS
 62
     4
 10
131.2948155222762
 20
46.59880052496479
 30
0.0
 40
59.99999999999998
 50
350.1832994091344
 51
4.09010883259331
  0
ARC
  5
721
  8
0
  6
CONTINUOUS
 62
     4
 10
131.2948155222762
 20
46.59880052496479
 30
0.0
 40
65.99999999999997
 50
348.7407957580628
 51
2.837326840418969
  0
ARC
  5
722
  8
0
  6
CONTINUOUS
 62
     4
 10
131.2948155222762
 20
46.59880052496479
 30
0.0
 40
71.99999999999997
 50
346.6125084621591
 51
4.206658405746678
  0
ARC
  5
723
  8
0
  6
CONTINUOUS
 62
     4
 10
131.2931598385611
 20
46.59880052496487
 30
0.0
 40
53.99999999999999
 50
141.8289127263411
 51
158.4359537659327
  0
ARC
  5
724
  8
0
  6
CONTINUOUS
 62
     4
 10
131.2931598385611
 20
46.59880052496487
 30
0.0
 40
59.99999999999999
 50
146.0617362967676
 51
154.0901088325932
  0
ARC
  5
725
  8
0
  6
CONTINUOUS
 62
     4
 10
131.2931598385611
 20
46.59880052496487
 30
0.0
 40
65.99999999999997
 50
147.03674447693
 51
152.8373268404189
  0
ARC
  5
726
  8
0
  6
CONTINUOUS
 62
     4
 10
131.2931598385611
 20
46.59880052496487
 30
0.0
 40
71.99999999999997
 50
145.8660626663288
 51
154.2066584057466
  0
ARC
  5
727
  8
0
  6
CONTINUOUS
 62
     4
 10
131.2931598385611
 20
46.59880052496477
 30
0.0
 40
53.99999999999997
 50
171.5640462340673
 51
187.7263560620361
  0
ARC
  5
728
  8
0
  6
CONTINUOUS
 62
     4
 10
131.2931598385611
 20
46.59880052496477
 30
0.0
 40
59.99999999999997
 50
175.9098911674067
 51
189.8167005908656
  0
ARC
  5
729
  8
0
  6
CONTINUOUS
 62
     4
 10
131.2931598385611
 20
46.59880052496477
 30
0.0
 40
65.99999999999996
 50
177.162673159581
 51
191.2592042419372
  0
ARC
  5
72A
  8
0
  6
CONTINUOUS
 62
     4
 10
131.2931598385611
 20
46.59880052496477
 30
0.0
 40
71.99999999999996
 50
175.7933415942533
 51
193.3874915378409
  0
ARC
  5
72B
  8
0
  6
CONTINUOUS
 62
     4
 10
131.2931598385612
 20
46.5988005249649
 30
0.0
 40
53.99999999999997
 50
112.2736439379639
 51
128.4359537659327
  0
ARC
  5
72C
  8
0
  6
CONTINUOUS
 62
     4
 10
131.2931598385612
 20
46.5988005249649
 30
0.0
 40
59.99999999999997
 50
110.1832994091344
 51
124.0901088325933
  0
ARC
  5
72D
  8
0
  6
CONTINUOUS
 62
     4
 10
131.2931598385612
 20
46.5988005249649
 30
0.0
 40
65.99999999999996
 50
108.7407957580627
 51
122.837326840419
  0
ARC
  5
72E
  8
0
  6
CONTINUOUS
 62
     4
 10
131.2931598385612
 20
46.5988005249649
 30
0.0
 40
71.99999999999996
 50
106.6125084621591
 51
124.2066584057467
  0
POINT
  5
72F
  8
0
  6
CONTINUOUS
 62
     5
 10
-78.13241830070665
 20
-20.07668016337239
 30
0.0
  0
LINE
  5
730
  8
0
  6
DASHED
 62
     2
 10
-82.13275030070665
 20
-28.15958416337239
 30
0.0
 11
-82.13275030070665
 21
-11.99377616337239
 31
0.0
  0
LINE
  5
731
  8
0
  6
DASHED
 62
     2
 10
-82.13275430070667
 20
-11.99377516337238
 30
0.0
 11
-86.79941830070663
 21
-20.07667916337239
 31
0.0
  0
LINE
  5
732
  8
0
  6
DASHED
 62
     2
 10
-74.63241830070665
 20
-28.15958416337239
 30
0.0
 11
-82.13275030070665
 21
-28.15958416337239
 31
0.0
  0
LINE
  5
733
  8
0
  6
DASHED
 62
     2
 10
-74.63241830070665
 20
-24.11813216337239
 30
0.0
 11
-82.13275030070665
 21
-24.11813216337239
 31
0.0
  0
LINE
  5
734
  8
0
  6
DASHED
 62
     2
 10
-82.13275430070667
 20
-28.15958516337238
 30
0.0
 11
-86.79941830070663
 21
-20.07668116337238
 31
0.0
  0
LINE
  5
735
  8
0
  6
DASHED
 62
     2
 10
-74.63241830070665
 20
-16.03522816337239
 30
0.0
 11
-82.13275030070665
 21
-16.03522816337239
 31
0.0
  0
LINE
  5
736
  8
0
  6
DASHED
 62
     2
 10
-74.63241830070665
 20
-11.99377616337239
 30
0.0
 11
-82.13275030070665
 21
-11.99377616337239
 31
0.0
  0
LINE
  5
737
  8
0
  6
CONTINUOUS
 62
     3
 10
-88.63241830070665
 20
-8.021701163372384
 30
0.0
 11
-88.63241830070665
 21
-32.13165916337238
 31
0.0
  0
LINE
  5
738
  8
0
  6
CONTINUOUS
 62
     3
 10
-74.63241830070665
 20
-7.310456163372386
 30
0.0
 11
-74.63241830070665
 21
-32.84290416337238
 31
0.0
  0
LINE
  5
739
  8
0
  6
CONTINUOUS
 62
     3
 10
-75.13177430070665
 20
-33.31753516337238
 30
0.0
 11
-74.63241830070665
 21
-32.84290416337238
 31
0.0
  0
LINE
  5
73A
  8
0
  6
CONTINUOUS
 62
     3
 10
-88.13306230070664
 20
-32.65702816337239
 30
0.0
 11
-88.63241830070665
 21
-32.13165916337238
 31
0.0
  0
LINE
  5
73B
  8
0
  6
CONTINUOUS
 62
     3
 10
-75.13177430070665
 20
-6.835825163372384
 30
0.0
 11
-74.63241830070665
 21
-7.310456163372386
 31
0.0
  0
LINE
  5
73C
  8
0
  6
CONTINUOUS
 62
     3
 10
-88.13306230070664
 20
-7.496332163372387
 30
0.0
 11
-88.63241830070665
 21
-8.021701163372384
 31
0.0
  0
LINE
  5
73D
  8
0
  6
CONTINUOUS
 62
     3
 10
-74.63241830070665
 20
-6.810456281959098
 30
0.0
 11
-88.13306230070664
 21
-7.496332163372387
 31
0.0
  0
LINE
  5
73E
  8
0
  6
CONTINUOUS
 62
     3
 10
-74.63241830070665
 20
-33.34290404478567
 30
0.0
 11
-88.13306230070664
 21
-32.65702816337239
 31
0.0
  0
LINE
  5
73F
  8
0
  6
CONTINUOUS
 62
     3
 10
-201.6323704052089
 20
149.0983347742959
 30
0.0
 11
-201.6323704052089
 21
153.0983651726641
 31
0.0
  0
LINE
  5
740
  8
0
  6
CONTINUOUS
 62
     3
 10
-200.6323749204249
 20
154.0983545382225
 30
0.0
 11
-201.6323749406878
 21
153.0983545179596
 31
0.0
  0
LINE
  5
741
  8
0
  6
CONTINUOUS
 62
     3
 10
-200.6323856938
 20
154.0983498840729
 30
0.0
 11
-176.6324493461255
 21
154.0983498840729
 31
0.0
  0
LINE
  5
742
  8
0
  6
CONTINUOUS
 62
     3
 10
-201.6323704052089
 20
-55.9017125219878
 30
0.0
 11
-201.6323704052089
 21
-59.90172003217297
 31
0.0
  0
LINE
  5
743
  8
0
  6
CONTINUOUS
 62
     3
 10
-200.6323749204249
 20
-60.90170939773132
 30
0.0
 11
-201.6323749406878
 21
-59.90170937746846
 31
0.0
  0
LINE
  5
744
  8
0
  6
CONTINUOUS
 62
     3
 10
-200.6323856938
 20
-60.90170474358182
 30
0.0
 11
-176.6324493461255
 21
-60.90170474358182
 31
0.0
  0
CIRCLE
  5
745
  8
0
  6
CONTINUOUS
 62
     3
 10
114.0380833847188
 20
-17.80478189757806
 30
0.0
 40
8.082904
  0
CIRCLE
  5
746
  8
0
  6
CONTINUOUS
 62
     3
 10
114.0380833847188
 20
-17.80478189757806
 30
0.0
 40
13.2205
  0
LINE
  5
747
  8
0
  6
CONTINUOUS
 62
     3
 10
116.1300928796542
 20
-9.997296172562848
 30
0.0
 11
108.322607348163
 21
-12.08930571935279
 31
0.0
  0
LINE
  5
748
  8
0
  6
CONTINUOUS
 62
     3
 10
108.322607348163
 20
-12.08930571935279
 30
0.0
 11
106.2305978532277
 21
-19.89679144436801
 31
0.0
  0
LINE
  5
749
  8
0
  6
CONTINUOUS
 62
     3
 10
106.2305978532277
 20
-19.89679144436801
 30
0.0
 11
111.9460738897835
 21
-25.61226762259327
 31
0.0
  0
LINE
  5
74A
  8
0
  6
CONTINUOUS
 62
     3
 10
119.7535594212746
 20
-23.52025807580331
 30
0.0
 11
121.8455689162099
 21
-15.71277235078809
 31
0.0
  0
LINE
  5
74B
  8
0
  6
CONTINUOUS
 62
     3
 10
111.9460738897835
 20
-25.61226762259327
 30
0.0
 11
119.7535594212746
 21
-23.52025807580331
 31
0.0
  0
LINE
  5
74C
  8
0
  6
CONTINUOUS
 62
     3
 10
121.8455689162099
 20
-15.71277235078809
 30
0.0
 11
116.1300928796542
 21
-9.997296172562848
 31
0.0
  0
CIRCLE
  5
74D
  8
0
  6
CONTINUOUS
 62
     3
 10
148.5516030491398
 20
-17.80478189757806
 30
0.0
 40
8.082904
  0
CIRCLE
  5
74E
  8
0
  6
CONTINUOUS
 62
     3
 10
148.5516030491398
 20
-17.80478189757806
 30
0.0
 40
13.2205
  0
LINE
  5
74F
  8
0
  6
CONTINUOUS
 62
     3
 10
146.4595935542044
 20
-9.997296172562848
 30
0.0
 11
154.2670790856956
 21
-12.08930571935279
 31
0.0
  0
LINE
  5
750
  8
0
  6
CONTINUOUS
 62
     3
 10
142.836127012584
 20
-23.52025807580331
 30
0.0
 11
140.7441175176487
 21
-15.71277235078809
 31
0.0
  0
LINE
  5
751
  8
0
  6
CONTINUOUS
 62
     3
 10
140.7441175176487
 20
-15.71277235078809
 30
0.0
 11
146.4595935542044
 21
-9.997296172562848
 31
0.0
  0
LINE
  5
752
  8
0
  6
CONTINUOUS
 62
     3
 10
154.2670790856956
 20
-12.08930571935279
 30
0.0
 11
156.359088580631
 21
-19.89679144436801
 31
0.0
  0
LINE
  5
753
  8
0
  6
CONTINUOUS
 62
     3
 10
156.359088580631
 20
-19.89679144436801
 30
0.0
 11
150.6436125440752
 21
-25.61226762259327
 31
0.0
  0
LINE
  5
754
  8
0
  6
CONTINUOUS
 62
     3
 10
150.6436125440752
 20
-25.61226762259327
 30
0.0
 11
142.836127012584
 21
-23.52025807580331
 31
0.0
  0
CIRCLE
  5
755
  8
0
  6
CONTINUOUS
 62
     3
 10
195.6979476847529
 20
63.85508240245615
 30
0.0
 40
8.082903999999997
  0
CIRCLE
  5
756
  8
0
  6
CONTINUOUS
 62
     3
 10
195.6979476847529
 20
63.85508240245615
 30
0.0
 40
13.2205
  0
LINE
  5
757
  8
0
  6
CONTINUOUS
 62
     3
 10
187.8904619597376
 20
61.76307290752084
 30
0.0
 11
193.6059381379629
 21
56.04759687096499
 31
0.0
  0
LINE
  5
758
  8
0
  6
CONTINUOUS
 62
     3
 10
193.6059381379629
 20
56.04759687096499
 30
0.0
 11
201.4134238629781
 21
58.13960636590036
 31
0.0
  0
LINE
  5
759
  8
0
  6
CONTINUOUS
 62
     3
 10
197.7899572315428
 20
71.66256793394729
 30
0.0
 11
189.9824715065276
 21
69.57055843901192
 31
0.0
  0
LINE
  5
75A
  8
0
  6
CONTINUOUS
 62
     3
 10
189.9824715065276
 20
69.57055843901192
 30
0.0
 11
187.8904619597376
 21
61.76307290752084
 31
0.0
  0
LINE
  5
75B
  8
0
  6
CONTINUOUS
 62
     3
 10
201.4134238629781
 20
58.13960636590036
 30
0.0
 11
203.5054334097681
 21
65.94709189739152
 31
0.0
  0
LINE
  5
75C
  8
0
  6
CONTINUOUS
 62
     3
 10
203.5054334097681
 20
65.94709189739152
 30
0.0
 11
197.7899572315428
 21
71.66256793394729
 31
0.0
  0
CIRCLE
  5
75D
  8
0
  6
CONTINUOUS
 62
     3
 10
178.4411878525424
 20
93.74466720585853
 30
0.0
 40
8.082903999999997
  0
CIRCLE
  5
75E
  8
0
  6
CONTINUOUS
 62
     3
 10
178.4411878525424
 20
93.74466720585853
 30
0.0
 40
13.2205
  0
LINE
  5
75F
  8
0
  6
CONTINUOUS
 62
     3
 10
186.2486734358881
 20
91.65265785259264
 30
0.0
 11
180.5331972058082
 21
85.9371816225128
 31
0.0
  0
LINE
  5
760
  8
0
  6
CONTINUOUS
 62
     3
 10
180.5331972058082
 20
85.9371816225128
 30
0.0
 11
172.7257116224625
 21
88.02919097577866
 31
0.0
  0
LINE
  5
761
  8
0
  6
CONTINUOUS
 62
     3
 10
172.7257116224625
 20
88.02919097577866
 30
0.0
 11
170.6337022691966
 21
95.83667655912446
 31
0.0
  0
LINE
  5
762
  8
0
  6
CONTINUOUS
 62
     3
 10
170.6337022691966
 20
95.83667655912446
 30
0.0
 11
176.3491784992765
 21
101.5521527892043
 31
0.0
  0
LINE
  5
763
  8
0
  6
CONTINUOUS
 62
     3
 10
176.3491784992765
 20
101.5521527892043
 30
0.0
 11
184.1566640826222
 21
99.4601434359384
 31
0.0
  0
LINE
  5
764
  8
0
  6
CONTINUOUS
 62
     3
 10
184.1566640826222
 20
99.4601434359384
 30
0.0
 11
186.2486734358881
 21
91.65265785259264
 31
0.0
  0
CIRCLE
  5
765
  8
0
  6
CONTINUOUS
 62
     3
 10
84.14849858131626
 20
93.74466720585856
 30
0.0
 40
8.082903999999996
  0
CIRCLE
  5
766
  8
0
  6
CONTINUOUS
 62
     3
 10
84.14849858131626
 20
93.74466720585856
 30
0.0
 40
13.2205
  0
LINE
  5
767
  8
0
  6
CONTINUOUS
 62
     3
 10
89.8639748113961
 20
88.02919097577866
 30
0.0
 11
91.95598416466206
 21
95.83667655912443
 31
0.0
  0
LINE
  5
768
  8
0
  6
CONTINUOUS
 62
     3
 10
91.95598416466206
 20
95.83667655912443
 30
0.0
 11
86.24050793458215
 21
101.5521527892043
 31
0.0
  0
LINE
  5
769
  8
0
  6
CONTINUOUS
 62
     3
 10
76.3410129979705
 20
91.65265785259267
 30
0.0
 11
82.0564892280504
 21
85.93718162251282
 31
0.0
  0
LINE
  5
76A
  8
0
  6
CONTINUOUS
 62
     3
 10
82.0564892280504
 20
85.93718162251282
 30
0.0
 11
89.8639748113961
 21
88.02919097577866
 31
0.0
  0
LINE
  5
76B
  8
0
  6
CONTINUOUS
 62
     3
 10
86.24050793458215
 20
101.5521527892043
 30
0.0
 11
78.43302235123636
 21
99.46014343593843
 31
0.0
  0
LINE
  5
76C
  8
0
  6
CONTINUOUS
 62
     3
 10
78.43302235123636
 20
99.46014343593843
 30
0.0
 11
76.3410129979705
 21
91.65265785259267
 31
0.0
  0
CIRCLE
  5
76D
  8
0
  6
CONTINUOUS
 62
     3
 10
66.89173874910574
 20
63.8550824024562
 30
0.0
 40
8.082903999999996
  0
CIRCLE
  5
76E
  8
0
  6
CONTINUOUS
 62
     3
 10
66.89173874910574
 20
63.8550824024562
 30
0.0
 40
13.2205
  0
LINE
  5
76F
  8
0
  6
CONTINUOUS
 62
     3
 10
64.7997292023158
 20
71.66256793394733
 30
0.0
 11
72.60721492733097
 21
69.57055843901195
 31
0.0
  0
LINE
  5
770
  8
0
  6
CONTINUOUS
 62
     3
 10
72.60721492733097
 20
69.57055843901195
 30
0.0
 11
74.69922447412097
 21
61.76307290752086
 31
0.0
  0
LINE
  5
771
  8
0
  6
CONTINUOUS
 62
     3
 10
74.69922447412097
 20
61.76307290752086
 30
0.0
 11
68.98374829589568
 21
56.04759687096501
 31
0.0
  0
LINE
  5
772
  8
0
  6
CONTINUOUS
 62
     3
 10
68.98374829589568
 20
56.04759687096501
 30
0.0
 11
61.17626257088048
 21
58.13960636590039
 31
0.0
  0
LINE
  5
773
  8
0
  6
CONTINUOUS
 62
     3
 10
61.17626257088048
 20
58.13960636590039
 30
0.0
 11
59.08425302409051
 21
65.94709189739152
 31
0.0
  0
LINE
  5
774
  8
0
  6
CONTINUOUS
 62
     3
 10
59.08425302409051
 20
65.94709189739152
 30
0.0
 11
64.7997292023158
 21
71.66256793394733
 31
0.0
  0
INSERT
  5
775
  8
0
  6
CONTINUOUS
  2
DC_GROUP_1
 10
0.0
 20
0.0
 30
0.0
  0
INSERT
  5
776
  8
0
  6
CONTINUOUS
  2
DC_GROUP_2
 10
0.0
 20
0.0
 30
0.0
  0
INSERT
  5
777
  8
0
  6
CONTINUOUS
  2
DC_GROUP_3
 10
0.0
 20
0.0
 30
0.0
  0
INSERT
  5
778
  8
0
  6
CONTINUOUS
  2
DA_IMAGEDIMGROUP_1
 10
0.0
 20
0.0
 30
0.0
  0
INSERT
  5
779
  8
0
  6
CONTINUOUS
  2
DA_IMAGEDIMGROUP_2
 10
0.0
 20
0.0
 30
0.0
  0
INSERT
  5
77A
  8
0
  6
CONTINUOUS
  2
DA_IMAGEDIMGROUP_3
 10
0.0
 20
0.0
 30
0.0
  0
INSERT
  5
77B
  8
0
  6
CONTINUOUS
  2
DA_IMAGEDIMGROUP_4
 10
0.0
 20
0.0
 30
0.0
  0
INSERT
  5
77C
  8
0
  6
CONTINUOUS
  2
DA_IMAGEDIMGROUP_5
 10
0.0
 20
0.0
 30
0.0
  0
INSERT
  5
77D
  8
0
  6
CONTINUOUS
  2
DA_IMAGEDIMGROUP_6
 10
0.0
 20
0.0
 30
0.0
  0
INSERT
  5
77E
  8
0
  6
CONTINUOUS
  2
DA_IMAGEDIMGROUP_7
 10
0.0
 20
0.0
 30
0.0
  0
INSERT
  5
77F
  8
0
  6
CONTINUOUS
  2
DA_IMAGEDIMGROUP_8
 10
0.0
 20
0.0
 30
0.0
  0
INSERT
  5
780
  8
0
  6
CONTINUOUS
  2
DA_IMAGEDIMGROUP_9
 10
0.0
 20
0.0
 30
0.0
  0
INSERT
  5
781
  8
0
  6
CONTINUOUS
  2
DA_IMAGEDIMGROUP_10
 10
0.0
 20
0.0
 30
0.0
  0
INSERT
  5
782
  8
0
  6
CONTINUOUS
  2
DA_IMAGEDIMGROUP_11
 10
0.0
 20
0.0
 30
0.0
  0
INSERT
  5
783
  8
0
  6
CONTINUOUS
  2
DA_IMAGEDIMGROUP_12
 10
0.0
 20
0.0
 30
0.0
  0
INSERT
  5
784
  8
0
  6
CONTINUOUS
  2
DA_IMAGEDIMGROUP_13
 10
0.0
 20
0.0
 30
0.0
  0
INSERT
  5
785
  8
0
  6
CONTINUOUS
  2
DA_IMAGEDIMGROUP_14
 10
0.0
 20
0.0
 30
0.0
  0
INSERT
  5
786
  8
0
  6
CONTINUOUS
  2
DA_IMAGEDIMGROUP_15
 10
0.0
 20
0.0
 30
0.0
  0
INSERT
  5
787
  8
0
  6
CONTINUOUS
  2
DA_IMAGEDIMGROUP_16
 10
0.0
 20
0.0
 30
0.0
  0
INSERT
  5
788
  8
0
  6
CONTINUOUS
  2
DA_IMAGEDIMGROUP_17
 10
0.0
 20
0.0
 30
0.0
  0
INSERT
  5
789
  8
0
  6
CONTINUOUS
  2
DA_IMAGEDIMGROUP_18
 10
0.0
 20
0.0
 30
0.0
  0
INSERT
  5
78A
  8
0
  6
CONTINUOUS
  2
DC_GROUP_4
 10
0.0
 20
0.0
 30
0.0
  0
INSERT
  5
78B
  8
0
  6
CONTINUOUS
  2
DC_GROUP_5
 10
0.0
 20
0.0
 30
0.0
  0
INSERT
  5
78C
  8
0
  6
CONTINUOUS
  2
DA_IMAGEDIMGROUP_19
 10
0.0
 20
0.0
 30
0.0
  0
INSERT
  5
78D
  8
0
  6
CONTINUOUS
  2
DA_IMAGEDIMGROUP_20
 10
0.0
 20
0.0
 30
0.0
  0
INSERT
  5
78E
  8
0
  6
CONTINUOUS
  2
DA_IMAGEDIMGROUP_21
 10
0.0
 20
0.0
 30
0.0
  0
INSERT
  5
78F
  8
0
  6
CONTINUOUS
  2
DA_IMAGEDIMGROUP_22
 10
0.0
 20
0.0
 30
0.0
  0
INSERT
  5
790
  8
0
  6
CONTINUOUS
  2
DA_IMAGEDIMGROUP_23
 10
0.0
 20
0.0
 30
0.0
  0
INSERT
  5
791
  8
0
  6
CONTINUOUS
  2
DA_IMAGEDIMGROUP_24
 10
0.0
 20
0.0
 30
0.0
  0
INSERT
  5
792
  8
0
  6
CONTINUOUS
  2
DC_GROUP_6
 10
0.0
 20
0.0
 30
0.0
  0
INSERT
  5
793
  8
0
  6
CONTINUOUS
  2
DA_IMAGEDIMGROUP_25
 10
0.0
 20
0.0
 30
0.0
  0
INSERT
  5
794
  8
0
  6
CONTINUOUS
  2
DC_GROUP_7
 10
0.0
 20
0.0
 30
0.0
  0
INSERT
  5
795
  8
0
  6
CONTINUOUS
  2
DA_IMAGEDIMGROUP_26
 10
0.0
 20
0.0
 30
0.0
  0
INSERT
  5
796
  8
0
  6
CONTINUOUS
  2
DA_IMAGEDIMGROUP_27
 10
0.0
 20
0.0
 30
0.0
  0
INSERT
  5
797
  8
0
  6
CONTINUOUS
  2
DA_IMAGEDIMGROUP_28
 10
0.0
 20
0.0
 30
0.0
  0
INSERT
  5
798
  8
0
  6
CONTINUOUS
  2
DC_GROUP_8
 10
0.0
 20
0.0
 30
0.0
  0
INSERT
  5
799
  8
0
  6
CONTINUOUS
  2
DC_GROUP_9
 10
0.0
 20
0.0
 30
0.0
  0
INSERT
  5
79A
  8
0
  6
CONTINUOUS
  2
DC_GROUP_10
 10
0.0
 20
0.0
 30
0.0
  0
INSERT
  5
79B
  8
0
  6
CONTINUOUS
  2
DC_GROUP_11
 10
0.0
 20
0.0
 30
0.0
  0
INSERT
  5
79C
  8
0
  6
CONTINUOUS
  2
DC_GROUP_12
 10
0.0
 20
0.0
 30
0.0
  0
INSERT
  5
79D
  8
0
  6
CONTINUOUS
  2
DC_GROUP_13
 10
0.0
 20
0.0
 30
0.0
  0
INSERT
  5
79E
  8
0
  6
CONTINUOUS
  2
DC_GROUP_14
 10
0.0
 20
0.0
 30
0.0
  0
INSERT
  5
79F
  8
0
  6
CONTINUOUS
  2
DC_GROUP_15
 10
0.0
 20
0.0
 30
0.0
  0
INSERT
  5
7A0
  8
0
  6
CONTINUOUS
  2
DC_GROUP_16
 10
0.0
 20
0.0
 30
0.0
  0
INSERT
  5
7A1
  8
0
  6
CONTINUOUS
  2
DC_GROUP_17
 10
0.0
 20
0.0
 30
0.0
  0
INSERT
  5
7A2
  8
0
  6
CONTINUOUS
  2
DA_IMAGEDIMGROUP_29
 10
0.0
 20
0.0
 30
0.0
  0
INSERT
  5
7A3
  8
0
  6
CONTINUOUS
  2
DA_IMAGEDIMGROUP_30
 10
0.0
 20
0.0
 30
0.0
  0
INSERT
  5
7A4
  8
0
  6
CONTINUOUS
  2
DA_IMAGEDIMGROUP_31
 10
0.0
 20
0.0
 30
0.0
  0
INSERT
  5
7A5
  8
0
  6
CONTINUOUS
  2
DC_GROUP_18
 10
0.0
 20
0.0
 30
0.0
  0
INSERT
  5
7A6
  8
0
  6
CONTINUOUS
  2
DA_IMAGEDIMGROUP_32
 10
0.0
 20
0.0
 30
0.0
  0
INSERT
  5
7A7
  8
0
  6
CONTINUOUS
  2
DC_GROUP_19
 10
0.0
 20
0.0
 30
0.0
  0
INSERT
  5
7A8
  8
0
  6
CONTINUOUS
  2
DA_IMAGEDIMGROUP_33
 10
0.0
 20
0.0
 30
0.0
  0
INSERT
  5
7A9
  8
0
  6
CONTINUOUS
  2
DA_IMAGEDIMGROUP_34
 10
0.0
 20
0.0
 30
0.0
  0
INSERT
  5
7AA
  8
0
  6
CONTINUOUS
  2
DC_GROUP_20
 10
0.0
 20
0.0
 30
0.0
  0
INSERT
  5
7AB
  8
0
  6
CONTINUOUS
  2
DC_GROUP_21
 10
0.0
 20
0.0
 30
0.0
  0
INSERT
  5
7AC
  8
0
  6
CONTINUOUS
  2
DA_IMAGEDIMGROUP_35
 10
0.0
 20
0.0
 30
0.0
  0
INSERT
  5
7AD
  8
0
  6
CONTINUOUS
  2
DA_IMAGEDIMGROUP_36
 10
0.0
 20
0.0
 30
0.0
  0
INSERT
  5
7AE
  8
0
  6
CONTINUOUS
  2
DA_IMAGEDIMGROUP_37
 10
0.0
 20
0.0
 30
0.0
  0
INSERT
  5
7AF
  8
0
  6
CONTINUOUS
  2
DC_GROUP_22
 10
0.0
 20
0.0
 30
0.0
  0
INSERT
  5
7B0
  8
0
  6
CONTINUOUS
  2
DC_GROUP_23
 10
0.0
 20
0.0
 30
0.0
  0
INSERT
  5
7B1
  8
0
  6
CONTINUOUS
  2
DC_GROUP_24
 10
0.0
 20
0.0
 30
0.0
  0
INSERT
  5
7B2
  8
0
  6
CONTINUOUS
  2
DC_GROUP_25
 10
0.0
 20
0.0
 30
0.0
  0
TEXT
  5
7B3
  8
LAYER0015
 62
     5
 10
64.22421307129044
 20
118.4073200201741
 30
0.0
 40
2.7
  1
N MAX 4000 AT ΣS MAX
 50
240.000000445292
 41
0.963959033333333
  7
DCSTYLE0
 72
     5
 11
39.43669540495952
 21
75.47407925800209
 31
0.0
  0
TEXT
  5
7B4
  8
LAYER0015
 62
     5
 10
67.70291378457513
 20
116.581490182345
 30
0.0
 40
2.7
  1
F MAX 39KN
 50
240.000000445292
 41
0.949005671641791
  7
DCSTYLE0
 72
     5
 11
55.4404049496429
 21
95.34220147077244
 31
0.0
  0
TEXT
  5
7B5
  8
LAYER0015
 62
     5
 10
52.61169679392584
 20
90.52529820502248
 30
0.0
 40
2.7
  1
ΣS MAX 77KN
 50
240.000000445292
 41
0.9512827481146302
  7
DCSTYLE0
 72
     5
 11
39.09668707585374
 21
67.11661428839
 31
0.0
  0
TEXT
  5
7B6
  8
LAYER0015
 62
     5
 10
131.3773689820656
 20
-54.64858307045833
 30
0.0
 40
3.0
  1
N min
 41
1.082812440892063
  7
DCSTYLE0
 72
     5
 11
146.2273681714424
 21
-54.64858295504693
 31
0.0
  0
TEXT
  5
7B7
  8
LAYER0015
 62
     5
 10
146.3398669414811
 20
-52.51396743230666
 30
0.0
 40
1.5
  1
-1
 41
1.021621684770337
  7
DCSTYLE0
 72
     5
 11
149.0398671083742
 21
-52.51396741132277
 31
0.0
  0
TEXT
  5
7B8
  8
LAYER0015
 62
     5
 10
139.8780592809527
 20
-48.83191934062627
 30
0.0
 40
3.0
  1
ΣS
 41
1.200000023841864
  7
DCSTYLE0
 72
     5
 11
145.878059400162
 21
-48.8319192939954
 31
0.0
  0
TEXT
  5
7B9
  8
LAYER0015
 62
     5
 10
206.7621450753085
 20
95.66825981235098
 30
0.0
 40
4.499999999999999
  1
PDM3-8
 50
120.0
 41
0.8682170542635657
  7
DCSTYLE0
 72
     5
 11
194.7621450753085
 21
116.4528695031775
 31
0.0
  0
TEXT
  5
7BA
  8
LAYER0015
 62
     5
 10
210.057979938711
 20
100.2092145196289
 30
0.0
 40
3.0
  1
0001
 50
120.0
 41
1.160070760563381
  7
DCSTYLE0
 72
     5
 11
204.174763938711
 21
110.399243543531
 31
0.0
  0
ARC
  5
7BB
  8
LAYER0015
  6
CONTINUOUS
 62
     5
 10
131.3957828526733
 20
-48.77899236985774
 30
0.0
 40
2.625001907348632
 50
315.0001084760797
 51
249.9999504839327
  0
LINE
  5
7BC
  8
LAYER0015
  6
CONTINUOUS
 62
     5
 10
127.7248920355411
 20
-41.25935634543549
 30
0.0
 11
127.7248921521183
 21
-56.25935614351798
 31
0.0
  0
LINE
  5
7BD
  8
LAYER0015
  6
CONTINUOUS
 62
     5
 10
126.9748882892285
 20
-48.75938104583746
 30
0.0
 11
122.4748883498038
 21
-48.75938108081068
 31
0.0
  0
LINE
  5
7BE
  8
LAYER0015
  6
CONTINUOUS
 62
     5
 10
126.2249181821653
 20
-49.50936632832502
 30
0.0
 11
126.9749135676363
 21
-48.75937093119639
 31
0.0
  0
LINE
  5
7BF
  8
LAYER0015
  6
CONTINUOUS
 62
     5
 10
126.2248601115726
 20
-48.0093977293747
 30
0.0
 11
126.974866361515
 21
-48.75940384121768
 31
0.0
  0
LINE
  5
7C0
  8
LAYER0015
  6
CONTINUOUS
 62
     5
 10
122.4748481579468
 20
-48.75940695291237
 30
0.0
 11
123.2248544078891
 21
-49.50941306475541
 31
0.0
  0
LINE
  5
7C1
  8
LAYER0015
  6
CONTINUOUS
 62
     5
 10
122.4749142458553
 20
-48.75936557137301
 30
0.0
 11
123.2249150261227
 21
-48.00936477944794
 31
0.0
  0
LINE
  5
7C2
  8
LAYER0015
  6
CONTINUOUS
 62
     5
 10
127.7248882208439
 20
-41.25936588217856
 30
0.0
 11
138.9748918841029
 21
-41.25936579474566
 31
0.0
  0
LINE
  5
7C3
  8
LAYER0015
  6
CONTINUOUS
 62
     5
 10
127.7248883374212
 20
-56.25937903170117
 30
0.0
 11
135.2248882364624
 21
-56.25937897341259
 31
0.0
  0
LINE
  5
7C4
  8
LAYER0015
  6
CONTINUOUS
 62
     5
 10
138.325201137991
 20
-48.75937623778047
 30
0.0
 11
139.0752019182584
 21
-48.00937544585545
 31
0.0
  0
LINE
  5
7C5
  8
LAYER0015
  6
CONTINUOUS
 62
     5
 10
138.3251498016713
 20
-45.79973000411861
 30
0.0
 11
138.3251498246729
 21
-48.75935520841922
 31
0.0
  0
LINE
  5
7C6
  8
LAYER0015
  6
CONTINUOUS
 62
     5
 10
137.8498881020361
 20
-43.50936958789856
 30
0.0
 11
138.9748842721951
 21
-43.50936957915525
 31
0.0
  0
LINE
  5
7C7
  8
LAYER0015
  6
CONTINUOUS
 62
     5
 10
137.8498881020361
 20
-43.50935528278399
 30
0.0
 11
137.8498881136938
 21
-45.00935526259224
 31
0.0
  0
LINE
  5
7C8
  8
LAYER0015
  6
CONTINUOUS
 62
     5
 10
136.7248881288377
 20
-45.00936957645009
 30
0.0
 11
137.8498881136939
 21
-45.00936956770683
 31
0.0
  0
LINE
  5
7C9
  8
LAYER0015
  6
CONTINUOUS
 62
     5
 10
136.7248919435348
 20
-45.00935145663827
 30
0.0
 11
136.7248919551926
 21
-46.50936288053815
 31
0.0
  0
LINE
  5
7CA
  8
LAYER0015
  6
CONTINUOUS
 62
     5
 10
135.2248881198851
 20
-41.25936296286712
 30
0.0
 11
135.2248882364623
 21
-56.25935608522936
 31
0.0
  0
LINE
  5
7CB
  8
LAYER0015
  6
CONTINUOUS
 62
     5
 10
138.9748918841029
 20
-41.25936293372271
 30
0.0
 11
138.9748919015895
 21
-43.5093629034351
 31
0.0
  0
LINE
  5
7CC
  8
LAYER0015
  6
CONTINUOUS
 62
     5
 10
137.5751409384304
 20
-48.00938184871505
 30
0.0
 11
138.3251471883727
 21
-48.75938796055813
 31
0.0
  0
LINE
  5
7CD
  8
LAYER0015
  6
CONTINUOUS
 62
     5
 10
135.2248881606872
 20
-46.50936575321886
 30
0.0
 11
136.7248881404954
 21
-46.50936574156108
 31
0.0
  0
LINE
  5
7CE
  8
LAYER0015
  6
CONTINUOUS
 62
     5
 10
133.2519479463728
 20
-50.63516633901412
 30
0.0
 11
134.2263588067484
 21
-50.48083477533796
 31
0.0
  0
LINE
  5
7CF
  8
LAYER0015
  6
CONTINUOUS
 62
     5
 10
133.2519619546709
 20
-50.63514704892752
 30
0.0
 11
133.0976281363032
 21
-49.66072111762367
 31
0.0
  0
TEXT
  5
7D0
  8
0
 62
     5
 10
225.4531041319337
 20
67.23456035981134
 30
0.0
 40
5.999999999999999
  1
NIKKO
 50
120.0
 41
0.9719778461538457
  7
DCSTYLE0
 72
     5
 11
212.8173921319337
 21
89.12025553361909
 31
0.0
  0
TEXT
  5
7D1
  8
0
 62
     5
 10
231.1734406767495
 20
67.76173780436699
 30
0.0
 40
4.499999999999999
  1
NOMURA
 50
120.0
 41
0.8749999999999996
  7
DCSTYLE0
 72
     5
 11
219.1734406767495
 21
88.5463474951935
 31
0.0
  0
LINE
  5
7D2
  8
0
  6
CONTINUOUS
 62
     6
 10
-62.27384158625466
 20
-80.25450366266577
 30
0.0
 11
104.8330517839844
 21
-80.25450366266577
 31
0.0
  0
LINE
  5
7D3
  8
0
  6
CONTINUOUS
 62
     6
 10
104.8330517839844
 20
-97.3785316051991
 30
0.0
 11
-62.27384158625465
 21
-97.3785316051991
 31
0.0
  0
LINE
  5
7D4
  8
0
  6
CONTINUOUS
 62
     6
 10
-62.27384158625466
 20
-97.3785316051991
 30
0.0
 11
-62.27384158625466
 21
-80.25450366266577
 31
0.0
  0
LINE
  5
7D5
  8
0
  6
CONTINUOUS
 62
     6
 10
104.8330517839844
 20
-80.25450366266577
 30
0.0
 11
104.8330517839844
 21
-97.3785316051991
 31
0.0
  0
VIEWPORT
  5
AF
 67
     1
  8
0
 10
-0.0002925089170276
 20
0.0
 30
0.0
 40
1614.0
 41
1164.0
 68
     1
 69
     1
1001
ACAD
1000
MVIEW
1002
{
1070
    16
1010
0.0
1020
0.0
1030
0.0
1010
0.0
1020
0.0
1030
1.0
1040
0.0
1040
1164.0
1040
-0.0002925089170276
1040
0.0
1040
50.0
1040
0.0
1040
0.0
1070
     0
1070
   100
1070
     0
1070
     3
1070
     0
1070
     0
1070
     0
1070
     0
1040
0.0
1040
0.0
1040
0.0
1040
0.5
1040
0.5
1040
0.0
1040
0.0
1070
     0
1002
{
1002
}
1002
}
  0
ENDSEC
  0
EOF
